  0
SECTION
  2
HEADER
  9
$ACADVER
  1
AC1009
  9
$INSBASE
 10
0.0
 20
0.0
 30
0.0
  9
$EXTMIN
 10
1.9211731491624131
 20
2.2497711603643462
 30
-0.0015258207003583
  9
$EXTMAX
 10
19.148956346731818
 20
13.84622195973785
 30
0.0000000349246037
  9
$LIMMIN
 10
0.0
 20
0.0
  9
$LIMMAX
 10
0.0
 20
0.0
  9
$ORTHOMODE
 70
     0
  9
$REGENMODE
 70
     1
  9
$FILLMODE
 70
     1
  9
$QTEXTMODE
 70
     0
  9
$MIRRTEXT
 70
     1
  9
$DRAGMODE
 70
     2
  9
$LTSCALE
 40
1.0
  9
$OSMODE
 70
   183
  9
$ATTMODE
 70
     1
  9
$TEXTSIZE
 40
0.2
  9
$TRACEWID
 40
0.05
  9
$TEXTSTYLE
  7
STANDARD
  9
$CLAYER
  8
0
  9
$CELTYPE
  6
BYLAYER
  9
$CECOLOR
 62
   256
  9
$DIMSCALE
 40
1.0
  9
$DIMASZ
 40
0.156
  9
$DIMEXO
 40
0.05
  9
$DIMDLI
 40
0.38
  9
$DIMRND
 40
0.0
  9
$DIMDLE
 40
0.0
  9
$DIMEXE
 40
0.125
  9
$DIMTP
 40
0.0
  9
$DIMTM
 40
0.0
  9
$DIMTXT
 40
0.1377952756
  9
$DIMCEN
 40
0.09
  9
$DIMTSZ
 40
0.0
  9
$DIMTOL
 70
     0
  9
$DIMLIM
 70
     0
  9
$DIMTIH
 70
     1
  9
$DIMTOH
 70
     1
  9
$DIMSE1
 70
     0
  9
$DIMSE2
 70
     0
  9
$DIMTAD
 70
     0
  9
$DIMZIN
 70
     0
  9
$DIMBLK
  1

  9
$DIMASO
 70
     1
  9
$DIMSHO
 70
     1
  9
$DIMPOST
  1

  9
$DIMAPOST
  1

  9
$DIMALT
 70
     0
  9
$DIMALTD
 70
     2
  9
$DIMALTF
 40
25.399999999999999
  9
$DIMLFAC
 40
1.0
  9
$DIMTOFL
 70
     0
  9
$DIMTVP
 40
0.0
  9
$DIMTIX
 70
     0
  9
$DIMSOXD
 70
     0
  9
$DIMSAH
 70
     0
  9
$DIMBLK1
  1

  9
$DIMBLK2
  1

  9
$DIMSTYLE
  2
STANDARD
  9
$DIMCLRD
 70
     0
  9
$DIMCLRE
 70
     0
  9
$DIMCLRT
 70
     0
  9
$DIMTFAC
 40
1.0
  9
$DIMGAP
 40
0.06
  9
$LUNITS
 70
     2
  9
$LUPREC
 70
     2
  9
$SKETCHINC
 40
0.1
  9
$FILLETRAD
 40
0.5
  9
$AUNITS
 70
     0
  9
$AUPREC
 70
     0
  9
$MENU
  1
.
  9
$ELEVATION
 40
0.0
  9
$PELEVATION
 40
0.0
  9
$THICKNESS
 40
0.0
  9
$LIMCHECK
 70
     0
  9
$BLIPMODE
 70
     0
  9
$CHAMFERA
 40
0.5
  9
$CHAMFERB
 40
0.5
  9
$SKPOLY
 70
     0
  9
$TDCREATE
 40
2455204.8712234139
  9
$TDUPDATE
 40
2455204.8734832518
  9
$TDINDWG
 40
0.0005448958
  9
$TDUSRTIMER
 40
0.0005447106
  9
$USRTIMER
 70
     1
  9
$ANGBASE
 50
0.0
  9
$ANGDIR
 70
     0
  9
$PDMODE
 70
     0
  9
$PDSIZE
 40
-1.0
  9
$PLINEWID
 40
0.0
  9
$COORDS
 70
     2
  9
$SPLFRAME
 70
     0
  9
$SPLINETYPE
 70
     6
  9
$SPLINESEGS
 70
     8
  9
$ATTDIA
 70
     0
  9
$ATTREQ
 70
     1
  9
$HANDLING
 70
  4097
  9
$HANDSEED
  5
490
  9
$SURFTAB1
 70
     6
  9
$SURFTAB2
 70
     6
  9
$SURFTYPE
 70
     6
  9
$SURFU
 70
     6
  9
$SURFV
 70
     6
  9
$UCSNAME
  2

  9
$UCSORG
 10
0.0
 20
0.0
 30
0.0
  9
$UCSXDIR
 10
1.0
 20
0.0
 30
0.0
  9
$UCSYDIR
 10
0.0
 20
1.0
 30
0.0
  9
$PUCSNAME
  2

  9
$PUCSORG
 10
0.0
 20
0.0
 30
0.0
  9
$PUCSXDIR
 10
1.0
 20
0.0
 30
0.0
  9
$PUCSYDIR
 10
0.0
 20
1.0
 30
0.0
  9
$USERI1
 70
     0
  9
$USERI2
 70
     0
  9
$USERI3
 70
     0
  9
$USERI4
 70
     0
  9
$USERI5
 70
     0
  9
$USERR1
 40
0.0
  9
$USERR2
 40
0.0
  9
$USERR3
 40
0.0
  9
$USERR4
 40
0.0
  9
$USERR5
 40
0.0
  9
$WORLDVIEW
 70
     1
  9
$SHADEDGE
 70
     3
  9
$SHADEDIF
 70
    70
  9
$TILEMODE
 70
     1
  9
$MAXACTVP
 70
    64
  9
$PLIMCHECK
 70
     0
  9
$PEXTMIN
 10
1.0000000000000000E+020
 20
1.0000000000000000E+020
 30
1.0000000000000000E+020
  9
$PEXTMAX
 10
-1.0000000000000000E+020
 20
-1.0000000000000000E+020
 30
-1.0000000000000000E+020
  9
$PLIMMIN
 10
0.0
 20
0.0
  9
$PLIMMAX
 10
12.0
 20
9.0
  9
$UNITMODE
 70
     0
  9
$VISRETAIN
 70
     1
  9
$PLINEGEN
 70
     0
  9
$PSLTSCALE
 70
     1
  0
ENDSEC
  0
SECTION
  2
TABLES
  0
TABLE
  2
VPORT
 70
     2
  0
VPORT
  2
*ACTIVE
 70
     0
 10
0.0
 20
0.0
 11
1.0
 21
1.0
 12
10.535064747947111
 22
8.0479965600511001
 13
0.0
 23
0.0
 14
0.5
 24
0.5
 15
0.5
 25
0.5
 16
0.0
 26
0.0
 36
1.0
 17
0.0
 27
0.0
 37
0.0
 40
11.67542776281986
 41
2.1568181818181809
 42
50.0
 43
0.0
 44
0.0
 50
0.0
 51
0.0
 71
     0
 72
  2000
 73
     1
 74
     3
 75
     0
 76
     0
 77
     0
 78
     0
  0
ENDTAB
  0
TABLE
  2
LTYPE
 70
     6
  0
LTYPE
  2
CONTINUOUS
 70
     0
  3
Solid line
 72
    65
 73
     0
 40
0.0
  0
LTYPE
  2
HIDDEN
 70
     0
  3
Hidden __ __ __ __ __ __ __ __ __ __ __ __ __ __
 72
    65
 73
     2
 40
0.075
 49
0.05
 49
-0.025
  0
LTYPE
  2
PHANTOM
 70
     0
  3
Phantom ______  __  __  ______  __  __  ______
 72
    65
 73
     6
 40
0.5
 49
0.25
 49
-0.05
 49
0.05
 49
-0.05
 49
0.05
 49
-0.05
  0
LTYPE
  2
CENTER
 70
     0
  3
Center ____ _ ____ _ ____ _ ____ _ ____ _ ____
 72
    65
 73
     4
 40
0.4
 49
0.25
 49
-0.05
 49
0.05
 49
-0.05
  0
LTYPE
  2
CENTERX2
 70
     0
  3
Center (2x) ________  __  ________  __  _____
 72
    65
 73
     4
 40
0.8
 49
0.5
 49
-0.1
 49
0.1
 49
-0.1
  0
LTYPE
  2
DOT2
 70
     0
  3
Dot (.5x) ........................................
 72
    65
 73
     2
 40
0.025
 49
0.0
 49
-0.025
  0
ENDTAB
  0
TABLE
  2
LAYER
 70
     2
  0
LAYER
  2
0
 70
     0
 62
     7
  6
CONTINUOUS
  0
LAYER
  2
FORMAT
 70
     0
 62
     7
  6
CONTINUOUS
  0
ENDTAB
  0
TABLE
  2
STYLE
 70
     2
  0
STYLE
  2
STANDARD
 70
     0
 40
0.0
 41
1.0
 50
0.0
 71
     0
 42
0.2
  3
txt
  4

  0
STYLE
  2
SLDTEXTSTYLE0
 70
     0
 40
0.0
 41
0.75
 50
0.0
 71
     0
 42
0.2
  3
TXT
  4

  0
ENDTAB
  0
TABLE
  2
VIEW
 70
     0
  0
ENDTAB
  0
TABLE
  2
UCS
 70
     0
  0
ENDTAB
  0
TABLE
  2
APPID
 70
     1
  0
APPID
  2
ACAD
 70
     0
  0
ENDTAB
  0
TABLE
  2
DIMSTYLE
 70
     1
  0
DIMSTYLE
  2
STANDARD
 70
     0
  3

  4

  5

  6

  7

 40
1.0
 41
0.18
 42
0.0625
 43
0.38
 44
0.18
 45
0.0
 46
0.0
 47
0.0
 48
0.0
140
0.18
141
0.09
142
0.0
143
25.399999999999999
144
1.0
145
0.0
146
1.0
147
0.09
 71
     0
 72
     0
 73
     1
 74
     1
 75
     0
 76
     0
 77
     0
 78
     0
170
     0
171
     2
172
     0
173
     0
174
     0
175
     0
176
     0
177
     0
178
     0
  0
ENDTAB
  0
ENDSEC
  0
SECTION
  2
BLOCKS
  0
BLOCK
  8
0
  2
$MODEL_SPACE
 70
     0
 10
0.0
 20
0.0
 30
0.0
  3
$MODEL_SPACE
  1

  0
ENDBLK
  5
21
  8
0
  0
BLOCK
 67
     1
  8
0
  2
$PAPER_SPACE
 70
     0
 10
0.0
 20
0.0
 30
0.0
  3
$PAPER_SPACE
  1

  0
ENDBLK
  5
1D
 67
     1
  8
0
  0
BLOCK
  8
0
  2
SW_CENTERMARKSYMBOL_0
 70
     0
 10
0.0
 20
0.0
 30
0.0
  3
SW_CENTERMARKSYMBOL_0
  1

  0
LINE
  5
128
  8
0
  6
CONTINUOUS
 62
     0
 10
0.0
 20
0.0
 30
0.0
 11
-0.1
 21
0.0
 31
0.0
  0
LINE
  5
129
  8
0
  6
CONTINUOUS
 62
     0
 10
0.0
 20
0.0
 30
0.0
 11
0.0
 21
-0.1
 31
0.0
  0
LINE
  5
12A
  8
0
  6
CONTINUOUS
 62
     0
 10
0.0
 20
0.0
 30
0.0
 11
0.1
 21
0.0
 31
0.0
  0
LINE
  5
12B
  8
0
  6
CONTINUOUS
 62
     0
 10
0.0
 20
0.0
 30
0.0
 11
0.0
 21
0.1
 31
0.0
  0
LINE
  5
12C
  8
0
  6
CONTINUOUS
 62
     0
 10
-0.1
 20
0.0
 30
0.0
 11
-0.1625
 21
0.0
 31
0.0
  0
LINE
  5
12D
  8
0
  6
CONTINUOUS
 62
     0
 10
0.0
 20
-0.1
 30
0.0
 11
0.0
 21
-0.1625
 31
0.0
  0
LINE
  5
12E
  8
0
  6
CONTINUOUS
 62
     0
 10
0.1
 20
0.0
 30
0.0
 11
0.1625
 21
0.0
 31
0.0
  0
LINE
  5
12F
  8
0
  6
CONTINUOUS
 62
     0
 10
0.0
 20
0.1
 30
0.0
 11
0.0
 21
0.1625
 31
0.0
  0
ENDBLK
  5
127
  8
0
  0
BLOCK
  8
0
  2
SW_CENTERMARKSYMBOL_1
 70
     0
 10
0.0
 20
0.0
 30
0.0
  3
SW_CENTERMARKSYMBOL_1
  1

  0
LINE
  5
134
  8
0
  6
CONTINUOUS
 62
     0
 10
0.0
 20
0.0
 30
0.0
 11
-0.1
 21
0.0
 31
0.0
  0
LINE
  5
135
  8
0
  6
CONTINUOUS
 62
     0
 10
0.0
 20
0.0
 30
0.0
 11
0.0
 21
-0.1
 31
0.0
  0
LINE
  5
136
  8
0
  6
CONTINUOUS
 62
     0
 10
0.0
 20
0.0
 30
0.0
 11
0.1
 21
0.0
 31
0.0
  0
LINE
  5
137
  8
0
  6
CONTINUOUS
 62
     0
 10
0.0
 20
0.0
 30
0.0
 11
0.0
 21
0.1
 31
0.0
  0
LINE
  5
138
  8
0
  6
CONTINUOUS
 62
     0
 10
-0.1
 20
0.0
 30
0.0
 11
-0.1625
 21
0.0
 31
0.0
  0
LINE
  5
139
  8
0
  6
CONTINUOUS
 62
     0
 10
0.0
 20
-0.1
 30
0.0
 11
0.0
 21
-0.1625
 31
0.0
  0
LINE
  5
13A
  8
0
  6
CONTINUOUS
 62
     0
 10
0.1
 20
0.0
 30
0.0
 11
0.1625
 21
0.0
 31
0.0
  0
LINE
  5
13B
  8
0
  6
CONTINUOUS
 62
     0
 10
0.0
 20
0.1
 30
0.0
 11
0.0
 21
0.1625
 31
0.0
  0
ENDBLK
  5
133
  8
0
  0
BLOCK
  8
0
  2
SW_CENTERMARKSYMBOL_2
 70
     0
 10
0.0
 20
0.0
 30
0.0
  3
SW_CENTERMARKSYMBOL_2
  1

  0
LINE
  5
142
  8
0
  6
CONTINUOUS
 62
     0
 10
0.0
 20
0.0
 30
0.0
 11
0.0
 21
0.1
 31
0.0
  0
LINE
  5
143
  8
0
  6
CONTINUOUS
 62
     0
 10
0.0
 20
0.0
 30
0.0
 11
-0.1
 21
0.0
 31
0.0
  0
LINE
  5
144
  8
0
  6
CONTINUOUS
 62
     0
 10
0.0
 20
0.0
 30
0.0
 11
0.0
 21
-0.1
 31
0.0
  0
LINE
  5
145
  8
0
  6
CONTINUOUS
 62
     0
 10
0.0
 20
0.0
 30
0.0
 11
0.1
 21
0.0
 31
0.0
  0
LINE
  5
146
  8
0
  6
CONTINUOUS
 62
     0
 10
0.0
 20
0.2
 30
0.0
 11
0.0
 21
0.4125
 31
0.0
  0
LINE
  5
147
  8
0
  6
CONTINUOUS
 62
     0
 10
-0.2
 20
0.0
 30
0.0
 11
-0.4125
 21
0.0
 31
0.0
  0
LINE
  5
148
  8
0
  6
CONTINUOUS
 62
     0
 10
0.0
 20
-0.2
 30
0.0
 11
0.0
 21
-0.4125
 31
0.0
  0
LINE
  5
149
  8
0
  6
CONTINUOUS
 62
     0
 10
0.2
 20
0.0
 30
0.0
 11
0.4125
 21
0.0
 31
0.0
  0
ENDBLK
  5
141
  8
0
  0
BLOCK
  8
0
  2
SW_CENTERMARKSYMBOL_3
 70
     0
 10
0.0
 20
0.0
 30
0.0
  3
SW_CENTERMARKSYMBOL_3
  1

  0
LINE
  5
150
  8
0
  6
CONTINUOUS
 62
     0
 10
0.0
 20
0.0
 30
0.0
 11
0.0
 21
0.1
 31
0.0
  0
LINE
  5
151
  8
0
  6
CONTINUOUS
 62
     0
 10
0.0
 20
0.0
 30
0.0
 11
-0.1
 21
0.0
 31
0.0
  0
LINE
  5
152
  8
0
  6
CONTINUOUS
 62
     0
 10
0.0
 20
0.0
 30
0.0
 11
0.0
 21
-0.1
 31
0.0
  0
LINE
  5
153
  8
0
  6
CONTINUOUS
 62
     0
 10
0.0
 20
0.0
 30
0.0
 11
0.1
 21
0.0
 31
0.0
  0
LINE
  5
154
  8
0
  6
CONTINUOUS
 62
     0
 10
0.0
 20
0.2
 30
0.0
 11
0.0
 21
0.4125
 31
0.0
  0
LINE
  5
155
  8
0
  6
CONTINUOUS
 62
     0
 10
-0.2
 20
0.0
 30
0.0
 11
-0.4125
 21
0.0
 31
0.0
  0
LINE
  5
156
  8
0
  6
CONTINUOUS
 62
     0
 10
0.0
 20
-0.2
 30
0.0
 11
0.0
 21
-0.4125
 31
0.0
  0
LINE
  5
157
  8
0
  6
CONTINUOUS
 62
     0
 10
0.2
 20
0.0
 30
0.0
 11
0.4125
 21
0.0
 31
0.0
  0
ENDBLK
  5
14F
  8
0
  0
BLOCK
  8
0
  2
SW_CENTERMARKSYMBOL_4
 70
     0
 10
0.0
 20
0.0
 30
0.0
  3
SW_CENTERMARKSYMBOL_4
  1

  0
LINE
  5
193
  8
0
  6
CONTINUOUS
 62
     0
 10
0.0
 20
0.0
 30
0.0
 11
-0.1
 21
0.0
 31
0.0
  0
LINE
  5
194
  8
0
  6
CONTINUOUS
 62
     0
 10
0.0
 20
0.0
 30
0.0
 11
0.0
 21
-0.1
 31
0.0
  0
LINE
  5
195
  8
0
  6
CONTINUOUS
 62
     0
 10
0.0
 20
0.0
 30
0.0
 11
0.1
 21
0.0
 31
0.0
  0
LINE
  5
196
  8
0
  6
CONTINUOUS
 62
     0
 10
0.0
 20
0.0
 30
0.0
 11
0.0
 21
0.1
 31
0.0
  0
LINE
  5
197
  8
0
  6
CONTINUOUS
 62
     0
 10
-0.1
 20
0.0
 30
0.0
 11
-0.1625
 21
0.0
 31
0.0
  0
LINE
  5
198
  8
0
  6
CONTINUOUS
 62
     0
 10
0.0
 20
-0.1
 30
0.0
 11
0.0
 21
-0.1625
 31
0.0
  0
LINE
  5
199
  8
0
  6
CONTINUOUS
 62
     0
 10
0.1
 20
0.0
 30
0.0
 11
0.1625
 21
0.0
 31
0.0
  0
LINE
  5
19A
  8
0
  6
CONTINUOUS
 62
     0
 10
0.0
 20
0.1
 30
0.0
 11
0.0
 21
0.1625
 31
0.0
  0
ENDBLK
  5
192
  8
0
  0
BLOCK
  8
0
  2
SW_CENTERMARKSYMBOL_5
 70
     0
 10
0.0
 20
0.0
 30
0.0
  3
SW_CENTERMARKSYMBOL_5
  1

  0
LINE
  5
19F
  8
0
  6
CONTINUOUS
 62
     0
 10
0.0
 20
0.0
 30
0.0
 11
-0.1
 21
0.0
 31
0.0
  0
LINE
  5
1A0
  8
0
  6
CONTINUOUS
 62
     0
 10
0.0
 20
0.0
 30
0.0
 11
0.0
 21
-0.1
 31
0.0
  0
LINE
  5
1A1
  8
0
  6
CONTINUOUS
 62
     0
 10
0.0
 20
0.0
 30
0.0
 11
0.1
 21
0.0
 31
0.0
  0
LINE
  5
1A2
  8
0
  6
CONTINUOUS
 62
     0
 10
0.0
 20
0.0
 30
0.0
 11
0.0
 21
0.1
 31
0.0
  0
LINE
  5
1A3
  8
0
  6
CONTINUOUS
 62
     0
 10
-0.1
 20
0.0
 30
0.0
 11
-0.1625
 21
0.0
 31
0.0
  0
LINE
  5
1A4
  8
0
  6
CONTINUOUS
 62
     0
 10
0.0
 20
-0.1
 30
0.0
 11
0.0
 21
-0.1625
 31
0.0
  0
LINE
  5
1A5
  8
0
  6
CONTINUOUS
 62
     0
 10
0.1
 20
0.0
 30
0.0
 11
0.1625
 21
0.0
 31
0.0
  0
LINE
  5
1A6
  8
0
  6
CONTINUOUS
 62
     0
 10
0.0
 20
0.1
 30
0.0
 11
0.0
 21
0.1625
 31
0.0
  0
ENDBLK
  5
19E
  8
0
  0
BLOCK
  8
0
  2
SW_CENTERMARKSYMBOL_6
 70
     0
 10
0.0
 20
0.0
 30
0.0
  3
SW_CENTERMARKSYMBOL_6
  1

  0
LINE
  5
1E4
  8
0
  6
CONTINUOUS
 62
     0
 10
0.0
 20
0.0
 30
0.0
 11
0.0
 21
0.1
 31
0.0
  0
LINE
  5
1E5
  8
0
  6
CONTINUOUS
 62
     0
 10
0.0
 20
0.0
 30
0.0
 11
-0.1
 21
0.0
 31
0.0
  0
LINE
  5
1E6
  8
0
  6
CONTINUOUS
 62
     0
 10
0.0
 20
0.0
 30
0.0
 11
0.0
 21
-0.1
 31
0.0
  0
LINE
  5
1E7
  8
0
  6
CONTINUOUS
 62
     0
 10
0.0
 20
0.0
 30
0.0
 11
0.1
 21
0.0
 31
0.0
  0
LINE
  5
1E8
  8
0
  6
CONTINUOUS
 62
     0
 10
0.0
 20
0.1
 30
0.0
 11
0.0
 21
0.1625
 31
0.0
  0
LINE
  5
1E9
  8
0
  6
CONTINUOUS
 62
     0
 10
-0.1
 20
0.0
 30
0.0
 11
-0.1625
 21
0.0
 31
0.0
  0
LINE
  5
1EA
  8
0
  6
CONTINUOUS
 62
     0
 10
0.0
 20
-0.1
 30
0.0
 11
0.0
 21
-0.1625
 31
0.0
  0
LINE
  5
1EB
  8
0
  6
CONTINUOUS
 62
     0
 10
0.1
 20
0.0
 30
0.0
 11
0.1625
 21
0.0
 31
0.0
  0
ENDBLK
  5
1E3
  8
0
  0
BLOCK
  8
0
  2
SW_CENTERMARKSYMBOL_7
 70
     0
 10
0.0
 20
0.0
 30
0.0
  3
SW_CENTERMARKSYMBOL_7
  1

  0
LINE
  5
219
  8
0
  6
CONTINUOUS
 62
     0
 10
0.0
 20
0.0
 30
0.0
 11
0.0
 21
0.1
 31
0.0
  0
LINE
  5
21A
  8
0
  6
CONTINUOUS
 62
     0
 10
0.0
 20
0.0
 30
0.0
 11
-0.1
 21
0.0
 31
0.0
  0
LINE
  5
21B
  8
0
  6
CONTINUOUS
 62
     0
 10
0.0
 20
0.0
 30
0.0
 11
0.0
 21
-0.1
 31
0.0
  0
LINE
  5
21C
  8
0
  6
CONTINUOUS
 62
     0
 10
0.0
 20
0.0
 30
0.0
 11
0.1
 21
0.0
 31
0.0
  0
LINE
  5
21D
  8
0
  6
CONTINUOUS
 62
     0
 10
0.0
 20
0.2
 30
0.0
 11
0.0
 21
0.225
 31
0.0
  0
LINE
  5
21E
  8
0
  6
CONTINUOUS
 62
     0
 10
-0.2
 20
0.0
 30
0.0
 11
-0.225
 21
0.0
 31
0.0
  0
LINE
  5
21F
  8
0
  6
CONTINUOUS
 62
     0
 10
0.0
 20
-0.2
 30
0.0
 11
0.0
 21
-0.225
 31
0.0
  0
LINE
  5
220
  8
0
  6
CONTINUOUS
 62
     0
 10
0.2
 20
0.0
 30
0.0
 11
0.225
 21
0.0
 31
0.0
  0
ENDBLK
  5
218
  8
0
  0
BLOCK
  8
0
  2
SW_CENTERMARKSYMBOL_8
 70
     0
 10
0.0
 20
0.0
 30
0.0
  3
SW_CENTERMARKSYMBOL_8
  1

  0
LINE
  5
231
  8
0
  6
CONTINUOUS
 62
     0
 10
0.0
 20
0.0
 30
0.0
 11
0.0
 21
0.1
 31
0.0
  0
LINE
  5
232
  8
0
  6
CONTINUOUS
 62
     0
 10
0.0
 20
0.0
 30
0.0
 11
-0.1
 21
0.0
 31
0.0
  0
LINE
  5
233
  8
0
  6
CONTINUOUS
 62
     0
 10
0.0
 20
0.0
 30
0.0
 11
0.0
 21
-0.1
 31
0.0
  0
LINE
  5
234
  8
0
  6
CONTINUOUS
 62
     0
 10
0.0
 20
0.0
 30
0.0
 11
0.1
 21
0.0
 31
0.0
  0
LINE
  5
235
  8
0
  6
CONTINUOUS
 62
     0
 10
0.0
 20
0.1
 30
0.0
 11
0.0
 21
0.1625
 31
0.0
  0
LINE
  5
236
  8
0
  6
CONTINUOUS
 62
     0
 10
-0.1
 20
0.0
 30
0.0
 11
-0.1625
 21
0.0
 31
0.0
  0
LINE
  5
237
  8
0
  6
CONTINUOUS
 62
     0
 10
0.0
 20
-0.1
 30
0.0
 11
0.0
 21
-0.1625
 31
0.0
  0
LINE
  5
238
  8
0
  6
CONTINUOUS
 62
     0
 10
0.1
 20
0.0
 30
0.0
 11
0.1625
 21
0.0
 31
0.0
  0
ENDBLK
  5
230
  8
0
  0
BLOCK
  8
0
  2
SW_CENTERMARKSYMBOL_9
 70
     0
 10
0.0
 20
0.0
 30
0.0
  3
SW_CENTERMARKSYMBOL_9
  1

  0
LINE
  5
23D
  8
0
  6
CONTINUOUS
 62
     0
 10
0.0
 20
0.0
 30
0.0
 11
0.0
 21
0.1
 31
0.0
  0
LINE
  5
23E
  8
0
  6
CONTINUOUS
 62
     0
 10
0.0
 20
0.0
 30
0.0
 11
-0.1
 21
0.0
 31
0.0
  0
LINE
  5
23F
  8
0
  6
CONTINUOUS
 62
     0
 10
0.0
 20
0.0
 30
0.0
 11
0.0
 21
-0.1
 31
0.0
  0
LINE
  5
240
  8
0
  6
CONTINUOUS
 62
     0
 10
0.0
 20
0.0
 30
0.0
 11
0.1
 21
0.0
 31
0.0
  0
LINE
  5
241
  8
0
  6
CONTINUOUS
 62
     0
 10
0.0
 20
0.1
 30
0.0
 11
0.0
 21
0.1625
 31
0.0
  0
LINE
  5
242
  8
0
  6
CONTINUOUS
 62
     0
 10
-0.1
 20
0.0
 30
0.0
 11
-0.1625
 21
0.0
 31
0.0
  0
LINE
  5
243
  8
0
  6
CONTINUOUS
 62
     0
 10
0.0
 20
-0.1
 30
0.0
 11
0.0
 21
-0.1625
 31
0.0
  0
LINE
  5
244
  8
0
  6
CONTINUOUS
 62
     0
 10
0.1
 20
0.0
 30
0.0
 11
0.1625
 21
0.0
 31
0.0
  0
ENDBLK
  5
23C
  8
0
  0
ENDSEC
  0
SECTION
  2
ENTITIES
  0
LINE
  5
34
  8
0
  6
CONTINUOUS
 62
     7
 10
1.922348522599999
 20
13.845296880899991
 30
0.0
 11
6.1847348842999992
 21
13.845296880899991
 31
0.0
  0
LINE
  5
35
  8
0
  6
CONTINUOUS
 62
     7
 10
1.922348522599999
 20
13.845296880899991
 30
0.0
 11
1.922348522599999
 21
10.236927474199989
 31
0.0
  0
LINE
  5
36
  8
0
  6
CONTINUOUS
 62
     7
 10
1.922348522599999
 20
10.236927474199989
 30
0.0
 11
6.1847348842999992
 21
10.236927474199989
 31
0.0
  0
LINE
  5
37
  8
0
  6
CONTINUOUS
 62
     7
 10
6.1847348842999992
 20
13.845296880899991
 30
0.0
 11
6.1847348842999992
 21
10.236927474199989
 31
0.0
  0
LINE
  5
3A
  8
0
  6
CONTINUOUS
 62
     7
 10
15.346712376399999
 20
12.261842334500001
 30
0.0
 11
15.362393988899999
 21
12.2499463303
 31
0.0
  0
LINE
  5
3B
  8
0
  6
CONTINUOUS
 62
     7
 10
15.551260785
 20
12.498915347300001
 30
0.0
 11
15.5355791725
 21
12.510811351399999
 31
0.0
  0
LINE
  5
3C
  8
0
  6
CONTINUOUS
 62
     7
 10
11.52048315529999
 20
11.8981146079
 30
0.0
 11
11.565070717799991
 21
11.987574533
 31
0.0
  0
LINE
  5
3D
  8
0
  6
CONTINUOUS
 62
     7
 10
11.53971948099999
 20
12.094203071700001
 30
0.0
 11
11.4596401917
 21
12.154023111800001
 31
0.0
  0
LINE
  5
3E
  8
0
  6
CONTINUOUS
 62
     7
 10
11.639442184699989
 20
12.2157656998
 30
0.0
 11
11.5043089054
 21
12.183637382600001
 31
0.0
  0
LINE
  5
3F
  8
0
  6
CONTINUOUS
 62
     7
 10
11.573700480199991
 20
11.8917730169
 30
0.0
 11
11.708833759499999
 21
11.923901334199989
 31
0.0
  0
LINE
  5
40
  8
0
  6
CONTINUOUS
 62
     7
 10
12.6181846688
 20
12.422767607000001
 30
0.0
 11
11.68216904859999
 21
12.2002272607
 31
0.0
  0
LINE
  5
41
  8
0
  6
CONTINUOUS
 62
     7
 10
11.739995360099989
 20
11.957006955200001
 30
0.0
 11
12.676010980399999
 21
12.1795473015
 31
0.0
  0
LINE
  5
42
  8
0
  6
CONTINUOUS
 62
     7
 10
16.590539402400001
 20
13.832470368699999
 30
0.0
 11
16.509459409499989
 21
13.813193372300001
 31
0.0
  0
LINE
  5
43
  8
0
  6
CONTINUOUS
 62
     7
 10
16.648080104699989
 20
12.838884244899999
 30
0.0
 11
16.729160097699989
 21
12.858161241199999
 31
0.0
  0
LINE
  5
44
  8
0
  6
CONTINUOUS
 62
     7
 10
14.560242821899999
 20
12.0277207683
 30
0.0
 11
14.607287657000001
 21
11.992032757600001
 31
0.0
  0
LINE
  5
45
  8
0
  6
CONTINUOUS
 62
     7
 10
15.157170970299999
 20
11.594644973499991
 30
0.0
 11
15.20421580549999
 21
11.558956962899989
 31
0.0
  0
LINE
  5
46
  8
0
  6
CONTINUOUS
 62
     7
 10
14.607287657000001
 20
11.992032757600001
 30
0.0
 11
14.6229692695
 21
11.980136753499989
 31
0.0
  0
LINE
  5
47
  8
0
  6
CONTINUOUS
 62
     7
 10
14.544561209399999
 20
12.0396167724
 30
0.0
 11
14.560242821899999
 21
12.0277207683
 31
0.0
  0
LINE
  5
48
  8
0
  6
CONTINUOUS
 62
     7
 10
13.146497996700001
 20
13.005527647199999
 30
0.0
 11
13.0654180117
 21
12.98625065269999
 31
0.0
  0
LINE
  5
49
  8
0
  6
CONTINUOUS
 62
     7
 10
13.20358139769999
 20
11.983767821800001
 30
0.0
 11
13.2846613828
 21
12.003044816299999
 31
0.0
  0
LINE
  5
4A
  8
0
  6
CONTINUOUS
 62
     7
 10
13.1554863408
 20
12.8470592137
 30
0.0
 11
13.1015594561
 21
12.834237945199989
 31
0.0
  0
LINE
  5
4B
  8
0
  6
CONTINUOUS
 62
     7
 10
15.958401725299989
 20
11.0292485239
 30
0.0
 11
16.005446560500001
 21
10.99356051319999
 31
0.0
  0
LINE
  5
4C
  8
0
  6
CONTINUOUS
 62
     7
 10
14.017405136900001
 20
11.830143662799991
 30
0.0
 11
14.0160331946
 21
11.745622505099989
 31
0.0
  0
LINE
  5
4D
  8
0
  6
CONTINUOUS
 62
     7
 10
14.29125233059999
 20
11.787945829599989
 30
0.0
 11
14.292624272899999
 21
11.872466987199999
 31
0.0
  0
LINE
  5
4E
  8
0
  6
CONTINUOUS
 62
     7
 10
12.327758216399999
 20
13.111902588099991
 30
0.0
 11
12.326386274100001
 21
13.0273814304
 31
0.0
  0
POLYLINE
  5
4F
  8
0
  6
CONTINUOUS
 62
     7
 66
     1
 10
0.0
 20
0.0
 30
0.0
 70
   128
  0
VERTEX
  5
251
  8
0
  6
CONTINUOUS
 62
     7
 10
15.5355791725
 20
12.510811351399999
 30
0.0
  0
VERTEX
  5
252
  8
0
  6
CONTINUOUS
 62
     7
 10
15.5219459115
 20
12.5194268915
 30
0.0
  0
VERTEX
  5
253
  8
0
  6
CONTINUOUS
 62
     7
 10
15.4967669137
 20
12.5284005171
 30
0.0
  0
VERTEX
  5
254
  8
0
  6
CONTINUOUS
 62
     7
 10
15.46898711569999
 20
12.5307309024
 30
0.0
  0
VERTEX
  5
255
  8
0
  6
CONTINUOUS
 62
     7
 10
15.4399054399
 20
12.526309162900001
 30
0.0
  0
VERTEX
  5
256
  8
0
  6
CONTINUOUS
 62
     7
 10
15.410882033
 20
12.5153420418
 30
0.0
  0
VERTEX
  5
257
  8
0
  6
CONTINUOUS
 62
     7
 10
15.3832734156
 20
12.4983422221
 30
0.0
  0
VERTEX
  5
258
  8
0
  6
CONTINUOUS
 62
     7
 10
15.358370944000001
 20
12.4761047382
 30
0.0
  0
VERTEX
  5
259
  8
0
  6
CONTINUOUS
 62
     7
 10
15.3373390442
 20
12.449669372500001
 30
0.0
  0
VERTEX
  5
25A
  8
0
  6
CONTINUOUS
 62
     7
 10
15.3211608498
 20
12.420272101199989
 30
0.0
  0
VERTEX
  5
25B
  8
0
  6
CONTINUOUS
 62
     7
 10
15.310593172400001
 20
12.389287661699999
 30
0.0
  0
VERTEX
  5
25C
  8
0
  6
CONTINUOUS
 62
     7
 10
15.3061299433
 20
12.3581647498
 30
0.0
  0
VERTEX
  5
25D
  8
0
  6
CONTINUOUS
 62
     7
 10
15.307979894600001
 20
12.3283587071
 30
0.0
  0
VERTEX
  5
25E
  8
0
  6
CONTINUOUS
 62
     7
 10
15.3160564766
 20
12.301263101099989
 30
0.0
  0
VERTEX
  5
25F
  8
0
  6
CONTINUOUS
 62
     7
 10
15.329982114899989
 20
12.27814504329999
 30
0.0
  0
VERTEX
  5
260
  8
0
  6
CONTINUOUS
 62
     7
 10
15.346712376399999
 20
12.261842334500001
 30
0.0
  0
SEQEND
  5
261
  8
0
  6
CONTINUOUS
 62
     7
  0
POLYLINE
  5
50
  8
0
  6
CONTINUOUS
 62
     7
 66
     1
 10
0.0
 20
0.0
 30
0.0
 70
   128
  0
VERTEX
  5
262
  8
0
  6
CONTINUOUS
 62
     7
 10
15.58283488349999
 20
12.3558690431
 30
0.0
  0
VERTEX
  5
263
  8
0
  6
CONTINUOUS
 62
     7
 10
15.590394753599989
 20
12.38710586089999
 30
0.0
  0
VERTEX
  5
264
  8
0
  6
CONTINUOUS
 62
     7
 10
15.5917089195
 20
12.417749929099999
 30
0.0
  0
VERTEX
  5
265
  8
0
  6
CONTINUOUS
 62
     7
 10
15.586716472000001
 20
12.446368538
 30
0.0
  0
VERTEX
  5
266
  8
0
  6
CONTINUOUS
 62
     7
 10
15.5756504177
 20
12.471623389899991
 30
0.0
  0
VERTEX
  5
267
  8
0
  6
CONTINUOUS
 62
     7
 10
15.559028341399999
 20
12.492333611099991
 30
0.0
  0
VERTEX
  5
268
  8
0
  6
CONTINUOUS
 62
     7
 10
15.537627523999999
 20
12.5075308873
 30
0.0
  0
VERTEX
  5
269
  8
0
  6
CONTINUOUS
 62
     7
 10
15.5124485261
 20
12.51650451299999
 30
0.0
  0
VERTEX
  5
26A
  8
0
  6
CONTINUOUS
 62
     7
 10
15.48466872819999
 20
12.518834898299991
 30
0.0
  0
VERTEX
  5
26B
  8
0
  6
CONTINUOUS
 62
     7
 10
15.4555870524
 20
12.514413158699989
 30
0.0
  0
VERTEX
  5
26C
  8
0
  6
CONTINUOUS
 62
     7
 10
15.426563645499989
 20
12.5034460377
 30
0.0
  0
VERTEX
  5
26D
  8
0
  6
CONTINUOUS
 62
     7
 10
15.3989550281
 20
12.486446217999999
 30
0.0
  0
VERTEX
  5
26E
  8
0
  6
CONTINUOUS
 62
     7
 10
15.374052556400001
 20
12.464208734
 30
0.0
  0
VERTEX
  5
26F
  8
0
  6
CONTINUOUS
 62
     7
 10
15.3530206566
 20
12.4377733683
 30
0.0
  0
VERTEX
  5
270
  8
0
  6
CONTINUOUS
 62
     7
 10
15.336842462299989
 20
12.408376097
 30
0.0
  0
VERTEX
  5
271
  8
0
  6
CONTINUOUS
 62
     7
 10
15.326274784800001
 20
12.3773916576
 30
0.0
  0
VERTEX
  5
272
  8
0
  6
CONTINUOUS
 62
     7
 10
15.3218115558
 20
12.346268745699991
 30
0.0
  0
VERTEX
  5
273
  8
0
  6
CONTINUOUS
 62
     7
 10
15.323661507100001
 20
12.31646270299999
 30
0.0
  0
VERTEX
  5
274
  8
0
  6
CONTINUOUS
 62
     7
 10
15.331738089
 20
12.2893670969
 30
0.0
  0
VERTEX
  5
275
  8
0
  6
CONTINUOUS
 62
     7
 10
15.3456637274
 20
12.2662490391
 30
0.0
  0
VERTEX
  5
276
  8
0
  6
CONTINUOUS
 62
     7
 10
15.364787427799991
 20
12.2481894554
 30
0.0
  0
VERTEX
  5
277
  8
0
  6
CONTINUOUS
 62
     7
 10
15.3882145363
 20
12.2360327327
 30
0.0
  0
VERTEX
  5
278
  8
0
  6
CONTINUOUS
 62
     7
 10
15.414850198599989
 20
12.230347394600001
 30
0.0
  0
VERTEX
  5
279
  8
0
  6
CONTINUOUS
 62
     7
 10
15.4434485818
 20
12.231399276399999
 30
0.0
  0
VERTEX
  5
27A
  8
0
  6
CONTINUOUS
 62
     7
 10
15.4726723109
 20
12.2391390501
 30
0.0
  0
VERTEX
  5
27B
  8
0
  6
CONTINUOUS
 62
     7
 10
15.5011554387
 20
12.2532050113
 30
0.0
  0
VERTEX
  5
27C
  8
0
  6
CONTINUOUS
 62
     7
 10
15.52756562259999
 20
12.272939310999989
 30
0.0
  0
VERTEX
  5
27D
  8
0
  6
CONTINUOUS
 62
     7
 10
15.550668314699999
 20
12.2974192206
 30
0.0
  0
VERTEX
  5
27E
  8
0
  6
CONTINUOUS
 62
     7
 10
15.569383055699999
 20
12.3255001523
 30
0.0
  0
VERTEX
  5
27F
  8
0
  6
CONTINUOUS
 62
     7
 10
15.58283488349999
 20
12.3558690431
 30
0.0
  0
SEQEND
  5
280
  8
0
  6
CONTINUOUS
 62
     7
  0
POLYLINE
  5
51
  8
0
  6
CONTINUOUS
 62
     7
 66
     1
 10
0.0
 20
0.0
 30
0.0
 70
   128
  0
VERTEX
  5
281
  8
0
  6
CONTINUOUS
 62
     7
 10
15.4820289879
 20
12.370718517
 30
0.0
  0
VERTEX
  5
282
  8
0
  6
CONTINUOUS
 62
     7
 10
15.483850906100001
 20
12.381967907599989
 30
0.0
  0
VERTEX
  5
283
  8
0
  6
CONTINUOUS
 62
     7
 10
15.481559062600001
 20
12.392069950699989
 30
0.0
  0
VERTEX
  5
284
  8
0
  6
CONTINUOUS
 62
     7
 10
15.47550174059999
 20
12.399486511299999
 30
0.0
  0
VERTEX
  5
285
  8
0
  6
CONTINUOUS
 62
     7
 10
15.4666017005
 20
12.403088626000001
 30
0.0
  0
VERTEX
  5
286
  8
0
  6
CONTINUOUS
 62
     7
 10
15.456213401199999
 20
12.4023278376
 30
0.0
  0
VERTEX
  5
287
  8
0
  6
CONTINUOUS
 62
     7
 10
15.4459186553
 20
12.397319986699999
 30
0.0
  0
VERTEX
  5
288
  8
0
  6
CONTINUOUS
 62
     7
 10
15.4372847529
 20
12.388827517199999
 30
0.0
  0
VERTEX
  5
289
  8
0
  6
CONTINUOUS
 62
     7
 10
15.431626040199991
 20
12.378143253999999
 30
0.0
  0
VERTEX
  5
28A
  8
0
  6
CONTINUOUS
 62
     7
 10
15.429803868300001
 20
12.366893803
 30
0.0
  0
VERTEX
  5
28B
  8
0
  6
CONTINUOUS
 62
     7
 10
15.43209596599999
 20
12.35679185329999
 30
0.0
  0
VERTEX
  5
28C
  8
0
  6
CONTINUOUS
 62
     7
 10
15.438153034400001
 20
12.3493752324
 30
0.0
  0
VERTEX
  5
28D
  8
0
  6
CONTINUOUS
 62
     7
 10
15.44705332809999
 20
12.345773178
 30
0.0
  0
VERTEX
  5
28E
  8
0
  6
CONTINUOUS
 62
     7
 10
15.4574413732
 20
12.3465338731
 30
0.0
  0
VERTEX
  5
28F
  8
0
  6
CONTINUOUS
 62
     7
 10
15.4677361191
 20
12.3515417239
 30
0.0
  0
VERTEX
  5
290
  8
0
  6
CONTINUOUS
 62
     7
 10
15.47637027569999
 20
12.360034286799999
 30
0.0
  0
VERTEX
  5
291
  8
0
  6
CONTINUOUS
 62
     7
 10
15.4820289879
 20
12.370718517
 30
0.0
  0
SEQEND
  5
292
  8
0
  6
CONTINUOUS
 62
     7
  0
POLYLINE
  5
52
  8
0
  6
CONTINUOUS
 62
     7
 66
     1
 10
0.0
 20
0.0
 30
0.0
 70
   128
  0
VERTEX
  5
293
  8
0
  6
CONTINUOUS
 62
     7
 10
15.466347375499989
 20
12.38261452109999
 30
0.0
  0
VERTEX
  5
294
  8
0
  6
CONTINUOUS
 62
     7
 10
15.468169293600001
 20
12.3938639117
 30
0.0
  0
VERTEX
  5
295
  8
0
  6
CONTINUOUS
 62
     7
 10
15.4662511496
 20
12.403137362200001
 30
0.0
  0
SEQEND
  5
296
  8
0
  6
CONTINUOUS
 62
     7
  0
ARC
  5
53
  8
0
  6
CONTINUOUS
 62
     7
 10
15.432819005800001
 20
12.3925817088
 30
0.0
 40
0.0349785134165396
 50
268.20308778499992
 51
343.44403718289988
  0
ARC
  5
54
  8
0
  6
CONTINUOUS
 62
     7
 10
11.470060298199989
 20
12.02131347029999
 30
0.0
 40
0.1008230912831657
 50
340.4496546705999
 51
46.298205921600001
  0
POLYLINE
  5
55
  8
0
  6
CONTINUOUS
 62
     7
 66
     1
 10
0.0
 20
0.0
 30
0.0
 70
   128
  0
VERTEX
  5
297
  8
0
  6
CONTINUOUS
 62
     7
 10
11.3826529663
 20
12.075529016300001
 30
0.0
  0
VERTEX
  5
298
  8
0
  6
CONTINUOUS
 62
     7
 10
11.38488466019999
 20
12.1032653118
 30
0.0
  0
VERTEX
  5
299
  8
0
  6
CONTINUOUS
 62
     7
 10
11.39053162339999
 20
12.127034718100001
 30
0.0
  0
VERTEX
  5
29A
  8
0
  6
CONTINUOUS
 62
     7
 10
11.3993298154
 20
12.145725801299999
 30
0.0
  0
VERTEX
  5
29B
  8
0
  6
CONTINUOUS
 62
     7
 10
11.410867839
 20
12.1584645954
 30
0.0
  0
VERTEX
  5
29C
  8
0
  6
CONTINUOUS
 62
     7
 10
11.4246061875
 20
12.1646554493
 30
0.0
  0
VERTEX
  5
29D
  8
0
  6
CONTINUOUS
 62
     7
 10
11.439902473499989
 20
12.16400886279999
 30
0.0
  0
VERTEX
  5
29E
  8
0
  6
CONTINUOUS
 62
     7
 10
11.456041458499991
 20
12.156555089899999
 30
0.0
  0
VERTEX
  5
29F
  8
0
  6
CONTINUOUS
 62
     7
 10
11.4722685015
 20
12.142642674999991
 30
0.0
  0
VERTEX
  5
2A0
  8
0
  6
CONTINUOUS
 62
     7
 10
11.4878248443
 20
12.1229221174
 30
0.0
  0
VERTEX
  5
2A1
  8
0
  6
CONTINUOUS
 62
     7
 10
11.501983089699999
 20
12.09831552849999
 30
0.0
  0
VERTEX
  5
2A2
  8
0
  6
CONTINUOUS
 62
     7
 10
11.514081212400001
 20
12.069973512600001
 30
0.0
  0
VERTEX
  5
2A3
  8
0
  6
CONTINUOUS
 62
     7
 10
11.5235535215
 20
12.039221294800001
 30
0.0
  0
VERTEX
  5
2A4
  8
0
  6
CONTINUOUS
 62
     7
 10
11.529957099500001
 20
12.007496809299999
 30
0.0
  0
VERTEX
  5
2A5
  8
0
  6
CONTINUOUS
 62
     7
 10
11.532992522000001
 20
11.976283463499991
 30
0.0
  0
VERTEX
  5
2A6
  8
0
  6
CONTINUOUS
 62
     7
 10
11.532517856199989
 20
11.94704076089999
 30
0.0
  0
VERTEX
  5
2A7
  8
0
  6
CONTINUOUS
 62
     7
 10
11.528555297
 20
11.921136056199989
 30
0.0
  0
VERTEX
  5
2A8
  8
0
  6
CONTINUOUS
 62
     7
 10
11.521290129
 20
11.8997806249
 30
0.0
  0
VERTEX
  5
2A9
  8
0
  6
CONTINUOUS
 62
     7
 10
11.51106206369999
 20
11.883973022799999
 30
0.0
  0
VERTEX
  5
2AA
  8
0
  6
CONTINUOUS
 62
     7
 10
11.4983493568
 20
11.8744523919
 30
0.0
  0
VERTEX
  5
2AB
  8
0
  6
CONTINUOUS
 62
     7
 10
11.483746436300001
 20
11.87166390869999
 30
0.0
  0
VERTEX
  5
2AC
  8
0
  6
CONTINUOUS
 62
     7
 10
11.46793612039999
 20
11.875737964200001
 30
0.0
  0
VERTEX
  5
2AD
  8
0
  6
CONTINUOUS
 62
     7
 10
11.4516576819
 20
11.88648406009999
 30
0.0
  0
VERTEX
  5
2AE
  8
0
  6
CONTINUOUS
 62
     7
 10
11.4356722815
 20
11.90339970859999
 30
0.0
  0
VERTEX
  5
2AF
  8
0
  6
CONTINUOUS
 62
     7
 10
11.420727379200001
 20
11.925693966600001
 30
0.0
  0
VERTEX
  5
2B0
  8
0
  6
CONTINUOUS
 62
     7
 10
11.4075217834
 20
11.952324373
 30
0.0
  0
VERTEX
  5
2B1
  8
0
  6
CONTINUOUS
 62
     7
 10
11.39667297029999
 20
11.98204572559999
 30
0.0
  0
VERTEX
  5
2B2
  8
0
  6
CONTINUOUS
 62
     7
 10
11.388688219800001
 20
12.0134682792
 30
0.0
  0
VERTEX
  5
2B3
  8
0
  6
CONTINUOUS
 62
     7
 10
11.38394089369999
 20
12.045122751399999
 30
0.0
  0
VERTEX
  5
2B4
  8
0
  6
CONTINUOUS
 62
     7
 10
11.3826529663
 20
12.075529016300001
 30
0.0
  0
SEQEND
  5
2B5
  8
0
  6
CONTINUOUS
 62
     7
  0
POLYLINE
  5
56
  8
0
  6
CONTINUOUS
 62
     7
 66
     1
 10
0.0
 20
0.0
 30
0.0
 70
   128
  0
VERTEX
  5
2B6
  8
0
  6
CONTINUOUS
 62
     7
 10
11.471281681800001
 20
12.1453268099
 30
0.0
  0
VERTEX
  5
2B7
  8
0
  6
CONTINUOUS
 62
     7
 10
11.471611616400001
 20
12.146311714499999
 30
0.0
  0
VERTEX
  5
2B8
  8
0
  6
CONTINUOUS
 62
     7
 10
11.480409808399999
 20
12.165002797599991
 30
0.0
  0
VERTEX
  5
2B9
  8
0
  6
CONTINUOUS
 62
     7
 10
11.491947831999999
 20
12.1777415917
 30
0.0
  0
VERTEX
  5
2BA
  8
0
  6
CONTINUOUS
 62
     7
 10
11.5056861805
 20
12.1839324457
 30
0.0
  0
VERTEX
  5
2BB
  8
0
  6
CONTINUOUS
 62
     7
 10
11.5209824665
 20
12.1832858592
 30
0.0
  0
VERTEX
  5
2BC
  8
0
  6
CONTINUOUS
 62
     7
 10
11.537121451499999
 20
12.1758320863
 30
0.0
  0
VERTEX
  5
2BD
  8
0
  6
CONTINUOUS
 62
     7
 10
11.553348494499989
 20
12.1619196714
 30
0.0
  0
VERTEX
  5
2BE
  8
0
  6
CONTINUOUS
 62
     7
 10
11.5689048373
 20
12.1421991138
 30
0.0
  0
VERTEX
  5
2BF
  8
0
  6
CONTINUOUS
 62
     7
 10
11.583063082700001
 20
12.117592524899999
 30
0.0
  0
VERTEX
  5
2C0
  8
0
  6
CONTINUOUS
 62
     7
 10
11.59516120539999
 20
12.089250508899999
 30
0.0
  0
VERTEX
  5
2C1
  8
0
  6
CONTINUOUS
 62
     7
 10
11.6046335145
 20
12.058498291199991
 30
0.0
  0
VERTEX
  5
2C2
  8
0
  6
CONTINUOUS
 62
     7
 10
11.6110370925
 20
12.026773805699991
 30
0.0
  0
VERTEX
  5
2C3
  8
0
  6
CONTINUOUS
 62
     7
 10
11.614072515
 20
11.9955604599
 30
0.0
  0
VERTEX
  5
2C4
  8
0
  6
CONTINUOUS
 62
     7
 10
11.6135978492
 20
11.966317757300001
 30
0.0
  0
VERTEX
  5
2C5
  8
0
  6
CONTINUOUS
 62
     7
 10
11.609635289999989
 20
11.9404130526
 30
0.0
  0
VERTEX
  5
2C6
  8
0
  6
CONTINUOUS
 62
     7
 10
11.602370122
 20
11.91905762129999
 30
0.0
  0
VERTEX
  5
2C7
  8
0
  6
CONTINUOUS
 62
     7
 10
11.5921420567
 20
11.9032500192
 30
0.0
  0
VERTEX
  5
2C8
  8
0
  6
CONTINUOUS
 62
     7
 10
11.5794293498
 20
11.89372938829999
 30
0.0
  0
VERTEX
  5
2C9
  8
0
  6
CONTINUOUS
 62
     7
 10
11.5648264293
 20
11.890940905000001
 30
0.0
  0
VERTEX
  5
2CA
  8
0
  6
CONTINUOUS
 62
     7
 10
11.54901611339999
 20
11.89501496059999
 30
0.0
  0
VERTEX
  5
2CB
  8
0
  6
CONTINUOUS
 62
     7
 10
11.532737674899989
 20
11.905761056499999
 30
0.0
  0
VERTEX
  5
2CC
  8
0
  6
CONTINUOUS
 62
     7
 10
11.5269650571
 20
11.911119793199999
 30
0.0
  0
SEQEND
  5
2CD
  8
0
  6
CONTINUOUS
 62
     7
  0
POLYLINE
  5
57
  8
0
  6
CONTINUOUS
 62
     7
 66
     1
 10
0.0
 20
0.0
 30
0.0
 70
   128
  0
VERTEX
  5
2CE
  8
0
  6
CONTINUOUS
 62
     7
 10
11.639442184699989
 20
12.2157656998
 30
0.0
  0
VERTEX
  5
2CF
  8
0
  6
CONTINUOUS
 62
     7
 10
11.640819459899999
 20
12.2160607629
 30
0.0
  0
VERTEX
  5
2D0
  8
0
  6
CONTINUOUS
 62
     7
 10
11.65611574589999
 20
12.215414176399999
 30
0.0
  0
VERTEX
  5
2D1
  8
0
  6
CONTINUOUS
 62
     7
 10
11.672254730900001
 20
12.2079604036
 30
0.0
  0
VERTEX
  5
2D2
  8
0
  6
CONTINUOUS
 62
     7
 10
11.6884817739
 20
12.194047988599999
 30
0.0
  0
VERTEX
  5
2D3
  8
0
  6
CONTINUOUS
 62
     7
 10
11.7040381167
 20
12.174327431099989
 30
0.0
  0
VERTEX
  5
2D4
  8
0
  6
CONTINUOUS
 62
     7
 10
11.718196362
 20
12.149720842100001
 30
0.0
  0
VERTEX
  5
2D5
  8
0
  6
CONTINUOUS
 62
     7
 10
11.7302944848
 20
12.12137882619999
 30
0.0
  0
VERTEX
  5
2D6
  8
0
  6
CONTINUOUS
 62
     7
 10
11.739766793899999
 20
12.09062660839999
 30
0.0
  0
VERTEX
  5
2D7
  8
0
  6
CONTINUOUS
 62
     7
 10
11.746170371899989
 20
12.05890212289999
 30
0.0
  0
VERTEX
  5
2D8
  8
0
  6
CONTINUOUS
 62
     7
 10
11.749205794399989
 20
12.0276887771
 30
0.0
  0
VERTEX
  5
2D9
  8
0
  6
CONTINUOUS
 62
     7
 10
11.748731128599999
 20
11.99844607459999
 30
0.0
  0
VERTEX
  5
2DA
  8
0
  6
CONTINUOUS
 62
     7
 10
11.744768569399991
 20
11.9725413698
 30
0.0
  0
VERTEX
  5
2DB
  8
0
  6
CONTINUOUS
 62
     7
 10
11.7375034014
 20
11.951185938599989
 30
0.0
  0
VERTEX
  5
2DC
  8
0
  6
CONTINUOUS
 62
     7
 10
11.727275336099989
 20
11.935378336399999
 30
0.0
  0
VERTEX
  5
2DD
  8
0
  6
CONTINUOUS
 62
     7
 10
11.7145626292
 20
11.92585770559999
 30
0.0
  0
VERTEX
  5
2DE
  8
0
  6
CONTINUOUS
 62
     7
 10
11.708833759499999
 20
11.923901334199989
 30
0.0
  0
SEQEND
  5
2DF
  8
0
  6
CONTINUOUS
 62
     7
  0
POLYLINE
  5
58
  8
0
  6
CONTINUOUS
 62
     7
 66
     1
 10
0.0
 20
0.0
 30
0.0
 70
   128
  0
VERTEX
  5
2E0
  8
0
  6
CONTINUOUS
 62
     7
 10
12.6181846688
 20
12.422767607000001
 30
0.0
  0
VERTEX
  5
2E1
  8
0
  6
CONTINUOUS
 62
     7
 10
12.626565104999999
 20
12.423402518699991
 30
0.0
  0
VERTEX
  5
2E2
  8
0
  6
CONTINUOUS
 62
     7
 10
12.641352906099989
 20
12.418766279899989
 30
0.0
  0
VERTEX
  5
2E3
  8
0
  6
CONTINUOUS
 62
     7
 10
12.656474581299999
 20
12.407295041699999
 30
0.0
  0
VERTEX
  5
2E4
  8
0
  6
CONTINUOUS
 62
     7
 10
12.6710513132
 20
12.389655471499999
 30
0.0
  0
VERTEX
  5
2E5
  8
0
  6
CONTINUOUS
 62
     7
 10
12.68423595609999
 20
12.3668727185
 30
0.0
  0
VERTEX
  5
2E6
  8
0
  6
CONTINUOUS
 62
     7
 10
12.6952622666
 20
12.3402708315
 30
0.0
  0
VERTEX
  5
2E7
  8
0
  6
CONTINUOUS
 62
     7
 10
12.7034894329
 20
12.3113958273
 30
0.0
  0
VERTEX
  5
2E8
  8
0
  6
CONTINUOUS
 62
     7
 10
12.708439325600001
 20
12.281925796499999
 30
0.0
  0
VERTEX
  5
2E9
  8
0
  6
CONTINUOUS
 62
     7
 10
12.70982427
 20
12.25357344329999
 30
0.0
  0
VERTEX
  5
2EA
  8
0
  6
CONTINUOUS
 62
     7
 10
12.7075637861
 20
12.2279864978
 30
0.0
  0
VERTEX
  5
2EB
  8
0
  6
CONTINUOUS
 62
     7
 10
12.7017892372
 20
12.206651985100001
 30
0.0
  0
VERTEX
  5
2EC
  8
0
  6
CONTINUOUS
 62
     7
 10
12.692836223900001
 20
12.190809783400001
 30
0.0
  0
VERTEX
  5
2ED
  8
0
  6
CONTINUOUS
 62
     7
 10
12.681225059100001
 20
12.1813805924
 30
0.0
  0
VERTEX
  5
2EE
  8
0
  6
CONTINUOUS
 62
     7
 10
12.676010980399999
 20
12.1795473015
 30
0.0
  0
SEQEND
  5
2EF
  8
0
  6
CONTINUOUS
 62
     7
  0
POLYLINE
  5
59
  8
0
  6
CONTINUOUS
 62
     7
 66
     1
 10
0.0
 20
0.0
 30
0.0
 70
   128
  0
VERTEX
  5
2F0
  8
0
  6
CONTINUOUS
 62
     7
 10
16.599563571800001
 20
13.602528493199999
 30
0.0
  0
VERTEX
  5
2F1
  8
0
  6
CONTINUOUS
 62
     7
 10
16.597984958599991
 20
13.623235265499989
 30
0.0
  0
VERTEX
  5
2F2
  8
0
  6
CONTINUOUS
 62
     7
 10
16.5928138827
 20
13.64431418869999
 30
0.0
  0
VERTEX
  5
2F3
  8
0
  6
CONTINUOUS
 62
     7
 10
16.584674051299999
 20
13.6632227853
 30
0.0
  0
VERTEX
  5
2F4
  8
0
  6
CONTINUOUS
 62
     7
 10
16.5745472485
 20
13.677680455799999
 30
0.0
  0
VERTEX
  5
2F5
  8
0
  6
CONTINUOUS
 62
     7
 10
16.563654915699988
 20
13.68594333279999
 30
0.0
  0
VERTEX
  5
2F6
  8
0
  6
CONTINUOUS
 62
     7
 10
16.553310828699999
 20
13.687014791799999
 30
0.0
  0
VERTEX
  5
2F7
  8
0
  6
CONTINUOUS
 62
     7
 10
16.5447626385
 20
13.680765657
 30
0.0
  0
VERTEX
  5
2F8
  8
0
  6
CONTINUOUS
 62
     7
 10
16.539041381499999
 20
13.667949610899999
 30
0.0
  0
VERTEX
  5
2F9
  8
0
  6
CONTINUOUS
 62
     7
 10
16.5368371265
 20
13.650112506299999
 30
0.0
  0
VERTEX
  5
2FA
  8
0
  6
CONTINUOUS
 62
     7
 10
16.5384157391
 20
13.629405701
 30
0.0
  0
VERTEX
  5
2FB
  8
0
  6
CONTINUOUS
 62
     7
 10
16.543586815000001
 20
13.6083267778
 30
0.0
  0
VERTEX
  5
2FC
  8
0
  6
CONTINUOUS
 62
     7
 10
16.551726646399999
 20
13.58941818119999
 30
0.0
  0
VERTEX
  5
2FD
  8
0
  6
CONTINUOUS
 62
     7
 10
16.561853449699989
 20
13.5749605438
 30
0.0
  0
VERTEX
  5
2FE
  8
0
  6
CONTINUOUS
 62
     7
 10
16.572745782599998
 20
13.5666976667
 30
0.0
  0
VERTEX
  5
2FF
  8
0
  6
CONTINUOUS
 62
     7
 10
16.583089868999998
 20
13.5656261747
 30
0.0
  0
VERTEX
  5
300
  8
0
  6
CONTINUOUS
 62
     7
 10
16.591638059200001
 20
13.571875309499999
 30
0.0
  0
VERTEX
  5
301
  8
0
  6
CONTINUOUS
 62
     7
 10
16.597359316199999
 20
13.5846913556
 30
0.0
  0
VERTEX
  5
302
  8
0
  6
CONTINUOUS
 62
     7
 10
16.599563571800001
 20
13.602528493199999
 30
0.0
  0
SEQEND
  5
303
  8
0
  6
CONTINUOUS
 62
     7
  0
LINE
  5
5A
  8
0
  6
CONTINUOUS
 62
     7
 10
16.449044755500001
 20
13.7298747872
 30
0.0
 11
16.396022471399998
 21
13.4965612773
 31
0.0
  0
POLYLINE
  5
5B
  8
0
  6
CONTINUOUS
 62
     7
 66
     1
 10
0.0
 20
0.0
 30
0.0
 70
   128
  0
VERTEX
  5
304
  8
0
  6
CONTINUOUS
 62
     7
 10
16.68777807859999
 20
13.5487727097
 30
0.0
  0
VERTEX
  5
305
  8
0
  6
CONTINUOUS
 62
     7
 10
16.680223649799991
 20
13.589762693799999
 30
0.0
  0
VERTEX
  5
306
  8
0
  6
CONTINUOUS
 62
     7
 10
16.669499065499998
 20
13.6301972005
 30
0.0
  0
VERTEX
  5
307
  8
0
  6
CONTINUOUS
 62
     7
 10
16.6559053581
 20
13.668941198900001
 30
0.0
  0
VERTEX
  5
308
  8
0
  6
CONTINUOUS
 62
     7
 10
16.6398241166
 20
13.7049071721
 30
0.0
  0
VERTEX
  5
309
  8
0
  6
CONTINUOUS
 62
     7
 10
16.621706729900001
 20
13.73708556329999
 30
0.0
  0
VERTEX
  5
30A
  8
0
  6
CONTINUOUS
 62
     7
 10
16.602061746899999
 20
13.764573172
 30
0.0
  0
VERTEX
  5
30B
  8
0
  6
CONTINUOUS
 62
     7
 10
16.581440607499989
 20
13.7865983001
 30
0.0
  0
VERTEX
  5
30C
  8
0
  6
CONTINUOUS
 62
     7
 10
16.560422140299998
 20
13.802542819399999
 30
0.0
  0
VERTEX
  5
30D
  8
0
  6
CONTINUOUS
 62
     7
 10
16.539596335900001
 20
13.811959165499999
 30
0.0
  0
VERTEX
  5
30E
  8
0
  6
CONTINUOUS
 62
     7
 10
16.5195477643
 20
13.814582917499999
 30
0.0
  0
VERTEX
  5
30F
  8
0
  6
CONTINUOUS
 62
     7
 10
16.500839197800001
 20
13.8103405368
 30
0.0
  0
VERTEX
  5
310
  8
0
  6
CONTINUOUS
 62
     7
 10
16.483995778400001
 20
13.7993510706
 30
0.0
  0
VERTEX
  5
311
  8
0
  6
CONTINUOUS
 62
     7
 10
16.469490289500001
 20
13.781923002299999
 30
0.0
  0
VERTEX
  5
312
  8
0
  6
CONTINUOUS
 62
     7
 10
16.4577299123
 20
13.7585454912
 30
0.0
  0
VERTEX
  5
313
  8
0
  6
CONTINUOUS
 62
     7
 10
16.449044755500001
 20
13.7298747872
 30
0.0
  0
SEQEND
  5
314
  8
0
  6
CONTINUOUS
 62
     7
  0
LINE
  5
5C
  8
0
  6
CONTINUOUS
 62
     7
 10
16.742079164900002
 20
13.171914190900001
 30
0.0
 11
16.68777807859999
 21
13.5487727097
 31
0.0
  0
POLYLINE
  5
5D
  8
0
  6
CONTINUOUS
 62
     7
 66
     1
 10
0.0
 20
0.0
 30
0.0
 70
   128
  0
VERTEX
  5
315
  8
0
  6
CONTINUOUS
 62
     7
 10
16.575640157399999
 20
12.8525110287
 30
0.0
  0
VERTEX
  5
316
  8
0
  6
CONTINUOUS
 62
     7
 10
16.595068816600001
 20
12.843348942800001
 30
0.0
  0
VERTEX
  5
317
  8
0
  6
CONTINUOUS
 62
     7
 10
16.620498859600001
 20
12.837199801600001
 30
0.0
  0
VERTEX
  5
318
  8
0
  6
CONTINUOUS
 62
     7
 10
16.644779147999991
 20
12.838173901799999
 30
0.0
  0
VERTEX
  5
319
  8
0
  6
CONTINUOUS
 62
     7
 10
16.667437799599998
 20
12.846252358599999
 30
0.0
  0
VERTEX
  5
31A
  8
0
  6
CONTINUOUS
 62
     7
 10
16.688034435399992
 20
12.861278143
 30
0.0
  0
VERTEX
  5
31B
  8
0
  6
CONTINUOUS
 62
     7
 10
16.706168762299988
 20
12.882959243
 30
0.0
  0
VERTEX
  5
31C
  8
0
  6
CONTINUOUS
 62
     7
 10
16.7214883332
 20
12.9108742878
 30
0.0
  0
VERTEX
  5
31D
  8
0
  6
CONTINUOUS
 62
     7
 10
16.733695394600002
 20
12.9444807302
 30
0.0
  0
VERTEX
  5
31E
  8
0
  6
CONTINUOUS
 62
     7
 10
16.7425527117
 20
12.983125428799999
 30
0.0
  0
VERTEX
  5
31F
  8
0
  6
CONTINUOUS
 62
     7
 10
16.747888150599991
 20
13.0260573045
 30
0.0
  0
VERTEX
  5
320
  8
0
  6
CONTINUOUS
 62
     7
 10
16.7495980174
 20
13.072441980600001
 30
0.0
  0
VERTEX
  5
321
  8
0
  6
CONTINUOUS
 62
     7
 10
16.747649053099991
 20
13.1213779746
 30
0.0
  0
VERTEX
  5
322
  8
0
  6
CONTINUOUS
 62
     7
 10
16.742079164900002
 20
13.171914190900001
 30
0.0
  0
SEQEND
  5
323
  8
0
  6
CONTINUOUS
 62
     7
  0
LINE
  5
5E
  8
0
  6
CONTINUOUS
 62
     7
 10
16.656116278799999
 20
13.17459926059999
 30
0.0
 11
16.585549026100001
 21
13.228131276599999
 31
0.0
  0
LINE
  5
5F
  8
0
  6
CONTINUOUS
 62
     7
 10
16.585549026100001
 20
13.228131276599999
 30
0.0
 11
16.587606939600001
 21
13.354913013099999
 31
0.0
  0
LINE
  5
60
  8
0
  6
CONTINUOUS
 62
     7
 10
16.823159157900001
 20
13.191191187299991
 30
0.0
 11
16.7688580716
 21
13.568049705999989
 31
0.0
  0
POLYLINE
  5
61
  8
0
  6
CONTINUOUS
 62
     7
 66
     1
 10
0.0
 20
0.0
 30
0.0
 70
   128
  0
VERTEX
  5
324
  8
0
  6
CONTINUOUS
 62
     7
 10
16.7688580716
 20
13.568049705999989
 30
0.0
  0
VERTEX
  5
325
  8
0
  6
CONTINUOUS
 62
     7
 10
16.761303642799991
 20
13.609039690199991
 30
0.0
  0
VERTEX
  5
326
  8
0
  6
CONTINUOUS
 62
     7
 10
16.750579058499991
 20
13.649474196899989
 30
0.0
  0
VERTEX
  5
327
  8
0
  6
CONTINUOUS
 62
     7
 10
16.736985351099989
 20
13.68821819529999
 30
0.0
  0
VERTEX
  5
328
  8
0
  6
CONTINUOUS
 62
     7
 10
16.720904109599999
 20
13.72418416839999
 30
0.0
  0
VERTEX
  5
329
  8
0
  6
CONTINUOUS
 62
     7
 10
16.702786722799999
 20
13.756362559699991
 30
0.0
  0
VERTEX
  5
32A
  8
0
  6
CONTINUOUS
 62
     7
 10
16.683141739900002
 20
13.783850168300001
 30
0.0
  0
VERTEX
  5
32B
  8
0
  6
CONTINUOUS
 62
     7
 10
16.662520600499992
 20
13.8058752965
 30
0.0
  0
VERTEX
  5
32C
  8
0
  6
CONTINUOUS
 62
     7
 10
16.641502133299991
 20
13.8218198158
 30
0.0
  0
VERTEX
  5
32D
  8
0
  6
CONTINUOUS
 62
     7
 10
16.6206763289
 20
13.8312361619
 30
0.0
  0
VERTEX
  5
32E
  8
0
  6
CONTINUOUS
 62
     7
 10
16.6006277573
 20
13.8338599139
 30
0.0
  0
VERTEX
  5
32F
  8
0
  6
CONTINUOUS
 62
     7
 10
16.590539402400001
 20
13.832470368699999
 30
0.0
  0
SEQEND
  5
330
  8
0
  6
CONTINUOUS
 62
     7
  0
POLYLINE
  5
62
  8
0
  6
CONTINUOUS
 62
     7
 66
     1
 10
0.0
 20
0.0
 30
0.0
 70
   128
  0
VERTEX
  5
331
  8
0
  6
CONTINUOUS
 62
     7
 10
16.729160097699989
 20
12.858161241199999
 30
0.0
  0
VERTEX
  5
332
  8
0
  6
CONTINUOUS
 62
     7
 10
16.748517792600001
 20
12.8655293549
 30
0.0
  0
VERTEX
  5
333
  8
0
  6
CONTINUOUS
 62
     7
 10
16.769114428399991
 20
12.8805551394
 30
0.0
  0
VERTEX
  5
334
  8
0
  6
CONTINUOUS
 62
     7
 10
16.787248755299991
 20
12.902236239400001
 30
0.0
  0
VERTEX
  5
335
  8
0
  6
CONTINUOUS
 62
     7
 10
16.802568326199999
 20
12.930151284200001
 30
0.0
  0
VERTEX
  5
336
  8
0
  6
CONTINUOUS
 62
     7
 10
16.814775387600001
 20
12.963757726600001
 30
0.0
  0
VERTEX
  5
337
  8
0
  6
CONTINUOUS
 62
     7
 10
16.823632704699989
 20
13.0024024251
 30
0.0
  0
VERTEX
  5
338
  8
0
  6
CONTINUOUS
 62
     7
 10
16.82896814359999
 20
13.0453343008
 30
0.0
  0
VERTEX
  5
339
  8
0
  6
CONTINUOUS
 62
     7
 10
16.830678010399989
 20
13.091718976999999
 30
0.0
  0
VERTEX
  5
33A
  8
0
  6
CONTINUOUS
 62
     7
 10
16.828729046099991
 20
13.1406549709
 30
0.0
  0
VERTEX
  5
33B
  8
0
  6
CONTINUOUS
 62
     7
 10
16.823159157900001
 20
13.191191187299991
 30
0.0
  0
SEQEND
  5
33C
  8
0
  6
CONTINUOUS
 62
     7
  0
POLYLINE
  5
63
  8
0
  6
CONTINUOUS
 62
     7
 66
     1
 10
0.0
 20
0.0
 30
0.0
 70
   128
  0
VERTEX
  5
33D
  8
0
  6
CONTINUOUS
 62
     7
 10
14.7098621846
 20
12.0981233037
 30
0.0
  0
VERTEX
  5
33E
  8
0
  6
CONTINUOUS
 62
     7
 10
14.707951531799999
 20
12.10840317259999
 30
0.0
  0
VERTEX
  5
33F
  8
0
  6
CONTINUOUS
 62
     7
 10
14.707939724899999
 20
12.1084308579
 30
0.0
  0
SEQEND
  5
340
  8
0
  6
CONTINUOUS
 62
     7
  0
ARC
  5
64
  8
0
  6
CONTINUOUS
 62
     7
 10
14.674242537899991
 20
12.0985261703
 30
0.0
 40
0.0356219249119952
 50
268.66201993099992
 51
359.3519988276999
  0
LINE
  5
65
  8
0
  6
CONTINUOUS
 62
     7
 10
15.29582562619999
 20
12.2166846527
 30
0.0
 11
15.369237785499999
 21
12.24521519579999
 31
0.0
  0
ARC
  5
66
  8
0
  6
CONTINUOUS
 62
     7
 10
14.41438383329999
 20
11.913942271199989
 30
0.0
 40
0.9319831457805987
 50
340.46100898840001
 51
18.955685186299998
  0
POLYLINE
  5
67
  8
0
  6
CONTINUOUS
 62
     7
 66
     1
 10
0.0
 20
0.0
 30
0.0
 70
   128
  0
VERTEX
  5
341
  8
0
  6
CONTINUOUS
 62
     7
 10
15.190246501900001
 20
11.6117987272
 30
0.0
  0
VERTEX
  5
342
  8
0
  6
CONTINUOUS
 62
     7
 10
15.1879915936
 20
11.592245076099999
 30
0.0
  0
VERTEX
  5
343
  8
0
  6
CONTINUOUS
 62
     7
 10
15.1920052598
 20
11.574607504899999
 30
0.0
  0
VERTEX
  5
344
  8
0
  6
CONTINUOUS
 62
     7
 10
15.2018215103
 20
11.56093353549999
 30
0.0
  0
VERTEX
  5
345
  8
0
  6
CONTINUOUS
 62
     7
 10
15.2163008773
 20
11.5528107805
 30
0.0
  0
VERTEX
  5
346
  8
0
  6
CONTINUOUS
 62
     7
 10
15.2337622306
 20
11.551181873000001
 30
0.0
  0
VERTEX
  5
347
  8
0
  6
CONTINUOUS
 62
     7
 10
15.2521787665
 20
11.556236295299991
 30
0.0
  0
VERTEX
  5
348
  8
0
  6
CONTINUOUS
 62
     7
 10
15.2694123931
 20
11.56738694339999
 30
0.0
  0
VERTEX
  5
349
  8
0
  6
CONTINUOUS
 62
     7
 10
15.2834623845
 20
11.583339519000001
 30
0.0
  0
VERTEX
  5
34A
  8
0
  6
CONTINUOUS
 62
     7
 10
15.2926979002
 20
11.602242120699991
 30
0.0
  0
SEQEND
  5
34B
  8
0
  6
CONTINUOUS
 62
     7
  0
ARC
  5
68
  8
0
  6
CONTINUOUS
 62
     7
 10
14.557707044400001
 20
11.804318324400001
 30
0.0
 40
0.6611882943084579
 50
343.0718578478
 51
25.028993355899999
  0
ARC
  5
69
  8
0
  6
CONTINUOUS
 62
     7
 10
15.082379985099999
 20
12.0426898411
 30
0.0
 40
0.0851468808445836
 50
29.0630315342
 51
115.9493338722999
  0
LINE
  5
6A
  8
0
  6
CONTINUOUS
 62
     7
 10
14.76811569789999
 20
12.0115980296
 30
0.0
 11
15.045121738300001
 21
12.1192523277
 31
0.0
  0
ARC
  5
6B
  8
0
  6
CONTINUOUS
 62
     7
 10
14.662886072499999
 20
12.0606349195
 30
0.0
 40
0.0883031167217751
 50
176.77109690340001
 51
230.97706647050001
  0
LINE
  5
6C
  8
0
  6
CONTINUOUS
 62
     7
 10
14.576255700899999
 20
12.1782325051
 30
0.0
 11
14.5747231389
 21
12.0656086072
 31
0.0
  0
LINE
  5
6D
  8
0
  6
CONTINUOUS
 62
     7
 10
15.3060067283
 20
12.3538121134
 30
0.0
 11
14.808505692300001
 21
12.234112339199999
 31
0.0
  0
LINE
  5
6E
  8
0
  6
CONTINUOUS
 62
     7
 10
14.5763713877
 20
12.1782603393
 30
0.0
 11
14.576255700899999
 21
12.1782325051
 31
0.0
  0
POLYLINE
  5
6F
  8
0
  6
CONTINUOUS
 62
     7
 66
     1
 10
0.0
 20
0.0
 30
0.0
 70
   128
  0
VERTEX
  5
34C
  8
0
  6
CONTINUOUS
 62
     7
 10
15.46817373609999
 20
12.39282983819999
 30
0.0
  0
VERTEX
  5
34D
  8
0
  6
CONTINUOUS
 62
     7
 10
15.4662628291
 20
12.403109613699989
 30
0.0
  0
VERTEX
  5
34E
  8
0
  6
CONTINUOUS
 62
     7
 10
15.4662511496
 20
12.403137362200001
 30
0.0
  0
SEQEND
  5
34F
  8
0
  6
CONTINUOUS
 62
     7
  0
ARC
  5
70
  8
0
  6
CONTINUOUS
 62
     7
 10
15.432553692200001
 20
12.3932330157
 30
0.0
 40
0.0356223256030955
 50
268.66246822319988
 51
359.35150615830003
  0
LINE
  5
71
  8
0
  6
CONTINUOUS
 62
     7
 10
14.576255700899999
 20
12.1782325051
 30
0.0
 11
14.573782360399999
 21
12.18010877059999
 31
0.0
  0
LINE
  5
72
  8
0
  6
CONTINUOUS
 62
     7
 10
14.528604689999989
 20
12.16936763609999
 30
0.0
 11
14.5276783038
 21
12.10129661789999
 31
0.0
  0
ARC
  5
73
  8
0
  6
CONTINUOUS
 62
     7
 10
14.615841237399991
 20
12.096322930199999
 30
0.0
 40
0.0883031167217618
 50
176.77109690340001
 51
230.97706647050001
  0
LINE
  5
74
  8
0
  6
CONTINUOUS
 62
     7
 10
15.10734014849999
 20
12.12415401869999
 30
0.0
 11
15.109760832499999
 21
12.11973978
 31
0.0
  0
ARC
  5
75
  8
0
  6
CONTINUOUS
 62
     7
 10
14.5106622093
 20
11.840006334999989
 30
0.0
 40
0.6611882943084636
 50
343.0718578478
 51
25.028993355899999
  0
ARC
  5
76
  8
0
  6
CONTINUOUS
 62
     7
 10
15.1878570995
 20
11.6310245424
 30
0.0
 40
0.0475931881179808
 50
159.7636251587999
 51
229.85240281930001
  0
POLYLINE
  5
77
  8
0
  6
CONTINUOUS
 62
     7
 66
     1
 10
0.0
 20
0.0
 30
0.0
 70
   128
  0
VERTEX
  5
350
  8
0
  6
CONTINUOUS
 62
     7
 10
14.72554343559999
 20
12.0861972481
 30
0.0
  0
VERTEX
  5
351
  8
0
  6
CONTINUOUS
 62
     7
 10
14.72364372789999
 20
12.0964819583
 30
0.0
  0
VERTEX
  5
352
  8
0
  6
CONTINUOUS
 62
     7
 10
14.71791868359999
 20
12.1042155971
 30
0.0
  0
VERTEX
  5
353
  8
0
  6
CONTINUOUS
 62
     7
 10
14.70923960589999
 20
12.10822057999999
 30
0.0
  0
VERTEX
  5
354
  8
0
  6
CONTINUOUS
 62
     7
 10
14.6989281202
 20
12.107887331400001
 30
0.0
  0
VERTEX
  5
355
  8
0
  6
CONTINUOUS
 62
     7
 10
14.688553735499999
 20
12.1032664975
 30
0.0
  0
VERTEX
  5
356
  8
0
  6
CONTINUOUS
 62
     7
 10
14.679696179600001
 20
12.09506163809999
 30
0.0
  0
VERTEX
  5
357
  8
0
  6
CONTINUOUS
 62
     7
 10
14.6737037088
 20
12.084521776900001
 30
0.0
  0
VERTEX
  5
358
  8
0
  6
CONTINUOUS
 62
     7
 10
14.6714886178
 20
12.07325158309999
 30
0.0
  0
VERTEX
  5
359
  8
0
  6
CONTINUOUS
 62
     7
 10
14.673388324499999
 20
12.0629668068
 30
0.0
  0
VERTEX
  5
35A
  8
0
  6
CONTINUOUS
 62
     7
 10
14.6791133699
 20
12.055233234099999
 30
0.0
  0
VERTEX
  5
35B
  8
0
  6
CONTINUOUS
 62
     7
 10
14.6877924465
 20
12.051228184999999
 30
0.0
  0
VERTEX
  5
35C
  8
0
  6
CONTINUOUS
 62
     7
 10
14.6981039322
 20
12.051561433699989
 30
0.0
  0
VERTEX
  5
35D
  8
0
  6
CONTINUOUS
 62
     7
 10
14.708478316900001
 20
12.056182267600001
 30
0.0
  0
VERTEX
  5
35E
  8
0
  6
CONTINUOUS
 62
     7
 10
14.7173358738
 20
12.0643871931
 30
0.0
  0
VERTEX
  5
35F
  8
0
  6
CONTINUOUS
 62
     7
 10
14.72332834359999
 20
12.0749269882
 30
0.0
  0
VERTEX
  5
360
  8
0
  6
CONTINUOUS
 62
     7
 10
14.72554343559999
 20
12.0861972481
 30
0.0
  0
SEQEND
  5
361
  8
0
  6
CONTINUOUS
 62
     7
  0
LINE
  5
78
  8
0
  6
CONTINUOUS
 62
     7
 10
14.5970385645
 20
12.5071066665
 30
0.0
 11
14.5904064541
 21
12.053833067799991
 31
0.0
  0
LINE
  5
79
  8
0
  6
CONTINUOUS
 62
     7
 10
14.806625598299989
 20
12.105615697299999
 30
0.0
 11
14.813252217400001
 21
12.558512070600001
 31
0.0
  0
POLYLINE
  5
7A
  8
0
  6
CONTINUOUS
 62
     7
 66
     1
 10
0.0
 20
0.0
 30
0.0
 70
   128
  0
VERTEX
  5
362
  8
0
  6
CONTINUOUS
 62
     7
 10
14.5904064541
 20
12.053833067799991
 30
0.0
  0
VERTEX
  5
363
  8
0
  6
CONTINUOUS
 62
     7
 10
14.593153438599989
 20
12.027626144399999
 30
0.0
  0
VERTEX
  5
364
  8
0
  6
CONTINUOUS
 62
     7
 10
14.602023791500001
 20
12.004446911900001
 30
0.0
  0
VERTEX
  5
365
  8
0
  6
CONTINUOUS
 62
     7
 10
14.6165018705
 20
11.98564260319999
 30
0.0
  0
VERTEX
  5
366
  8
0
  6
CONTINUOUS
 62
     7
 10
14.6357463303
 20
11.97230592089999
 30
0.0
  0
VERTEX
  5
367
  8
0
  6
CONTINUOUS
 62
     7
 10
14.658638630900001
 20
11.96521201869999
 30
0.0
  0
VERTEX
  5
368
  8
0
  6
CONTINUOUS
 62
     7
 10
14.68384863859999
 20
11.964773245499989
 30
0.0
  0
VERTEX
  5
369
  8
0
  6
CONTINUOUS
 62
     7
 10
14.709910928999999
 20
11.9710148731
 30
0.0
  0
VERTEX
  5
36A
  8
0
  6
CONTINUOUS
 62
     7
 10
14.73531107599999
 20
11.98357440559999
 30
0.0
  0
VERTEX
  5
36B
  8
0
  6
CONTINUOUS
 62
     7
 10
14.7585727854
 20
12.0017218348
 30
0.0
  0
VERTEX
  5
36C
  8
0
  6
CONTINUOUS
 62
     7
 10
14.778344131200001
 20
12.024402403
 30
0.0
  0
VERTEX
  5
36D
  8
0
  6
CONTINUOUS
 62
     7
 10
14.7934762619
 20
12.050298123699999
 30
0.0
  0
VERTEX
  5
36E
  8
0
  6
CONTINUOUS
 62
     7
 10
14.80308971
 20
12.077904004900001
 30
0.0
  0
VERTEX
  5
36F
  8
0
  6
CONTINUOUS
 62
     7
 10
14.806625598299989
 20
12.105615697299999
 30
0.0
  0
SEQEND
  5
370
  8
0
  6
CONTINUOUS
 62
     7
  0
LINE
  5
7B
  8
0
  6
CONTINUOUS
 62
     7
 10
14.5811275979
 20
12.5033237911
 30
0.0
 11
14.5747248416
 21
12.065729071899989
 31
0.0
  0
ARC
  5
7C
  8
0
  6
CONTINUOUS
 62
     7
 10
14.662100994999999
 20
12.0602942236
 30
0.0
 40
0.0875450155971164
 50
176.4407541068999
 51
231.2358516473
  0
POLYLINE
  5
7D
  8
0
  6
CONTINUOUS
 62
     7
 66
     1
 10
0.0
 20
0.0
 30
0.0
 70
   128
  0
VERTEX
  5
371
  8
0
  6
CONTINUOUS
 62
     7
 10
14.70986182309999
 20
12.0980932522
 30
0.0
  0
VERTEX
  5
372
  8
0
  6
CONTINUOUS
 62
     7
 10
14.70796211539999
 20
12.108377962400001
 30
0.0
  0
VERTEX
  5
373
  8
0
  6
CONTINUOUS
 62
     7
 10
14.707939724899999
 20
12.1084308579
 30
0.0
  0
SEQEND
  5
374
  8
0
  6
CONTINUOUS
 62
     7
  0
ARC
  5
7E
  8
0
  6
CONTINUOUS
 62
     7
 10
14.6742434694
 20
12.098525196200001
 30
0.0
 40
0.0356209727674493
 50
268.66048542250002
 51
359.30520784510003
  0
LINE
  5
7F
  8
0
  6
CONTINUOUS
 62
     7
 10
14.533394446599999
 20
12.4919751027
 30
0.0
 11
14.532072357100001
 21
12.4016122109
 31
0.0
  0
ARC
  5
80
  8
0
  6
CONTINUOUS
 62
     7
 10
14.6150561598
 20
12.095982234299999
 30
0.0
 40
0.087545015597101
 50
176.4407541068999
 51
231.2358516473
  0
LINE
  5
81
  8
0
  6
CONTINUOUS
 62
     7
 10
14.51748347999999
 20
12.488192227300001
 30
0.0
 11
14.51632943279999
 21
12.409318411799999
 31
0.0
  0
LINE
  5
82
  8
0
  6
CONTINUOUS
 62
     7
 10
14.512763487999999
 20
12.1656013804
 30
0.0
 11
14.511998394000001
 21
12.1133130867
 31
0.0
  0
ARC
  5
83
  8
0
  6
CONTINUOUS
 62
     7
 10
14.5993745474
 20
12.1078782384
 30
0.0
 40
0.0875450155970974
 50
176.4407541068999
 51
231.2358516473
  0
POLYLINE
  5
84
  8
0
  6
CONTINUOUS
 62
     7
 66
     1
 10
0.0
 20
0.0
 30
0.0
 70
   128
  0
VERTEX
  5
375
  8
0
  6
CONTINUOUS
 62
     7
 10
13.100550893699999
 20
12.7853842477
 30
0.0
  0
VERTEX
  5
376
  8
0
  6
CONTINUOUS
 62
     7
 10
13.0959764663
 20
12.79642042589999
 30
0.0
  0
VERTEX
  5
377
  8
0
  6
CONTINUOUS
 62
     7
 10
13.0934523699
 20
12.8086433246
 30
0.0
  0
VERTEX
  5
378
  8
0
  6
CONTINUOUS
 62
     7
 10
13.093382564300001
 20
12.8200967349
 30
0.0
  0
VERTEX
  5
379
  8
0
  6
CONTINUOUS
 62
     7
 10
13.0957782221
 20
12.828947700200001
 30
0.0
  0
VERTEX
  5
37A
  8
0
  6
CONTINUOUS
 62
     7
 10
13.1002559363
 20
12.833779613200001
 30
0.0
  0
VERTEX
  5
37B
  8
0
  6
CONTINUOUS
 62
     7
 10
13.106099091999999
 20
12.8338192597
 30
0.0
  0
VERTEX
  5
37C
  8
0
  6
CONTINUOUS
 62
     7
 10
13.112372542199999
 20
12.829060247299999
 30
0.0
  0
VERTEX
  5
37D
  8
0
  6
CONTINUOUS
 62
     7
 10
13.1180722778
 20
12.8202642128
 30
0.0
  0
VERTEX
  5
37E
  8
0
  6
CONTINUOUS
 62
     7
 10
13.122286106100001
 20
12.808838932800001
 30
0.0
  0
VERTEX
  5
37F
  8
0
  6
CONTINUOUS
 62
     7
 10
13.124339642300001
 20
12.796612828000001
 30
0.0
  0
VERTEX
  5
380
  8
0
  6
CONTINUOUS
 62
     7
 10
13.1239042355
 20
12.7855426696
 30
0.0
  0
VERTEX
  5
381
  8
0
  6
CONTINUOUS
 62
     7
 10
13.1210495676
 20
12.777400078499999
 30
0.0
  0
VERTEX
  5
382
  8
0
  6
CONTINUOUS
 62
     7
 10
13.116232504999999
 20
12.773488244499999
 30
0.0
  0
SEQEND
  5
383
  8
0
  6
CONTINUOUS
 62
     7
  0
LINE
  5
85
  8
0
  6
CONTINUOUS
 62
     7
 10
13.116232504999999
 20
12.773488244499999
 30
0.0
 11
13.1271763371
 21
12.6818320602
 31
0.0
  0
POLYLINE
  5
86
  8
0
  6
CONTINUOUS
 62
     7
 66
     1
 10
0.0
 20
0.0
 30
0.0
 70
   128
  0
VERTEX
  5
384
  8
0
  6
CONTINUOUS
 62
     7
 10
13.1271763371
 20
12.6818320602
 30
0.0
  0
VERTEX
  5
385
  8
0
  6
CONTINUOUS
 62
     7
 10
13.1411687227
 20
12.6833074411
 30
0.0
  0
VERTEX
  5
386
  8
0
  6
CONTINUOUS
 62
     7
 10
13.153230496700001
 20
12.691968920200001
 30
0.0
  0
VERTEX
  5
387
  8
0
  6
CONTINUOUS
 62
     7
 10
13.16264252069999
 20
12.707300091800001
 30
0.0
  0
VERTEX
  5
388
  8
0
  6
CONTINUOUS
 62
     7
 10
13.16884362289999
 20
12.7283868338
 30
0.0
  0
VERTEX
  5
389
  8
0
  6
CONTINUOUS
 62
     7
 10
13.1714640876
 20
12.753971981599999
 30
0.0
  0
VERTEX
  5
38A
  8
0
  6
CONTINUOUS
 62
     7
 10
13.170347680800001
 20
12.782530042799991
 30
0.0
  0
VERTEX
  5
38B
  8
0
  6
CONTINUOUS
 62
     7
 10
13.165560962200001
 20
12.812358382899991
 30
0.0
  0
VERTEX
  5
38C
  8
0
  6
CONTINUOUS
 62
     7
 10
13.1573893244
 20
12.841678580399989
 30
0.0
  0
VERTEX
  5
38D
  8
0
  6
CONTINUOUS
 62
     7
 10
13.146319973900001
 20
12.8687425
 30
0.0
  0
VERTEX
  5
38E
  8
0
  6
CONTINUOUS
 62
     7
 10
13.133012885799991
 20
12.891936514299999
 30
0.0
  0
VERTEX
  5
38F
  8
0
  6
CONTINUOUS
 62
     7
 10
13.11826145339999
 20
12.909877813
 30
0.0
  0
VERTEX
  5
390
  8
0
  6
CONTINUOUS
 62
     7
 10
13.102945181100001
 20
12.9214966717
 30
0.0
  0
VERTEX
  5
391
  8
0
  6
CONTINUOUS
 62
     7
 10
13.087977253399989
 20
12.926100352400001
 30
0.0
  0
VERTEX
  5
392
  8
0
  6
CONTINUOUS
 62
     7
 10
13.074250083300001
 20
12.9234144107
 30
0.0
  0
VERTEX
  5
393
  8
0
  6
CONTINUOUS
 62
     7
 10
13.062582108699999
 20
12.913598928600001
 30
0.0
  0
VERTEX
  5
394
  8
0
  6
CONTINUOUS
 62
     7
 10
13.053668996200001
 20
12.897239149600001
 30
0.0
  0
VERTEX
  5
395
  8
0
  6
CONTINUOUS
 62
     7
 10
13.048042161099991
 20
12.8753104868
 30
0.0
  0
VERTEX
  5
396
  8
0
  6
CONTINUOUS
 62
     7
 10
13.0460370851
 20
12.8491203691
 30
0.0
  0
VERTEX
  5
397
  8
0
  6
CONTINUOUS
 62
     7
 10
13.04777331069999
 20
12.8202302547
 30
0.0
  0
VERTEX
  5
398
  8
0
  6
CONTINUOUS
 62
     7
 10
13.053147325499999
 20
12.790362678499999
 30
0.0
  0
VERTEX
  5
399
  8
0
  6
CONTINUOUS
 62
     7
 10
13.061838724099999
 20
12.76129832789999
 30
0.0
  0
VERTEX
  5
39A
  8
0
  6
CONTINUOUS
 62
     7
 10
13.073329301399999
 20
12.734770135799989
 30
0.0
  0
VERTEX
  5
39B
  8
0
  6
CONTINUOUS
 62
     7
 10
13.086933974700001
 20
12.7123597441
 30
0.0
  0
SEQEND
  5
39C
  8
0
  6
CONTINUOUS
 62
     7
  0
LINE
  5
87
  8
0
  6
CONTINUOUS
 62
     7
 10
13.086933974700001
 20
12.7123597441
 30
0.0
 11
13.100550893699999
 21
12.7853842477
 31
0.0
  0
LINE
  5
88
  8
0
  6
CONTINUOUS
 62
     7
 10
13.033140820199989
 20
12.9590058703
 30
0.0
 11
12.925875865799989
 21
12.7714677616
 31
0.0
  0
POLYLINE
  5
89
  8
0
  6
CONTINUOUS
 62
     7
 66
     1
 10
0.0
 20
0.0
 30
0.0
 70
   128
  0
VERTEX
  5
39D
  8
0
  6
CONTINUOUS
 62
     7
 10
13.18757053779999
 20
12.8418561472
 30
0.0
  0
VERTEX
  5
39E
  8
0
  6
CONTINUOUS
 62
     7
 10
13.1762594105
 20
12.875498481699999
 30
0.0
  0
VERTEX
  5
39F
  8
0
  6
CONTINUOUS
 62
     7
 10
13.162455484200001
 20
12.906493144200001
 30
0.0
  0
VERTEX
  5
3A0
  8
0
  6
CONTINUOUS
 62
     7
 10
13.1466687569
 20
12.9336949956
 30
0.0
  0
VERTEX
  5
3A1
  8
0
  6
CONTINUOUS
 62
     7
 10
13.12948248579999
 20
12.9560991529
 30
0.0
  0
VERTEX
  5
3A2
  8
0
  6
CONTINUOUS
 62
     7
 10
13.1115316297
 20
12.9728777224
 30
0.0
  0
VERTEX
  5
3A3
  8
0
  6
CONTINUOUS
 62
     7
 10
13.0934793993
 20
12.98341094029999
 30
0.0
  0
VERTEX
  5
3A4
  8
0
  6
CONTINUOUS
 62
     7
 10
13.075992746800001
 20
12.9873095145
 30
0.0
  0
VERTEX
  5
3A5
  8
0
  6
CONTINUOUS
 62
     7
 10
13.059717733399999
 20
12.984429562400001
 30
0.0
  0
VERTEX
  5
3A6
  8
0
  6
CONTINUOUS
 62
     7
 10
13.0452556531
 20
12.9748773716
 30
0.0
  0
VERTEX
  5
3A7
  8
0
  6
CONTINUOUS
 62
     7
 10
13.033140820199989
 20
12.9590058703
 30
0.0
  0
SEQEND
  5
3A8
  8
0
  6
CONTINUOUS
 62
     7
  0
LINE
  5
8A
  8
0
  6
CONTINUOUS
 62
     7
 10
13.286211855099999
 20
12.498118421699999
 30
0.0
 11
13.18757053779999
 21
12.8418561472
 31
0.0
  0
ARC
  5
8B
  8
0
  6
CONTINUOUS
 62
     7
 10
12.422533596899999
 20
12.2466474754
 30
0.0
 40
0.8995430898391399
 50
0.6627496389000001
 51
16.233592980099999
  0
LINE
  5
8C
  8
0
  6
CONTINUOUS
 62
     7
 10
13.2594301249
 20
12.304530167899999
 30
0.0
 11
13.322016508300001
 21
12.257052405199991
 31
0.0
  0
LINE
  5
8D
  8
0
  6
CONTINUOUS
 62
     7
 10
13.258058182599999
 20
12.2200090102
 30
0.0
 11
13.2594301249
 21
12.304530167899999
 31
0.0
  0
LINE
  5
8E
  8
0
  6
CONTINUOUS
 62
     7
 10
13.3172559034
 20
12.175101872500001
 30
0.0
 11
13.258058182599999
 21
12.2200090102
 31
0.0
  0
ARC
  5
8F
  8
0
  6
CONTINUOUS
 62
     7
 10
13.8001255394
 20
12.5756949596
 30
0.0
 40
0.9177938209331427
 50
184.5531959525
 51
204.8518970552999
  0
POLYLINE
  5
90
  8
0
  6
CONTINUOUS
 62
     7
 66
     1
 10
0.0
 20
0.0
 30
0.0
 70
   128
  0
VERTEX
  5
3A9
  8
0
  6
CONTINUOUS
 62
     7
 10
13.11544557
 20
12.001775050899999
 30
0.0
  0
VERTEX
  5
3AA
  8
0
  6
CONTINUOUS
 62
     7
 10
13.123727501499999
 20
11.997113802399991
 30
0.0
  0
VERTEX
  5
3AB
  8
0
  6
CONTINUOUS
 62
     7
 10
13.151131104199999
 20
11.98584282589999
 30
0.0
  0
VERTEX
  5
3AC
  8
0
  6
CONTINUOUS
 62
     7
 10
13.1777559718
 20
11.981338444
 30
0.0
  0
VERTEX
  5
3AD
  8
0
  6
CONTINUOUS
 62
     7
 10
13.203176754899999
 20
11.9836725804
 30
0.0
  0
VERTEX
  5
3AE
  8
0
  6
CONTINUOUS
 62
     7
 10
13.2269873486
 20
11.9928079579
 30
0.0
  0
VERTEX
  5
3AF
  8
0
  6
CONTINUOUS
 62
     7
 10
13.248807367599991
 20
12.0085986575
 30
0.0
  0
VERTEX
  5
3B0
  8
0
  6
CONTINUOUS
 62
     7
 10
13.268288235899989
 20
12.03079237589999
 30
0.0
  0
VERTEX
  5
3B1
  8
0
  6
CONTINUOUS
 62
     7
 10
13.285118712299999
 20
12.0590345994
 30
0.0
  0
VERTEX
  5
3B2
  8
0
  6
CONTINUOUS
 62
     7
 10
13.299029953
 20
12.092874117199999
 30
0.0
  0
VERTEX
  5
3B3
  8
0
  6
CONTINUOUS
 62
     7
 10
13.3097996906
 20
12.131770341399999
 30
0.0
  0
VERTEX
  5
3B4
  8
0
  6
CONTINUOUS
 62
     7
 10
13.3172559034
 20
12.175101872500001
 30
0.0
  0
SEQEND
  5
3B5
  8
0
  6
CONTINUOUS
 62
     7
  0
LINE
  5
91
  8
0
  6
CONTINUOUS
 62
     7
 10
12.944425942300001
 20
12.457929085899989
 30
0.0
 11
12.8852282215
 21
12.502836223699999
 31
0.0
  0
LINE
  5
92
  8
0
  6
CONTINUOUS
 62
     7
 10
12.945797884599999
 20
12.542450243599999
 30
0.0
 11
12.944425942300001
 21
12.457929085899989
 31
0.0
  0
LINE
  5
93
  8
0
  6
CONTINUOUS
 62
     7
 10
12.883211501199989
 20
12.589928006299999
 30
0.0
 11
12.945797884599999
 21
12.542450243599999
 31
0.0
  0
ARC
  5
94
  8
0
  6
CONTINUOUS
 62
     7
 10
13.2873056709
 20
12.5907434994
 30
0.0
 40
0.4040949925411725
 50
153.43376184109999
 51
180.11562713320001
  0
LINE
  5
95
  8
0
  6
CONTINUOUS
 62
     7
 10
13.128564520199999
 20
12.5552338601
 30
0.0
 11
13.12956627799999
 21
12.6169490863
 31
0.0
  0
ARC
  5
96
  8
0
  6
CONTINUOUS
 62
     7
 10
13.3518697854
 20
12.4683245732
 30
0.0
 40
0.3433856436503044
 50
169.00254356510001
 51
216.60346594369989
  0
LINE
  5
97
  8
0
  6
CONTINUOUS
 62
     7
 10
13.1214260872
 20
12.1154569001
 30
0.0
 11
13.12325101039999
 21
12.2278848242
 31
0.0
  0
POLYLINE
  5
98
  8
0
  6
CONTINUOUS
 62
     7
 66
     1
 10
0.0
 20
0.0
 30
0.0
 70
   128
  0
VERTEX
  5
3B6
  8
0
  6
CONTINUOUS
 62
     7
 10
13.12325101039999
 20
12.2278848242
 30
0.0
  0
VERTEX
  5
3B7
  8
0
  6
CONTINUOUS
 62
     7
 10
13.1413095465
 20
12.2261969255
 30
0.0
  0
VERTEX
  5
3B8
  8
0
  6
CONTINUOUS
 62
     7
 10
13.15777289049999
 20
12.232017175299999
 30
0.0
  0
VERTEX
  5
3B9
  8
0
  6
CONTINUOUS
 62
     7
 10
13.17196635339999
 20
12.245107038700001
 30
0.0
  0
VERTEX
  5
3BA
  8
0
  6
CONTINUOUS
 62
     7
 10
13.18330826059999
 20
12.2649300632
 30
0.0
  0
VERTEX
  5
3BB
  8
0
  6
CONTINUOUS
 62
     7
 10
13.1913337894
 20
12.2906738852
 30
0.0
  0
VERTEX
  5
3BC
  8
0
  6
CONTINUOUS
 62
     7
 10
13.19571404579999
 20
12.3212834589
 30
0.0
  0
VERTEX
  5
3BD
  8
0
  6
CONTINUOUS
 62
     7
 10
13.196269517299999
 20
12.35550435359999
 30
0.0
  0
VERTEX
  5
3BE
  8
0
  6
CONTINUOUS
 62
     7
 10
13.192977439399989
 20
12.391934125200001
 30
0.0
  0
VERTEX
  5
3BF
  8
0
  6
CONTINUOUS
 62
     7
 10
13.1859727295
 20
12.429079822
 30
0.0
  0
VERTEX
  5
3C0
  8
0
  6
CONTINUOUS
 62
     7
 10
13.1755424461
 20
12.4654191414
 30
0.0
  0
VERTEX
  5
3C1
  8
0
  6
CONTINUOUS
 62
     7
 10
13.1621140521
 20
12.4994628272
 30
0.0
  0
VERTEX
  5
3C2
  8
0
  6
CONTINUOUS
 62
     7
 10
13.146237868
 20
12.529815696199989
 30
0.0
  0
VERTEX
  5
3C3
  8
0
  6
CONTINUOUS
 62
     7
 10
13.128564520199999
 20
12.5552338601
 30
0.0
  0
SEQEND
  5
3C4
  8
0
  6
CONTINUOUS
 62
     7
  0
LINE
  5
99
  8
0
  6
CONTINUOUS
 62
     7
 10
13.3672918402
 20
12.517395416199999
 30
0.0
 11
13.2686505229
 21
12.8611331417
 31
0.0
  0
LINE
  5
9A
  8
0
  6
CONTINUOUS
 62
     7
 10
13.322016508300001
 20
12.257052405199991
 30
0.0
 11
13.403096493399991
 21
12.2763293997
 31
0.0
  0
ARC
  5
9B
  8
0
  6
CONTINUOUS
 62
     7
 10
12.503613582
 20
12.2659244699
 30
0.0
 40
0.8995430898390607
 50
0.6627496389000001
 51
16.233592980099999
  0
POLYLINE
  5
9C
  8
0
  6
CONTINUOUS
 62
     7
 66
     1
 10
0.0
 20
0.0
 30
0.0
 70
   128
  0
VERTEX
  5
3C5
  8
0
  6
CONTINUOUS
 62
     7
 10
13.2686505229
 20
12.8611331417
 30
0.0
  0
VERTEX
  5
3C6
  8
0
  6
CONTINUOUS
 62
     7
 10
13.257339395500001
 20
12.894775476199991
 30
0.0
  0
VERTEX
  5
3C7
  8
0
  6
CONTINUOUS
 62
     7
 10
13.243535469299999
 20
12.92577013869999
 30
0.0
  0
VERTEX
  5
3C8
  8
0
  6
CONTINUOUS
 62
     7
 10
13.227748741999999
 20
12.9529719901
 30
0.0
  0
VERTEX
  5
3C9
  8
0
  6
CONTINUOUS
 62
     7
 10
13.210562470899999
 20
12.9753761474
 30
0.0
  0
VERTEX
  5
3CA
  8
0
  6
CONTINUOUS
 62
     7
 10
13.192611614700001
 20
12.9921547169
 30
0.0
  0
VERTEX
  5
3CB
  8
0
  6
CONTINUOUS
 62
     7
 10
13.1745593844
 20
13.002687934800001
 30
0.0
  0
VERTEX
  5
3CC
  8
0
  6
CONTINUOUS
 62
     7
 10
13.1570727319
 20
13.006586509
 30
0.0
  0
VERTEX
  5
3CD
  8
0
  6
CONTINUOUS
 62
     7
 10
13.146497996700001
 20
13.005527647199999
 30
0.0
  0
SEQEND
  5
3CE
  8
0
  6
CONTINUOUS
 62
     7
  0
LINE
  5
9D
  8
0
  6
CONTINUOUS
 62
     7
 10
13.1271763371
 20
12.6818320602
 30
0.0
 11
13.147276253799999
 21
12.686610871899999
 31
0.0
  0
ARC
  5
9E
  8
0
  6
CONTINUOUS
 62
     7
 10
13.316117713800001
 20
12.8661489838
 30
0.0
 40
0.1891260523404754
 50
170.6542095545
 51
187.73516327659999
  0
POLYLINE
  5
9F
  8
0
  6
CONTINUOUS
 62
     7
 66
     1
 10
0.0
 20
0.0
 30
0.0
 70
   128
  0
VERTEX
  5
3CF
  8
0
  6
CONTINUOUS
 62
     7
 10
13.2846613828
 20
12.003044816299999
 30
0.0
  0
VERTEX
  5
3D0
  8
0
  6
CONTINUOUS
 62
     7
 10
13.30806733369999
 20
12.0120849524
 30
0.0
  0
VERTEX
  5
3D1
  8
0
  6
CONTINUOUS
 62
     7
 10
13.3298873526
 20
12.027875652000001
 30
0.0
  0
VERTEX
  5
3D2
  8
0
  6
CONTINUOUS
 62
     7
 10
13.34936822089999
 20
12.050069370399999
 30
0.0
  0
VERTEX
  5
3D3
  8
0
  6
CONTINUOUS
 62
     7
 10
13.3661986974
 20
12.078311593900001
 30
0.0
  0
VERTEX
  5
3D4
  8
0
  6
CONTINUOUS
 62
     7
 10
13.380109938
 20
12.112151111699999
 30
0.0
  0
VERTEX
  5
3D5
  8
0
  6
CONTINUOUS
 62
     7
 10
13.3853071199
 20
12.128889346599999
 30
0.0
  0
SEQEND
  5
3D6
  8
0
  6
CONTINUOUS
 62
     7
  0
LINE
  5
A0
  8
0
  6
CONTINUOUS
 62
     7
 10
13.116232504999999
 20
12.773488244499999
 30
0.0
 11
13.169942475099999
 21
12.78625794089999
 31
0.0
  0
LINE
  5
A1
  8
0
  6
CONTINUOUS
 62
     7
 10
13.12325101039999
 20
12.2278848242
 30
0.0
 11
13.16544754559999
 21
12.237917169099999
 31
0.0
  0
ARC
  5
A2
  8
0
  6
CONTINUOUS
 62
     7
 10
13.440830522500001
 20
12.4898696398
 30
0.0
 40
0.3510763552560098
 50
170.61414045959989
 51
216.13371837369991
  0
LINE
  5
A3
  8
0
  6
CONTINUOUS
 62
     7
 10
14.812858955799999
 20
12.531634761199999
 30
0.0
 11
14.9188798067
 21
12.58362532869999
 31
0.0
  0
LINE
  5
A4
  8
0
  6
CONTINUOUS
 62
     7
 10
14.5854389673
 20
12.74417998609999
 30
0.0
 11
14.584837833
 21
12.707145946000001
 31
0.0
  0
LINE
  5
A5
  8
0
  6
CONTINUOUS
 62
     7
 10
14.748970895499991
 20
12.867255134500001
 30
0.0
 11
14.5854389673
 21
12.74417998609999
 31
0.0
  0
LINE
  5
A6
  8
0
  6
CONTINUOUS
 62
     7
 10
14.7478276103
 20
12.7968208391
 30
0.0
 11
14.748970895499991
 21
12.867255134500001
 31
0.0
  0
LINE
  5
A7
  8
0
  6
CONTINUOUS
 62
     7
 10
14.796037355799999
 20
12.7573592266
 30
0.0
 11
14.7478276103
 21
12.7968208391
 31
0.0
  0
LINE
  5
A8
  8
0
  6
CONTINUOUS
 62
     7
 10
15.07205599259999
 20
12.868294051199991
 30
0.0
 11
15.6125893639
 21
12.9968073805
 31
0.0
  0
LINE
  5
A9
  8
0
  6
CONTINUOUS
 62
     7
 10
14.8656427564
 20
12.9230591945
 30
0.0
 11
14.9639494199
 21
12.842591409500001
 31
0.0
  0
LINE
  5
AA
  8
0
  6
CONTINUOUS
 62
     7
 10
13.776468357200001
 20
12.6641049178
 30
0.0
 11
14.8656427564
 21
12.9230591945
 31
0.0
  0
LINE
  5
AB
  8
0
  6
CONTINUOUS
 62
     7
 10
13.452884452499999
 20
12.63234183619999
 30
0.0
 11
13.776468357200001
 21
12.6641049178
 31
0.0
  0
LINE
  5
AC
  8
0
  6
CONTINUOUS
 62
     7
 10
13.0204578761
 20
12.529531201499999
 30
0.0
 11
13.128564520199999
 21
12.5552338601
 31
0.0
  0
LINE
  5
AD
  8
0
  6
CONTINUOUS
 62
     7
 10
13.3418795892
 20
12.60595011779999
 30
0.0
 11
13.452884452499999
 21
12.63234183619999
 31
0.0
  0
LINE
  5
AE
  8
0
  6
CONTINUOUS
 62
     7
 10
13.0213602888
 20
12.5851260802
 30
0.0
 11
13.0204578761
 21
12.529531201499999
 31
0.0
  0
LINE
  5
AF
  8
0
  6
CONTINUOUS
 62
     7
 10
13.13048090609999
 20
12.673296519299999
 30
0.0
 11
13.0213602888
 21
12.5851260802
 31
0.0
  0
LINE
  5
B0
  8
0
  6
CONTINUOUS
 62
     7
 10
13.12956627799999
 20
12.6169490863
 30
0.0
 11
13.13048090609999
 21
12.673296519299999
 31
0.0
  0
LINE
  5
B1
  8
0
  6
CONTINUOUS
 62
     7
 10
16.589893509900001
 20
13.4957815955
 30
0.0
 11
13.310285821100001
 21
12.716045643499999
 31
0.0
  0
LINE
  5
B2
  8
0
  6
CONTINUOUS
 62
     7
 10
16.589893509900001
 20
13.4957815955
 30
0.0
 11
16.587606939600001
 21
13.354913013099999
 31
0.0
  0
LINE
  5
B3
  8
0
  6
CONTINUOUS
 62
     7
 10
16.581503825399992
 20
12.97891886529999
 30
0.0
 11
16.579466748800002
 21
12.853420826900001
 31
0.0
  0
LINE
  5
B4
  8
0
  6
CONTINUOUS
 62
     7
 10
16.3600480102
 20
12.801253404700001
 30
0.0
 11
16.579466748800002
 21
12.853420826900001
 31
0.0
  0
POLYLINE
  5
B5
  8
0
  6
CONTINUOUS
 62
     7
 66
     1
 10
0.0
 20
0.0
 30
0.0
 70
   128
  0
VERTEX
  5
3D7
  8
0
  6
CONTINUOUS
 62
     7
 10
16.2675714105
 20
12.604231884700001
 30
0.0
  0
VERTEX
  5
3D8
  8
0
  6
CONTINUOUS
 62
     7
 10
16.256143481199999
 20
12.625485812000001
 30
0.0
  0
VERTEX
  5
3D9
  8
0
  6
CONTINUOUS
 62
     7
 10
16.2505897916
 20
12.650369384699999
 30
0.0
  0
VERTEX
  5
3DA
  8
0
  6
CONTINUOUS
 62
     7
 10
16.2512297703
 20
12.6774506207
 30
0.0
  0
VERTEX
  5
3DB
  8
0
  6
CONTINUOUS
 62
     7
 10
16.258026749500001
 20
12.705171120499999
 30
0.0
  0
VERTEX
  5
3DC
  8
0
  6
CONTINUOUS
 62
     7
 10
16.270589165099999
 20
12.7319355582
 30
0.0
  0
VERTEX
  5
3DD
  8
0
  6
CONTINUOUS
 62
     7
 10
16.288194543199999
 20
12.7562038232
 30
0.0
  0
VERTEX
  5
3DE
  8
0
  6
CONTINUOUS
 62
     7
 10
16.309829344699988
 20
12.776579293099999
 30
0.0
  0
VERTEX
  5
3DF
  8
0
  6
CONTINUOUS
 62
     7
 10
16.334248902900001
 20
12.7918895024
 30
0.0
  0
VERTEX
  5
3E0
  8
0
  6
CONTINUOUS
 62
     7
 10
16.3600480102
 20
12.801253404700001
 30
0.0
  0
SEQEND
  5
3E1
  8
0
  6
CONTINUOUS
 62
     7
  0
LINE
  5
B6
  8
0
  6
CONTINUOUS
 62
     7
 10
16.877398899300001
 20
11.786221101500001
 30
0.0
 11
16.2675714105
 21
12.604231884700001
 31
0.0
  0
ARC
  5
B7
  8
0
  6
CONTINUOUS
 62
     7
 10
16.108374362999989
 20
11.238517457
 30
0.0
 40
0.9441281796180611
 50
358.37700314509999
 51
35.45868559369999
  0
LINE
  5
B8
  8
0
  6
CONTINUOUS
 62
     7
 10
16.0791638685
 20
10.9804530989
 30
0.0
 11
17.052123784500001
 21
11.21177705539999
 31
0.0
  0
POLYLINE
  5
B9
  8
0
  6
CONTINUOUS
 62
     7
 66
     1
 10
0.0
 20
0.0
 30
0.0
 70
   128
  0
VERTEX
  5
3E2
  8
0
  6
CONTINUOUS
 62
     7
 10
16.030181987799999
 20
11.179252299699989
 30
0.0
  0
VERTEX
  5
3E3
  8
0
  6
CONTINUOUS
 62
     7
 10
16.008985728300001
 20
11.1584933469
 30
0.0
  0
VERTEX
  5
3E4
  8
0
  6
CONTINUOUS
 62
     7
 10
15.99190285559999
 20
11.134001247300001
 30
0.0
  0
VERTEX
  5
3E5
  8
0
  6
CONTINUOUS
 62
     7
 10
15.979909552500001
 20
11.107175365699989
 30
0.0
  0
VERTEX
  5
3E6
  8
0
  6
CONTINUOUS
 62
     7
 10
15.9736910192
 20
11.0795480703
 30
0.0
  0
VERTEX
  5
3E7
  8
0
  6
CONTINUOUS
 62
     7
 10
15.9736021558
 20
11.052697803699999
 30
0.0
  0
VERTEX
  5
3E8
  8
0
  6
CONTINUOUS
 62
     7
 10
15.979648652199989
 20
11.0281583123
 30
0.0
  0
VERTEX
  5
3E9
  8
0
  6
CONTINUOUS
 62
     7
 10
15.991484311400001
 20
11.007331604000001
 30
0.0
  0
VERTEX
  5
3EA
  8
0
  6
CONTINUOUS
 62
     7
 10
16.0084334951
 20
10.991407273
 30
0.0
  0
VERTEX
  5
3EB
  8
0
  6
CONTINUOUS
 62
     7
 10
16.029527935800001
 20
10.9812951204
 30
0.0
  0
VERTEX
  5
3EC
  8
0
  6
CONTINUOUS
 62
     7
 10
16.053562496299989
 20
10.977572947100001
 30
0.0
  0
VERTEX
  5
3ED
  8
0
  6
CONTINUOUS
 62
     7
 10
16.0791638685
 20
10.9804530989
 30
0.0
  0
SEQEND
  5
3EE
  8
0
  6
CONTINUOUS
 62
     7
  0
LINE
  5
BA
  8
0
  6
CONTINUOUS
 62
     7
 10
15.41268878599999
 20
12.225650549699999
 30
0.0
 11
16.030181987799999
 21
11.179252299699989
 31
0.0
  0
LINE
  5
BB
  8
0
  6
CONTINUOUS
 62
     7
 10
15.4104959496
 20
12.23079842109999
 30
0.0
 11
15.41268878599999
 21
12.225650549699999
 31
0.0
  0
LINE
  5
BC
  8
0
  6
CONTINUOUS
 62
     7
 10
13.657386182699989
 20
11.96223301609999
 30
0.0
 11
13.761254147600001
 21
11.986927916799999
 31
0.0
  0
LINE
  5
BD
  8
0
  6
CONTINUOUS
 62
     7
 10
14.1555818656
 20
12.0806804409
 30
0.0
 11
14.576407479
 21
12.180732914
 31
0.0
  0
LINE
  5
BE
  8
0
  6
CONTINUOUS
 62
     7
 10
14.80853214759999
 20
12.235921206800001
 30
0.0
 11
15.306012495599999
 21
12.3541985587
 31
0.0
  0
LINE
  5
BF
  8
0
  6
CONTINUOUS
 62
     7
 10
13.3495005458
 20
12.050253419100001
 30
0.0
 11
13.657386182699989
 21
11.96223301609999
 31
0.0
  0
LINE
  5
C0
  8
0
  6
CONTINUOUS
 62
     7
 10
13.1214260872
 20
12.1154569001
 30
0.0
 11
13.11959683069999
 21
12.0027620177
 31
0.0
  0
LINE
  5
C1
  8
0
  6
CONTINUOUS
 62
     7
 10
13.0114901866
 20
11.977059358999989
 30
0.0
 11
13.11959683069999
 21
12.0027620177
 31
0.0
  0
LINE
  5
C2
  8
0
  6
CONTINUOUS
 62
     7
 10
13.015148699399999
 20
12.2024491156
 30
0.0
 11
13.0114901866
 21
11.977059358999989
 31
0.0
  0
LINE
  5
C3
  8
0
  6
CONTINUOUS
 62
     7
 10
13.1658245097
 20
12.238272713200001
 30
0.0
 11
13.015148699399999
 21
12.2024491156
 31
0.0
  0
ARC
  5
C4
  8
0
  6
CONTINUOUS
 62
     7
 10
14.6359654898
 20
12.5147576549
 30
0.0
 40
0.1593208277484342
 50
192.8127250172999
 51
249.09518640780001
  0
LINE
  5
C5
  8
0
  6
CONTINUOUS
 62
     7
 10
15.0075126251
 20
12.5421462974
 30
0.0
 11
14.811269387299999
 21
12.4230029176
 31
0.0
  0
ARC
  5
C6
  8
0
  6
CONTINUOUS
 62
     7
 10
15.993743649000001
 20
10.921639865799991
 30
0.0
 40
1.897022068273063
 50
113.8274470023
 51
121.3244567317
  0
LINE
  5
C7
  8
0
  6
CONTINUOUS
 62
     7
 10
13.13048090609999
 20
12.673296519299999
 30
0.0
 11
13.083436071
 21
12.70898453
 31
0.0
  0
LINE
  5
C8
  8
0
  6
CONTINUOUS
 62
     7
 10
13.0213602888
 20
12.5851260802
 30
0.0
 11
12.974315453599999
 21
12.6208140909
 31
0.0
  0
LINE
  5
C9
  8
0
  6
CONTINUOUS
 62
     7
 10
13.083436071
 20
12.70898453
 30
0.0
 11
12.974315453599999
 21
12.6208140909
 31
0.0
  0
LINE
  5
CA
  8
0
  6
CONTINUOUS
 62
     7
 10
13.0204578761
 20
12.529531201499999
 30
0.0
 11
12.97341304089999
 21
12.565219212100001
 31
0.0
  0
LINE
  5
CB
  8
0
  6
CONTINUOUS
 62
     7
 10
12.974315453599999
 20
12.6208140909
 30
0.0
 11
12.97341304089999
 21
12.565219212100001
 31
0.0
  0
LINE
  5
CC
  8
0
  6
CONTINUOUS
 62
     7
 10
16.542848674799998
 20
13.531469606199989
 30
0.0
 11
16.589893509900001
 21
13.4957815955
 31
0.0
  0
LINE
  5
CD
  8
0
  6
CONTINUOUS
 62
     7
 10
16.542848674799998
 20
13.531469606199989
 30
0.0
 11
13.2976939135
 21
12.759924934600001
 31
0.0
  0
LINE
  5
CE
  8
0
  6
CONTINUOUS
 62
     7
 10
13.015148699399999
 20
12.2024491156
 30
0.0
 11
12.9681038643
 21
12.238137126199989
 31
0.0
  0
LINE
  5
CF
  8
0
  6
CONTINUOUS
 62
     7
 10
13.0114901866
 20
11.977059358999989
 30
0.0
 11
12.9644453514
 21
12.0127473697
 31
0.0
  0
LINE
  5
D0
  8
0
  6
CONTINUOUS
 62
     7
 10
12.9681038643
 20
12.238137126199989
 30
0.0
 11
12.9644453514
 21
12.0127473697
 31
0.0
  0
LINE
  5
D1
  8
0
  6
CONTINUOUS
 62
     7
 10
13.1914574916
 20
12.2912400793
 30
0.0
 11
12.9681038643
 21
12.238137126199989
 31
0.0
  0
LINE
  5
D2
  8
0
  6
CONTINUOUS
 62
     7
 10
14.748970895499991
 20
12.867255134500001
 30
0.0
 11
14.72080305029999
 21
12.8886231414
 31
0.0
  0
LINE
  5
D3
  8
0
  6
CONTINUOUS
 62
     7
 10
14.5854389673
 20
12.74417998609999
 30
0.0
 11
14.538394132100001
 21
12.7798679968
 31
0.0
  0
LINE
  5
D4
  8
0
  6
CONTINUOUS
 62
     7
 10
14.665395065
 20
12.875449737
 30
0.0
 11
14.538394132100001
 21
12.7798679968
 31
0.0
  0
LINE
  5
D5
  8
0
  6
CONTINUOUS
 62
     7
 10
14.538394132100001
 20
12.7798679968
 30
0.0
 11
14.5370292097
 21
12.69577931059999
 31
0.0
  0
ARC
  5
D6
  8
0
  6
CONTINUOUS
 62
     7
 10
14.589567841599999
 20
12.5572325667
 30
0.0
 40
0.1658660835132534
 50
244.32892625700001
 51
266.51800002030001
  0
LINE
  5
D7
  8
0
  6
CONTINUOUS
 62
     7
 10
14.9639494199
 20
12.842591409500001
 30
0.0
 11
14.916904584699999
 21
12.8782794201
 31
0.0
  0
LINE
  5
D8
  8
0
  6
CONTINUOUS
 62
     7
 10
14.8629731003
 20
12.922424470599999
 30
0.0
 11
14.916904584699999
 21
12.8782794201
 31
0.0
  0
LINE
  5
D9
  8
0
  6
CONTINUOUS
 62
     7
 10
14.960467789899999
 20
12.577834308099989
 30
0.0
 11
14.81221792109999
 21
12.487828695999999
 31
0.0
  0
LINE
  5
DA
  8
0
  6
CONTINUOUS
 62
     7
 10
14.960467789899999
 20
12.577834308099989
 30
0.0
 11
15.0050666751
 21
12.6041165016
 31
0.0
  0
LINE
  5
DB
  8
0
  6
CONTINUOUS
 62
     7
 10
16.030181987799999
 20
11.179252299699989
 30
0.0
 11
15.983137152699991
 21
11.214940310399991
 31
0.0
  0
LINE
  5
DC
  8
0
  6
CONTINUOUS
 62
     7
 10
15.378053514899999
 20
12.240309721399999
 30
0.0
 11
15.983137152699991
 21
11.214940310399991
 31
0.0
  0
POLYLINE
  5
DD
  8
0
  6
CONTINUOUS
 62
     7
 66
     1
 10
0.0
 20
0.0
 30
0.0
 70
   128
  0
VERTEX
  5
3EF
  8
0
  6
CONTINUOUS
 62
     7
 10
15.983137152699991
 20
11.214940310399991
 30
0.0
  0
VERTEX
  5
3F0
  8
0
  6
CONTINUOUS
 62
     7
 10
15.961940893099991
 20
11.194181357599989
 30
0.0
  0
VERTEX
  5
3F1
  8
0
  6
CONTINUOUS
 62
     7
 10
15.9448580204
 20
11.169689257999989
 30
0.0
  0
VERTEX
  5
3F2
  8
0
  6
CONTINUOUS
 62
     7
 10
15.93286471739999
 20
11.142863376399999
 30
0.0
  0
VERTEX
  5
3F3
  8
0
  6
CONTINUOUS
 62
     7
 10
15.926646184100001
 20
11.11523608099999
 30
0.0
  0
VERTEX
  5
3F4
  8
0
  6
CONTINUOUS
 62
     7
 10
15.92655732069999
 20
11.0883858144
 30
0.0
  0
VERTEX
  5
3F5
  8
0
  6
CONTINUOUS
 62
     7
 10
15.932603817
 20
11.063846322999989
 30
0.0
  0
VERTEX
  5
3F6
  8
0
  6
CONTINUOUS
 62
     7
 10
15.944439476199999
 20
11.0430196147
 30
0.0
  0
VERTEX
  5
3F7
  8
0
  6
CONTINUOUS
 62
     7
 10
15.958401725299989
 20
11.0292485239
 30
0.0
  0
SEQEND
  5
3F8
  8
0
  6
CONTINUOUS
 62
     7
  0
LINE
  5
DE
  8
0
  6
CONTINUOUS
 62
     7
 10
15.6125893639
 20
12.9968073805
 30
0.0
 11
16.585549026100001
 21
13.228131276599999
 31
0.0
  0
LINE
  5
DF
  8
0
  6
CONTINUOUS
 62
     7
 10
16.656116278799999
 20
13.17459926059999
 30
0.0
 11
16.7502059491
 21
13.1032232393
 31
0.0
  0
LINE
  5
E0
  8
0
  6
CONTINUOUS
 62
     7
 10
13.8740058601
 20
12.419398578799999
 30
0.0
 11
16.7502059491
 21
13.1032232393
 31
0.0
  0
POLYLINE
  5
E1
  8
0
  6
CONTINUOUS
 62
     7
 66
     1
 10
0.0
 20
0.0
 30
0.0
 70
   128
  0
VERTEX
  5
3F9
  8
0
  6
CONTINUOUS
 62
     7
 10
13.8342526096
 20
12.2764285048
 30
0.0
  0
VERTEX
  5
3FA
  8
0
  6
CONTINUOUS
 62
     7
 10
13.808938188999999
 20
12.289398734900001
 30
0.0
  0
VERTEX
  5
3FB
  8
0
  6
CONTINUOUS
 62
     7
 10
13.78943525319999
 20
12.304091937100001
 30
0.0
  0
VERTEX
  5
3FC
  8
0
  6
CONTINUOUS
 62
     7
 10
13.776410588799999
 20
12.3200057968
 30
0.0
  0
VERTEX
  5
3FD
  8
0
  6
CONTINUOUS
 62
     7
 10
13.7703094326
 20
12.336596306500001
 30
0.0
  0
VERTEX
  5
3FE
  8
0
  6
CONTINUOUS
 62
     7
 10
13.77134036589999
 20
12.3532963015
 30
0.0
  0
VERTEX
  5
3FF
  8
0
  6
CONTINUOUS
 62
     7
 10
13.779468084999991
 20
12.3695348781
 30
0.0
  0
VERTEX
  5
400
  8
0
  6
CONTINUOUS
 62
     7
 10
13.7944148172
 20
12.3847568877
 30
0.0
  0
VERTEX
  5
401
  8
0
  6
CONTINUOUS
 62
     7
 10
13.815669572999999
 20
12.3984419838
 30
0.0
  0
VERTEX
  5
402
  8
0
  6
CONTINUOUS
 62
     7
 10
13.842505726000001
 20
12.4101223132
 30
0.0
  0
VERTEX
  5
403
  8
0
  6
CONTINUOUS
 62
     7
 10
13.8740058601
 20
12.419398578799999
 30
0.0
  0
SEQEND
  5
404
  8
0
  6
CONTINUOUS
 62
     7
  0
POLYLINE
  5
E2
  8
0
  6
CONTINUOUS
 62
     7
 66
     1
 10
0.0
 20
0.0
 30
0.0
 70
   128
  0
VERTEX
  5
405
  8
0
  6
CONTINUOUS
 62
     7
 10
14.2885048007
 20
11.89584093769999
 30
0.0
  0
VERTEX
  5
406
  8
0
  6
CONTINUOUS
 62
     7
 10
14.2670302544
 20
11.943031879599999
 30
0.0
  0
VERTEX
  5
407
  8
0
  6
CONTINUOUS
 62
     7
 10
14.237820917600001
 20
11.9895365922
 30
0.0
  0
VERTEX
  5
408
  8
0
  6
CONTINUOUS
 62
     7
 10
14.2010276464
 20
12.0351148564
 30
0.0
  0
VERTEX
  5
409
  8
0
  6
CONTINUOUS
 62
     7
 10
14.156840561599999
 20
12.079531168999999
 30
0.0
  0
VERTEX
  5
40A
  8
0
  6
CONTINUOUS
 62
     7
 10
14.105487895699991
 20
12.1225561546
 30
0.0
  0
VERTEX
  5
40B
  8
0
  6
CONTINUOUS
 62
     7
 10
14.047234978400001
 20
12.1639674613
 30
0.0
  0
VERTEX
  5
40C
  8
0
  6
CONTINUOUS
 62
     7
 10
13.982382719
 20
12.203551196199991
 30
0.0
  0
VERTEX
  5
40D
  8
0
  6
CONTINUOUS
 62
     7
 10
13.91126612329999
 20
12.24110289309999
 30
0.0
  0
VERTEX
  5
40E
  8
0
  6
CONTINUOUS
 62
     7
 10
13.8342526096
 20
12.2764285048
 30
0.0
  0
SEQEND
  5
40F
  8
0
  6
CONTINUOUS
 62
     7
  0
ARC
  5
E3
  8
0
  6
CONTINUOUS
 62
     7
 10
14.2070191157
 20
11.87514125589999
 30
0.0
 40
0.0840737395965135
 50
294.30436525089999
 51
14.2532723566
  0
ARC
  5
E4
  8
0
  6
CONTINUOUS
 62
     7
 10
14.14633851839999
 20
11.97885249839999
 30
0.0
 40
0.2039590083704544
 50
263.48100499700001
 51
297.85089629409993
  0
LINE
  5
E5
  8
0
  6
CONTINUOUS
 62
     7
 10
14.1231825216
 20
11.77621223369999
 30
0.0
 11
14.154157317499999
 21
11.8262349528
 31
0.0
  0
POLYLINE
  5
E6
  8
0
  6
CONTINUOUS
 62
     7
 66
     1
 10
0.0
 20
0.0
 30
0.0
 70
   128
  0
VERTEX
  5
410
  8
0
  6
CONTINUOUS
 62
     7
 10
14.154157317499999
 20
11.8262349528
 30
0.0
  0
VERTEX
  5
411
  8
0
  6
CONTINUOUS
 62
     7
 10
14.1545429369
 20
11.828861047
 30
0.0
  0
VERTEX
  5
412
  8
0
  6
CONTINUOUS
 62
     7
 10
14.152571051400001
 20
11.83138179349999
 30
0.0
  0
VERTEX
  5
413
  8
0
  6
CONTINUOUS
 62
     7
 10
14.148541814899991
 20
11.8334134724
 30
0.0
  0
VERTEX
  5
414
  8
0
  6
CONTINUOUS
 62
     7
 10
14.143068794899991
 20
11.83464665859999
 30
0.0
  0
VERTEX
  5
415
  8
0
  6
CONTINUOUS
 62
     7
 10
14.1369850764
 20
11.834893707499999
 30
0.0
  0
VERTEX
  5
416
  8
0
  6
CONTINUOUS
 62
     7
 10
14.131216866200001
 20
11.83411700099999
 30
0.0
  0
VERTEX
  5
417
  8
0
  6
CONTINUOUS
 62
     7
 10
14.126642418399991
 20
11.832434711399999
 30
0.0
  0
VERTEX
  5
418
  8
0
  6
CONTINUOUS
 62
     7
 10
14.123958052600001
 20
11.8301030259
 30
0.0
  0
SEQEND
  5
419
  8
0
  6
CONTINUOUS
 62
     7
  0
LINE
  5
E7
  8
0
  6
CONTINUOUS
 62
     7
 10
14.123958052600001
 20
11.8301030259
 30
0.0
 11
14.092983264600001
 21
11.78008030859999
 31
0.0
  0
POLYLINE
  5
E8
  8
0
  6
CONTINUOUS
 62
     7
 66
     1
 10
0.0
 20
0.0
 30
0.0
 70
   128
  0
VERTEX
  5
41A
  8
0
  6
CONTINUOUS
 62
     7
 10
14.017440821499999
 20
11.8310998566
 30
0.0
  0
VERTEX
  5
41B
  8
0
  6
CONTINUOUS
 62
     7
 10
14.01836263829999
 20
11.8231630276
 30
0.0
  0
VERTEX
  5
41C
  8
0
  6
CONTINUOUS
 62
     7
 10
14.022029360399999
 20
11.815339982899991
 30
0.0
  0
VERTEX
  5
41D
  8
0
  6
CONTINUOUS
 62
     7
 10
14.0283574939
 20
11.8078087144
 30
0.0
  0
VERTEX
  5
41E
  8
0
  6
CONTINUOUS
 62
     7
 10
14.0372031465
 20
11.8007404803
 30
0.0
  0
VERTEX
  5
41F
  8
0
  6
CONTINUOUS
 62
     7
 10
14.04836517539999
 20
11.7942960073
 30
0.0
  0
VERTEX
  5
420
  8
0
  6
CONTINUOUS
 62
     7
 10
14.0615897115
 20
11.788621873
 30
0.0
  0
VERTEX
  5
421
  8
0
  6
CONTINUOUS
 62
     7
 10
14.0765759927
 20
11.7838471263
 30
0.0
  0
VERTEX
  5
422
  8
0
  6
CONTINUOUS
 62
     7
 10
14.092983264600001
 20
11.78008030859999
 30
0.0
  0
SEQEND
  5
423
  8
0
  6
CONTINUOUS
 62
     7
  0
POLYLINE
  5
E9
  8
0
  6
CONTINUOUS
 62
     7
 66
     1
 10
0.0
 20
0.0
 30
0.0
 70
   128
  0
VERTEX
  5
424
  8
0
  6
CONTINUOUS
 62
     7
 10
13.677433904800001
 20
12.0977311976
 30
0.0
  0
VERTEX
  5
425
  8
0
  6
CONTINUOUS
 62
     7
 10
13.738548204000001
 20
12.079728211999999
 30
0.0
  0
VERTEX
  5
426
  8
0
  6
CONTINUOUS
 62
     7
 10
13.7950535648
 20
12.059054615299999
 30
0.0
  0
VERTEX
  5
427
  8
0
  6
CONTINUOUS
 62
     7
 10
13.846300276899999
 20
12.035948103000001
 30
0.0
  0
VERTEX
  5
428
  8
0
  6
CONTINUOUS
 62
     7
 10
13.8916990064
 20
12.010674400899999
 30
0.0
  0
VERTEX
  5
429
  8
0
  6
CONTINUOUS
 62
     7
 10
13.930727754899999
 20
11.983524117199989
 30
0.0
  0
VERTEX
  5
42A
  8
0
  6
CONTINUOUS
 62
     7
 10
13.962937756400001
 20
11.9548094141
 30
0.0
  0
VERTEX
  5
42B
  8
0
  6
CONTINUOUS
 62
     7
 10
13.98795847299999
 20
11.9248606131
 30
0.0
  0
VERTEX
  5
42C
  8
0
  6
CONTINUOUS
 62
     7
 10
14.00550235
 20
11.894021972000001
 30
0.0
  0
VERTEX
  5
42D
  8
0
  6
CONTINUOUS
 62
     7
 10
14.0153676449
 20
11.862648104599989
 30
0.0
  0
VERTEX
  5
42E
  8
0
  6
CONTINUOUS
 62
     7
 10
14.017440821499999
 20
11.8310998566
 30
0.0
  0
SEQEND
  5
42F
  8
0
  6
CONTINUOUS
 62
     7
  0
ARC
  5
EA
  8
0
  6
CONTINUOUS
 62
     7
 10
13.907818087100001
 20
13.0890506018
 30
0.0
 40
1.017738194516377
 50
235.1461271714999
 51
256.91661792869991
  0
LINE
  5
EB
  8
0
  6
CONTINUOUS
 62
     7
 10
13.2594301249
 20
12.304530167899999
 30
0.0
 11
13.3261955602
 21
12.253882194299999
 31
0.0
  0
LINE
  5
EC
  8
0
  6
CONTINUOUS
 62
     7
 10
13.51475096329999
 20
12.4339805614
 30
0.0
 11
13.392312396199999
 21
12.4048704477
 31
0.0
  0
LINE
  5
ED
  8
0
  6
CONTINUOUS
 62
     7
 10
13.7121463306
 20
12.499661089
 30
0.0
 11
13.51475096329999
 21
12.4339805614
 31
0.0
  0
LINE
  5
EE
  8
0
  6
CONTINUOUS
 62
     7
 10
14.9013193921
 20
12.7823903289
 30
0.0
 11
13.7121463306
 21
12.499661089
 31
0.0
  0
LINE
  5
EF
  8
0
  6
CONTINUOUS
 62
     7
 10
14.763321213299999
 20
12.8870751569
 30
0.0
 11
14.9013193921
 21
12.7823903289
 31
0.0
  0
LINE
  5
F0
  8
0
  6
CONTINUOUS
 62
     7
 10
13.574148151799999
 20
12.604345917
 30
0.0
 11
14.6427541531
 21
12.858409999299999
 31
0.0
  0
LINE
  5
F1
  8
0
  6
CONTINUOUS
 62
     7
 10
14.7325025153
 20
12.8797479248
 30
0.0
 11
14.763321213299999
 21
12.8870751569
 31
0.0
  0
LINE
  5
F2
  8
0
  6
CONTINUOUS
 62
     7
 10
13.352393165200001
 20
12.569313181099989
 30
0.0
 11
13.574148151799999
 21
12.604345917
 31
0.0
  0
LINE
  5
F3
  8
0
  6
CONTINUOUS
 62
     7
 10
13.09587696359999
 20
12.509384820599999
 30
0.0
 11
13.1505487041
 21
12.52238318069999
 31
0.0
  0
LINE
  5
F4
  8
0
  6
CONTINUOUS
 62
     7
 10
13.089931592299999
 20
12.5138949539
 30
0.0
 11
13.09587696359999
 21
12.509384820599999
 31
0.0
  0
LINE
  5
F5
  8
0
  6
CONTINUOUS
 62
     7
 10
12.8790324494
 20
12.5930982172
 30
0.0
 11
12.945797884599999
 21
12.542450243599999
 31
0.0
  0
POLYLINE
  5
F6
  8
0
  6
CONTINUOUS
 62
     7
 66
     1
 10
0.0
 20
0.0
 30
0.0
 70
   128
  0
VERTEX
  5
430
  8
0
  6
CONTINUOUS
 62
     7
 10
12.749196365099991
 20
12.801888224000001
 30
0.0
  0
VERTEX
  5
431
  8
0
  6
CONTINUOUS
 62
     7
 10
12.751483446099989
 20
12.7747546673
 30
0.0
  0
VERTEX
  5
432
  8
0
  6
CONTINUOUS
 62
     7
 10
12.757850922999999
 20
12.7476893941
 30
0.0
  0
VERTEX
  5
433
  8
0
  6
CONTINUOUS
 62
     7
 10
12.76827171499999
 20
12.7208075461
 30
0.0
  0
VERTEX
  5
434
  8
0
  6
CONTINUOUS
 62
     7
 10
12.7827014347
 20
12.6942235234
 30
0.0
  0
VERTEX
  5
435
  8
0
  6
CONTINUOUS
 62
     7
 10
12.80107875579999
 20
12.6680503753
 30
0.0
  0
VERTEX
  5
436
  8
0
  6
CONTINUOUS
 62
     7
 10
12.823325479699999
 20
12.642399468100001
 30
0.0
  0
VERTEX
  5
437
  8
0
  6
CONTINUOUS
 62
     7
 10
12.8493469417
 20
12.617379939699999
 30
0.0
  0
VERTEX
  5
438
  8
0
  6
CONTINUOUS
 62
     7
 10
12.8790324494
 20
12.5930982172
 30
0.0
  0
SEQEND
  5
439
  8
0
  6
CONTINUOUS
 62
     7
  0
POLYLINE
  5
F7
  8
0
  6
CONTINUOUS
 62
     7
 66
     1
 10
0.0
 20
0.0
 30
0.0
 70
   128
  0
VERTEX
  5
43A
  8
0
  6
CONTINUOUS
 62
     7
 10
12.391718556900001
 20
13.0643658114
 30
0.0
  0
VERTEX
  5
43B
  8
0
  6
CONTINUOUS
 62
     7
 10
12.453962535300001
 20
13.04712334079999
 30
0.0
  0
VERTEX
  5
43C
  8
0
  6
CONTINUOUS
 62
     7
 10
12.5117831312
 20
13.027150980999989
 30
0.0
  0
VERTEX
  5
43D
  8
0
  6
CONTINUOUS
 62
     7
 10
12.5645153594
 20
13.0046784694
 30
0.0
  0
VERTEX
  5
43E
  8
0
  6
CONTINUOUS
 62
     7
 10
12.611552854299999
 20
12.979964219399999
 30
0.0
  0
VERTEX
  5
43F
  8
0
  6
CONTINUOUS
 62
     7
 10
12.6523548968
 20
12.953292298199999
 30
0.0
  0
VERTEX
  5
440
  8
0
  6
CONTINUOUS
 62
     7
 10
12.6864521222
 20
12.92496953099999
 30
0.0
  0
VERTEX
  5
441
  8
0
  6
CONTINUOUS
 62
     7
 10
12.713452511
 20
12.8953215717
 30
0.0
  0
VERTEX
  5
442
  8
0
  6
CONTINUOUS
 62
     7
 10
12.7330455925
 20
12.8646893196
 30
0.0
  0
VERTEX
  5
443
  8
0
  6
CONTINUOUS
 62
     7
 10
12.7450060425
 20
12.8334250451
 30
0.0
  0
VERTEX
  5
444
  8
0
  6
CONTINUOUS
 62
     7
 10
12.749196365099991
 20
12.801888224000001
 30
0.0
  0
SEQEND
  5
445
  8
0
  6
CONTINUOUS
 62
     7
  0
POLYLINE
  5
F8
  8
0
  6
CONTINUOUS
 62
     7
 66
     1
 10
0.0
 20
0.0
 30
0.0
 70
   128
  0
VERTEX
  5
446
  8
0
  6
CONTINUOUS
 62
     7
 10
12.328795445200001
 20
13.1183856409
 30
0.0
  0
VERTEX
  5
447
  8
0
  6
CONTINUOUS
 62
     7
 10
12.32777976059999
 20
13.1104764663
 30
0.0
  0
VERTEX
  5
448
  8
0
  6
CONTINUOUS
 62
     7
 10
12.3295301471
 20
13.10255484849999
 30
0.0
  0
VERTEX
  5
449
  8
0
  6
CONTINUOUS
 62
     7
 10
12.3340068564
 20
13.0948008937
 30
0.0
  0
VERTEX
  5
44A
  8
0
  6
CONTINUOUS
 62
     7
 10
12.34110806859999
 20
13.087390950099991
 30
0.0
  0
VERTEX
  5
44B
  8
0
  6
CONTINUOUS
 62
     7
 10
12.3506722648
 20
13.0804935518
 30
0.0
  0
VERTEX
  5
44C
  8
0
  6
CONTINUOUS
 62
     7
 10
12.3624819611
 20
13.074265540200001
 30
0.0
  0
VERTEX
  5
44D
  8
0
  6
CONTINUOUS
 62
     7
 10
12.3762686058
 20
13.06884853559999
 30
0.0
  0
VERTEX
  5
44E
  8
0
  6
CONTINUOUS
 62
     7
 10
12.391718556900001
 20
13.0643658114
 30
0.0
  0
SEQEND
  5
44F
  8
0
  6
CONTINUOUS
 62
     7
  0
LINE
  5
F9
  8
0
  6
CONTINUOUS
 62
     7
 10
12.445399654699999
 20
13.103450245399999
 30
0.0
 11
12.328795445200001
 21
13.1183856409
 31
0.0
  0
POLYLINE
  5
FA
  8
0
  6
CONTINUOUS
 62
     7
 66
     1
 10
0.0
 20
0.0
 30
0.0
 70
   128
  0
VERTEX
  5
450
  8
0
  6
CONTINUOUS
 62
     7
 10
12.4534218744
 20
13.116405583900001
 30
0.0
  0
VERTEX
  5
451
  8
0
  6
CONTINUOUS
 62
     7
 10
12.4588948944
 20
13.1151723977
 30
0.0
  0
VERTEX
  5
452
  8
0
  6
CONTINUOUS
 62
     7
 10
12.4629240573
 20
13.1131407747
 30
0.0
  0
VERTEX
  5
453
  8
0
  6
CONTINUOUS
 62
     7
 10
12.464896016399999
 20
13.1106199723
 30
0.0
  0
VERTEX
  5
454
  8
0
  6
CONTINUOUS
 62
     7
 10
12.464510397
 20
13.1079938781
 30
0.0
  0
VERTEX
  5
455
  8
0
  6
CONTINUOUS
 62
     7
 10
12.461826031199999
 20
13.105662192600001
 30
0.0
  0
VERTEX
  5
456
  8
0
  6
CONTINUOUS
 62
     7
 10
12.457251583399991
 20
13.103979903000001
 30
0.0
  0
VERTEX
  5
457
  8
0
  6
CONTINUOUS
 62
     7
 10
12.45148337319999
 20
13.103203196500001
 30
0.0
  0
VERTEX
  5
458
  8
0
  6
CONTINUOUS
 62
     7
 10
12.445399654699999
 20
13.103450245399999
 30
0.0
  0
SEQEND
  5
459
  8
0
  6
CONTINUOUS
 62
     7
  0
LINE
  5
FB
  8
0
  6
CONTINUOUS
 62
     7
 10
12.336817656999999
 20
13.131340977600001
 30
0.0
 11
12.4534218744
 21
13.116405583900001
 31
0.0
  0
ARC
  5
FC
  8
0
  6
CONTINUOUS
 62
     7
 10
12.432330331499999
 20
13.0028443646
 30
0.0
 40
0.1601063725094559
 50
85.996330900300009
 51
126.623750218
  0
ARC
  5
FD
  8
0
  6
CONTINUOUS
 62
     7
 10
12.4561559959
 20
12.514681819299989
 30
0.0
 40
0.6480016179309365
 50
71.350336392000003
 51
91.118306810999997
  0
LINE
  5
FE
  8
0
  6
CONTINUOUS
 62
     7
 10
13.134499833699991
 20
12.8420696021
 30
0.0
 11
13.1278423552
 21
12.849561102499999
 31
0.0
  0
ARC
  5
FF
  8
0
  6
CONTINUOUS
 62
     7
 10
12.22661536069999
 20
11.83732928279999
 30
0.0
 40
1.3631903978019191
 50
54.202156218900001
 51
71.313200404100002
  0
LINE
  5
100
  8
0
  6
CONTINUOUS
 62
     7
 10
14.916904584699999
 20
12.8782794201
 30
0.0
 11
14.9639494199
 21
12.842591409500001
 31
0.0
  0
LINE
  5
101
  8
0
  6
CONTINUOUS
 62
     7
 10
14.9639494199
 20
12.842591409500001
 30
0.0
 11
15.07205599259999
 21
12.868294051199991
 31
0.0
  0
LINE
  5
102
  8
0
  6
CONTINUOUS
 62
     7
 10
14.1231825216
 20
11.77621223369999
 30
0.0
 11
14.121810579199989
 21
11.691691075999991
 31
0.0
  0
ARC
  5
103
  8
0
  6
CONTINUOUS
 62
     7
 10
14.144966576099989
 20
11.89433134069999
 30
0.0
 40
0.2039590083704086
 50
263.48100499700001
 51
297.85089629409993
  0
LINE
  5
104
  8
0
  6
CONTINUOUS
 62
     7
 10
14.0916113223
 20
11.695559150899991
 30
0.0
 11
14.092983264600001
 21
11.78008030859999
 31
0.0
  0
POLYLINE
  5
105
  8
0
  6
CONTINUOUS
 62
     7
 66
     1
 10
0.0
 20
0.0
 30
0.0
 70
   128
  0
VERTEX
  5
45A
  8
0
  6
CONTINUOUS
 62
     7
 10
14.016068879200001
 20
11.746578698900001
 30
0.0
  0
VERTEX
  5
45B
  8
0
  6
CONTINUOUS
 62
     7
 10
14.016990696000001
 20
11.73864187
 30
0.0
  0
VERTEX
  5
45C
  8
0
  6
CONTINUOUS
 62
     7
 10
14.02065741809999
 20
11.7308188253
 30
0.0
  0
VERTEX
  5
45D
  8
0
  6
CONTINUOUS
 62
     7
 10
14.026985551599999
 20
11.723287556700001
 30
0.0
  0
VERTEX
  5
45E
  8
0
  6
CONTINUOUS
 62
     7
 10
14.035831204100001
 20
11.716219322600001
 30
0.0
  0
VERTEX
  5
45F
  8
0
  6
CONTINUOUS
 62
     7
 10
14.0469932331
 20
11.7097748496
 30
0.0
  0
VERTEX
  5
460
  8
0
  6
CONTINUOUS
 62
     7
 10
14.060217769199999
 20
11.70410071529999
 30
0.0
  0
VERTEX
  5
461
  8
0
  6
CONTINUOUS
 62
     7
 10
14.0752040504
 20
11.69932596859999
 30
0.0
  0
VERTEX
  5
462
  8
0
  6
CONTINUOUS
 62
     7
 10
14.0916113223
 20
11.695559150899991
 30
0.0
  0
SEQEND
  5
463
  8
0
  6
CONTINUOUS
 62
     7
  0
LINE
  5
106
  8
0
  6
CONTINUOUS
 62
     7
 10
14.1225861103
 20
11.74558186819999
 30
0.0
 11
14.0916113223
 21
11.695559150899991
 31
0.0
  0
ARC
  5
107
  8
0
  6
CONTINUOUS
 62
     7
 10
14.199864531899999
 20
11.796413688199999
 30
0.0
 40
0.09177926981445
 50
296.10607209189988
 51
354.7061732819999
  0
LINE
  5
108
  8
0
  6
CONTINUOUS
 62
     7
 10
14.122687924099999
 20
11.7457385077
 30
0.0
 11
14.1225861103
 21
11.74558186819999
 31
0.0
  0
POLYLINE
  5
109
  8
0
  6
CONTINUOUS
 62
     7
 66
     1
 10
0.0
 20
0.0
 30
0.0
 70
   128
  0
VERTEX
  5
464
  8
0
  6
CONTINUOUS
 62
     7
 10
13.6760619625
 20
12.013210039900001
 30
0.0
  0
VERTEX
  5
465
  8
0
  6
CONTINUOUS
 62
     7
 10
13.7371762617
 20
11.9952070543
 30
0.0
  0
VERTEX
  5
466
  8
0
  6
CONTINUOUS
 62
     7
 10
13.793681622499999
 20
11.9745334576
 30
0.0
  0
VERTEX
  5
467
  8
0
  6
CONTINUOUS
 62
     7
 10
13.8449283346
 20
11.9514269453
 30
0.0
  0
VERTEX
  5
468
  8
0
  6
CONTINUOUS
 62
     7
 10
13.890327064099999
 20
11.926153243199989
 30
0.0
  0
VERTEX
  5
469
  8
0
  6
CONTINUOUS
 62
     7
 10
13.929355812600001
 20
11.899002959500001
 30
0.0
  0
VERTEX
  5
46A
  8
0
  6
CONTINUOUS
 62
     7
 10
13.9615658141
 20
11.8702882564
 30
0.0
  0
VERTEX
  5
46B
  8
0
  6
CONTINUOUS
 62
     7
 10
13.9865865307
 20
11.84033945549999
 30
0.0
  0
VERTEX
  5
46C
  8
0
  6
CONTINUOUS
 62
     7
 10
14.0041304077
 20
11.8095008143
 30
0.0
  0
VERTEX
  5
46D
  8
0
  6
CONTINUOUS
 62
     7
 10
14.01399570259999
 20
11.778126946900001
 30
0.0
  0
VERTEX
  5
46E
  8
0
  6
CONTINUOUS
 62
     7
 10
14.0162297213
 20
11.757729722700001
 30
0.0
  0
SEQEND
  5
46F
  8
0
  6
CONTINUOUS
 62
     7
  0
ARC
  5
10A
  8
0
  6
CONTINUOUS
 62
     7
 10
13.9064461448
 20
13.004529444099999
 30
0.0
 40
1.017738194516389
 50
235.1461271714999
 51
256.91661792869991
  0
LINE
  5
10B
  8
0
  6
CONTINUOUS
 62
     7
 10
13.2594301249
 20
12.304530167899999
 30
0.0
 11
13.258058182599999
 21
12.2200090102
 31
0.0
  0
LINE
  5
10C
  8
0
  6
CONTINUOUS
 62
     7
 10
13.258058182599999
 20
12.2200090102
 30
0.0
 11
13.3248236179
 21
12.1693610367
 31
0.0
  0
ARC
  5
10D
  8
0
  6
CONTINUOUS
 62
     7
 10
13.9134437878
 20
12.1322137453
 30
0.0
 40
0.2067317367434739
 50
101.3852489735
 51
125.4899255878999
  0
LINE
  5
10E
  8
0
  6
CONTINUOUS
 62
     7
 10
16.748834006799989
 20
13.018702081600001
 30
0.0
 11
16.7502059491
 21
13.1032232393
 31
0.0
  0
LINE
  5
10F
  8
0
  6
CONTINUOUS
 62
     7
 10
13.8726339178
 20
12.334877421099989
 30
0.0
 11
16.748834006799989
 21
13.018702081600001
 31
0.0
  0
LINE
  5
110
  8
0
  6
CONTINUOUS
 62
     7
 10
13.09587696359999
 20
12.509384820599999
 30
0.0
 11
13.094663221899999
 21
12.434609913699999
 31
0.0
  0
LINE
  5
111
  8
0
  6
CONTINUOUS
 62
     7
 10
13.096360062400001
 20
12.4253047042
 30
0.0
 11
13.181689238900001
 21
12.445591955899991
 31
0.0
  0
LINE
  5
112
  8
0
  6
CONTINUOUS
 62
     7
 10
12.945797884599999
 20
12.542450243599999
 30
0.0
 11
12.944425942300001
 21
12.457929085899989
 31
0.0
  0
LINE
  5
113
  8
0
  6
CONTINUOUS
 62
     7
 10
12.8776605071
 20
12.5085770595
 30
0.0
 11
12.944425942300001
 21
12.457929085899989
 31
0.0
  0
LINE
  5
114
  8
0
  6
CONTINUOUS
 62
     7
 10
13.574148151799999
 20
12.604345917
 30
0.0
 11
13.572776209500001
 21
12.5198247593
 31
0.0
  0
LINE
  5
115
  8
0
  6
CONTINUOUS
 62
     7
 10
13.375069386099989
 20
12.488591133699989
 30
0.0
 11
13.572776209500001
 21
12.5198247593
 31
0.0
  0
POLYLINE
  5
116
  8
0
  6
CONTINUOUS
 62
     7
 66
     1
 10
0.0
 20
0.0
 30
0.0
 70
   128
  0
VERTEX
  5
470
  8
0
  6
CONTINUOUS
 62
     7
 10
12.747824422800001
 20
12.7173670664
 30
0.0
  0
VERTEX
  5
471
  8
0
  6
CONTINUOUS
 62
     7
 10
12.750111503699999
 20
12.690233509600001
 30
0.0
  0
VERTEX
  5
472
  8
0
  6
CONTINUOUS
 62
     7
 10
12.75647898059999
 20
12.663168236400001
 30
0.0
  0
VERTEX
  5
473
  8
0
  6
CONTINUOUS
 62
     7
 10
12.7668997727
 20
12.63628638839999
 30
0.0
  0
VERTEX
  5
474
  8
0
  6
CONTINUOUS
 62
     7
 10
12.78132949239999
 20
12.60970236569999
 30
0.0
  0
VERTEX
  5
475
  8
0
  6
CONTINUOUS
 62
     7
 10
12.7997068135
 20
12.583529217600001
 30
0.0
  0
VERTEX
  5
476
  8
0
  6
CONTINUOUS
 62
     7
 10
12.821953537400001
 20
12.5578783105
 30
0.0
  0
VERTEX
  5
477
  8
0
  6
CONTINUOUS
 62
     7
 10
12.8479749994
 20
12.532858782
 30
0.0
  0
VERTEX
  5
478
  8
0
  6
CONTINUOUS
 62
     7
 10
12.8776605071
 20
12.5085770595
 30
0.0
  0
SEQEND
  5
479
  8
0
  6
CONTINUOUS
 62
     7
  0
LINE
  5
117
  8
0
  6
CONTINUOUS
 62
     7
 10
14.763321213299999
 20
12.8870751569
 30
0.0
 11
14.76194927099999
 21
12.802553999200001
 31
0.0
  0
LINE
  5
118
  8
0
  6
CONTINUOUS
 62
     7
 10
13.572776209500001
 20
12.5198247593
 30
0.0
 11
14.5378976943
 21
12.7492851067
 31
0.0
  0
LINE
  5
119
  8
0
  6
CONTINUOUS
 62
     7
 10
14.74786632619999
 20
12.7992057395
 30
0.0
 11
14.76194927099999
 21
12.802553999200001
 31
0.0
  0
POLYLINE
  5
11A
  8
0
  6
CONTINUOUS
 62
     7
 66
     1
 10
0.0
 20
0.0
 30
0.0
 70
   128
  0
VERTEX
  5
47A
  8
0
  6
CONTINUOUS
 62
     7
 10
12.3903466146
 20
12.97984465369999
 30
0.0
  0
VERTEX
  5
47B
  8
0
  6
CONTINUOUS
 62
     7
 10
12.452590593
 20
12.9626021831
 30
0.0
  0
VERTEX
  5
47C
  8
0
  6
CONTINUOUS
 62
     7
 10
12.510411188899999
 20
12.942629823300001
 30
0.0
  0
VERTEX
  5
47D
  8
0
  6
CONTINUOUS
 62
     7
 10
12.563143417099999
 20
12.920157311700001
 30
0.0
  0
VERTEX
  5
47E
  8
0
  6
CONTINUOUS
 62
     7
 10
12.610180912000001
 20
12.8954430617
 30
0.0
  0
VERTEX
  5
47F
  8
0
  6
CONTINUOUS
 62
     7
 10
12.6509829545
 20
12.8687711406
 30
0.0
  0
VERTEX
  5
480
  8
0
  6
CONTINUOUS
 62
     7
 10
12.6850801799
 20
12.84044837329999
 30
0.0
  0
VERTEX
  5
481
  8
0
  6
CONTINUOUS
 62
     7
 10
12.71208056869999
 20
12.810800413999999
 30
0.0
  0
VERTEX
  5
482
  8
0
  6
CONTINUOUS
 62
     7
 10
12.731673650199991
 20
12.780168162000001
 30
0.0
  0
VERTEX
  5
483
  8
0
  6
CONTINUOUS
 62
     7
 10
12.7436341002
 20
12.748903887499999
 30
0.0
  0
VERTEX
  5
484
  8
0
  6
CONTINUOUS
 62
     7
 10
12.747824422800001
 20
12.7173670664
 30
0.0
  0
SEQEND
  5
485
  8
0
  6
CONTINUOUS
 62
     7
  0
LINE
  5
11B
  8
0
  6
CONTINUOUS
 62
     7
 10
14.76194927099999
 20
12.802553999200001
 30
0.0
 11
14.815443915999991
 21
12.761973190399999
 31
0.0
  0
POLYLINE
  5
11C
  8
0
  6
CONTINUOUS
 62
     7
 66
     1
 10
0.0
 20
0.0
 30
0.0
 70
   128
  0
VERTEX
  5
486
  8
0
  6
CONTINUOUS
 62
     7
 10
12.326386274100001
 20
13.0273814304
 30
0.0
  0
VERTEX
  5
487
  8
0
  6
CONTINUOUS
 62
     7
 10
12.3264078183
 20
13.02595530859999
 30
0.0
  0
VERTEX
  5
488
  8
0
  6
CONTINUOUS
 62
     7
 10
12.32815820479999
 20
13.018033690799991
 30
0.0
  0
VERTEX
  5
489
  8
0
  6
CONTINUOUS
 62
     7
 10
12.3326349141
 20
13.010279735999999
 30
0.0
  0
VERTEX
  5
48A
  8
0
  6
CONTINUOUS
 62
     7
 10
12.3397361263
 20
13.0028697925
 30
0.0
  0
VERTEX
  5
48B
  8
0
  6
CONTINUOUS
 62
     7
 10
12.3493003225
 20
12.995972394100001
 30
0.0
  0
VERTEX
  5
48C
  8
0
  6
CONTINUOUS
 62
     7
 10
12.3611100188
 20
12.9897443825
 30
0.0
  0
VERTEX
  5
48D
  8
0
  6
CONTINUOUS
 62
     7
 10
12.3748966635
 20
12.9843273779
 30
0.0
  0
VERTEX
  5
48E
  8
0
  6
CONTINUOUS
 62
     7
 10
12.3903466146
 20
12.97984465369999
 30
0.0
  0
SEQEND
  5
48F
  8
0
  6
CONTINUOUS
 62
     7
  0
LINE
  5
11D
  8
0
  6
CONTINUOUS
 62
     7
 10
12.336817656999999
 20
13.131340977600001
 30
0.0
 11
12.336591158199999
 21
13.117387084000001
 31
0.0
  0
CIRCLE
  5
11E
  8
0
  6
CONTINUOUS
 62
     7
 10
3.520604901
 20
11.504802876699999
 30
0.0
 40
0.0625
  0
LINE
  5
11F
  8
0
  6
CONTINUOUS
 62
     7
 10
3.520604901
 20
11.254802876699999
 30
0.0
 11
2.426854901
 21
11.254802876699999
 31
0.0
  0
LINE
  5
120
  8
0
  6
CONTINUOUS
 62
     7
 10
2.426854901
 20
11.754802876699999
 30
0.0
 11
3.520604901
 21
11.754802876699999
 31
0.0
  0
ARC
  5
121
  8
0
  6
CONTINUOUS
 62
     7
 10
3.520604901
 20
11.504802876699999
 30
0.0
 40
0.2500000000000018
 50
270.0
 51
90.0
  0
CIRCLE
  5
122
  8
0
  6
CONTINUOUS
 62
     7
 10
2.426854901
 20
11.504802876699999
 30
0.0
 40
0.0625000000000018
  0
ARC
  5
123
  8
0
  6
CONTINUOUS
 62
     7
 10
2.426854901
 20
11.504802876699999
 30
0.0
 40
0.2500000000000018
 50
90.0
 51
270.0
  0
TEXT
  5
124
  8
0
 62
     7
 10
9.8810881033999998
 20
10.0597654666
 30
0.0
 40
0.1377952756
  1
3/16" sheet
 41
0.75
  7
SLDTEXTSTYLE0
  0
INSERT
  5
130
  8
0
  6
CONTINUOUS
 62
     7
  2
SW_CENTERMARKSYMBOL_0
 10
3.520604901
 20
11.504802876699999
 30
0.0
  0
INSERT
  5
13C
  8
0
  6
CONTINUOUS
 62
     7
  2
SW_CENTERMARKSYMBOL_1
 10
2.426854901
 20
11.504802876699999
 30
0.0
  0
CIRCLE
  5
13D
  8
0
  6
CONTINUOUS
 62
     7
 10
4.519405922899999
 20
11.4624411466
 30
0.0
 40
0.0625
  0
CIRCLE
  5
13E
  8
0
  6
CONTINUOUS
 62
     7
 10
4.519405922899999
 20
11.4624411466
 30
0.0
 40
0.3125
  0
INSERT
  5
14A
  8
0
  6
CONTINUOUS
 62
     7
  2
SW_CENTERMARKSYMBOL_2
 10
4.519405922899999
 20
11.4624411466
 30
0.0
  0
CIRCLE
  5
14B
  8
0
  6
CONTINUOUS
 62
     7
 10
4.5341424543000004
 20
12.346481428800001
 30
0.0
 40
0.0625000000000009
  0
CIRCLE
  5
14C
  8
0
  6
CONTINUOUS
 62
     7
 10
4.5341424543000004
 20
12.346481428800001
 30
0.0
 40
0.3125
  0
INSERT
  5
158
  8
0
  6
CONTINUOUS
 62
     7
  2
SW_CENTERMARKSYMBOL_3
 10
4.5341424543000004
 20
12.346481428800001
 30
0.0
  0
LINE
  5
159
  8
0
  6
CONTINUOUS
 62
     7
 10
12.403193185899999
 20
5.9655748110999989
 30
0.0
 11
9.9656931859000011
 21
5.9655748110999989
 31
0.0
  0
LINE
  5
15A
  8
0
  6
CONTINUOUS
 62
     7
 10
9.9656931859000011
 20
5.9655748110999989
 30
0.0
 11
9.9656931859000011
 21
5.7780748110999989
 31
0.0
  0
LINE
  5
15B
  8
0
  6
CONTINUOUS
 62
     7
 10
9.9656931859000011
 20
5.7780748110999989
 30
0.0
 11
12.403193185899999
 21
5.7780748110999989
 31
0.0
  0
LINE
  5
15C
  8
0
  6
CONTINUOUS
 62
     7
 10
12.403193185899999
 20
5.4968248110999989
 30
0.0
 11
12.403193185899999
 21
5.7780748110999989
 31
0.0
  0
LINE
  5
15D
  8
0
  6
CONTINUOUS
 62
     7
 10
12.403193185899999
 20
5.4968248110999989
 30
0.0
 11
12.215693185899999
 21
5.4968248110999989
 31
0.0
  0
LINE
  5
15E
  8
0
  6
CONTINUOUS
 62
     7
 10
12.215693185899999
 20
5.4968248110999989
 30
0.0
 11
12.215693185899999
 21
5.1218248110999989
 31
0.0
  0
LINE
  5
15F
  8
0
  6
CONTINUOUS
 62
     7
 10
5.5643903729999993
 20
5.1218248110999989
 30
0.0
 11
12.215693185899999
 21
5.1218248110999989
 31
0.0
  0
ARC
  5
160
  8
0
  6
CONTINUOUS
 62
     7
 10
5.5643903729999993
 20
4.7036185271999997
 30
0.0
 40
0.4182062839632367
 50
90.0
 51
196.08798282020001
  0
ARC
  5
161
  8
0
  6
CONTINUOUS
 62
     7
 10
2.2062211667999998
 20
3.7350957645
 30
0.0
 40
3.076838316508486
 50
339.01679540069989
 51
16.087982820200001
  0
ARC
  5
162
  8
0
  6
CONTINUOUS
 62
     7
 10
4.4719478552999989
 20
2.8661267193
 30
0.0
 40
0.6501894691784405
 50
297.3428648391
 51
339.01679540069989
  0
ARC
  5
163
  8
0
  6
CONTINUOUS
 62
     7
 10
4.6588209371999998
 20
2.5047303988
 30
0.0
 40
0.2433371014070201
 50
232.37845388400001
 51
297.3428648391
  0
LINE
  5
164
  8
0
  6
CONTINUOUS
 62
     7
 10
4.5102774919000002
 20
2.3119927797999988
 30
0.0
 11
4.6809180241000004
 21
2.482633311899999
 31
0.0
  0
ARC
  5
165
  8
0
  6
CONTINUOUS
 62
     7
 10
4.6588209371999998
 20
2.5047303988
 30
0.0
 40
0.0312500000000006
 50
315.0
 51
135.0
  0
LINE
  5
166
  8
0
  6
CONTINUOUS
 62
     7
 10
4.6367238503000001
 20
2.5268274858000002
 30
0.0
 11
4.466083318099999
 21
2.3561869535999991
 31
0.0
  0
ARC
  5
167
  8
0
  6
CONTINUOUS
 62
     7
 10
4.6588209371999998
 20
2.5047303988
 30
0.0
 40
0.2433371014070209
 50
148.43243848540001
 51
217.62154611599991
  0
ARC
  5
168
  8
0
  6
CONTINUOUS
 62
     7
 10
3.2927573235000001
 20
3.344072587399999
 30
0.0
 40
1.3599798061708721
 50
328.43243848539998
 51
29.902229720899999
  0
ARC
  5
169
  8
0
  6
CONTINUOUS
 62
     7
 10
6.1387305141999988
 20
4.9807271333999994
 30
0.0
 40
1.9230373283191191
 50
180.0
 51
209.90222972090001
  0
LINE
  5
16A
  8
0
  6
CONTINUOUS
 62
     7
 10
4.2156931858999993
 20
5.2468248110999989
 30
0.0
 11
4.2156931858999993
 21
4.9807271333999994
 31
0.0
  0
LINE
  5
16B
  8
0
  6
CONTINUOUS
 62
     7
 10
4.4031931858999993
 20
5.2468248110999989
 30
0.0
 11
4.2156931858999993
 21
5.2468248110999989
 31
0.0
  0
LINE
  5
16C
  8
0
  6
CONTINUOUS
 62
     7
 10
4.4031931858999993
 20
5.5218248111000001
 30
0.0
 11
4.4031931858999993
 21
5.2468248110999989
 31
0.0
  0
LINE
  5
16D
  8
0
  6
CONTINUOUS
 62
     7
 10
4.9656931858999993
 20
5.5218248111000001
 30
0.0
 11
4.4031931858999993
 21
5.5218248111000001
 31
0.0
  0
LINE
  5
16E
  8
0
  6
CONTINUOUS
 62
     7
 10
5.4656931859000002
 20
5.5968248111000003
 30
0.0
 11
4.9656931858999993
 21
5.5218248111000001
 31
0.0
  0
LINE
  5
16F
  8
0
  6
CONTINUOUS
 62
     7
 10
8.2156931859000011
 20
5.5968248111000003
 30
0.0
 11
5.4656931859000002
 21
5.5968248111000003
 31
0.0
  0
LINE
  5
170
  8
0
  6
CONTINUOUS
 62
     7
 10
8.2156931859000011
 20
6.1468248111000001
 30
0.0
 11
8.2156931859000011
 21
5.5968248111000003
 31
0.0
  0
LINE
  5
171
  8
0
  6
CONTINUOUS
 62
     7
 10
5.4656931859000002
 20
6.1468248111000001
 30
0.0
 11
8.2156931859000011
 21
6.1468248111000001
 31
0.0
  0
LINE
  5
172
  8
0
  6
CONTINUOUS
 62
     7
 10
4.9656931858999993
 20
6.2218248111000003
 30
0.0
 11
5.4656931859000002
 21
6.1468248111000001
 31
0.0
  0
LINE
  5
173
  8
0
  6
CONTINUOUS
 62
     7
 10
4.4031931858999993
 20
6.2218248111000003
 30
0.0
 11
4.9656931858999993
 21
6.2218248111000003
 31
0.0
  0
LINE
  5
174
  8
0
  6
CONTINUOUS
 62
     7
 10
4.4031931858999993
 20
6.4968248110999989
 30
0.0
 11
4.4031931858999993
 21
6.2218248111000003
 31
0.0
  0
LINE
  5
175
  8
0
  6
CONTINUOUS
 62
     7
 10
4.2156931858999993
 20
6.4968248110999989
 30
0.0
 11
4.4031931858999993
 21
6.4968248110999989
 31
0.0
  0
LINE
  5
176
  8
0
  6
CONTINUOUS
 62
     7
 10
4.2156931858999993
 20
6.7629224888000001
 30
0.0
 11
4.2156931858999993
 21
6.4968248110999989
 31
0.0
  0
ARC
  5
177
  8
0
  6
CONTINUOUS
 62
     7
 10
6.1387305141999988
 20
6.7629224888000001
 30
0.0
 40
1.9230373283191191
 50
150.0977702790999
 51
180.0
  0
ARC
  5
178
  8
0
  6
CONTINUOUS
 62
     7
 10
3.2927573235000001
 20
8.3995770348000001
 30
0.0
 40
1.3599798061708721
 50
330.09777027910008
 51
31.567561514600001
  0
LINE
  5
179
  8
0
  6
CONTINUOUS
 62
     7
 10
4.6367238503000001
 20
9.2168221364999994
 30
0.0
 11
4.466083318099999
 21
9.3874626686999996
 31
0.0
  0
ARC
  5
17A
  8
0
  6
CONTINUOUS
 62
     7
 10
4.6588209371999998
 20
9.2389192233999982
 30
0.0
 40
0.0312500000000015
 50
225.0
 51
45.0
  0
LINE
  5
17B
  8
0
  6
CONTINUOUS
 62
     7
 10
4.5102774919000002
 20
9.4316568425000007
 30
0.0
 11
4.6809180241000004
 21
9.2610163103000005
 31
0.0
  0
ARC
  5
17C
  8
0
  6
CONTINUOUS
 62
     7
 10
4.4719478552999989
 20
8.8775229029999991
 30
0.0
 40
0.6501894691784398
 50
20.983204599299999
 51
62.657135160899998
  0
ARC
  5
17D
  8
0
  6
CONTINUOUS
 62
     7
 10
2.2062211667999998
 20
8.0085538577999991
 30
0.0
 40
3.0768383165084878
 50
343.91201717979999
 51
20.983204599299999
  0
ARC
  5
17E
  8
0
  6
CONTINUOUS
 62
     7
 10
5.5643903729999993
 20
7.0400310950999989
 30
0.0
 40
0.4182062839632367
 50
163.9120171797999
 51
270.0
  0
LINE
  5
17F
  8
0
  6
CONTINUOUS
 62
     7
 10
12.215693185899999
 20
6.6218248110999989
 30
0.0
 11
5.5643903729999993
 21
6.6218248110999989
 31
0.0
  0
LINE
  5
180
  8
0
  6
CONTINUOUS
 62
     7
 10
12.215693185899999
 20
6.6218248110999989
 30
0.0
 11
12.215693185899999
 21
6.2468248110999989
 31
0.0
  0
LINE
  5
181
  8
0
  6
CONTINUOUS
 62
     7
 10
12.215693185899999
 20
6.2468248110999989
 30
0.0
 11
12.403193185899999
 21
6.2468248110999989
 31
0.0
  0
LINE
  5
182
  8
0
  6
CONTINUOUS
 62
     7
 10
12.403193185899999
 20
5.9655748110999989
 30
0.0
 11
12.403193185899999
 21
6.2468248110999989
 31
0.0
  0
LINE
  5
183
  8
0
  6
CONTINUOUS
 62
     7
 10
8.7156931859000011
 20
5.9655748110999989
 30
0.0
 11
8.4656931859000011
 21
5.9655748110999989
 31
0.0
  0
LINE
  5
184
  8
0
  6
CONTINUOUS
 62
     7
 10
8.4656931859000011
 20
5.9655748110999989
 30
0.0
 11
8.4656931859000011
 21
5.7780748110999989
 31
0.0
  0
LINE
  5
185
  8
0
  6
CONTINUOUS
 62
     7
 10
8.4656931859000011
 20
5.7780748110999989
 30
0.0
 11
8.7156931859000011
 21
5.7780748110999989
 31
0.0
  0
LINE
  5
186
  8
0
  6
CONTINUOUS
 62
     7
 10
8.7156931859000011
 20
5.7780748110999989
 30
0.0
 11
8.7156931859000011
 21
5.9655748110999989
 31
0.0
  0
ARC
  5
187
  8
0
  6
CONTINUOUS
 62
     7
 10
4.6588209371999998
 20
9.2389192233999982
 30
0.0
 40
0.2433371014070203
 50
142.37845388400001
 51
211.56756151459999
  0
ARC
  5
188
  8
0
  6
CONTINUOUS
 62
     7
 10
4.6588209371999998
 20
9.2389192233999982
 30
0.0
 40
0.2433371014070201
 50
62.657135160899998
 51
127.621546116
  0
CIRCLE
  5
189
  8
0
  6
CONTINUOUS
 62
     7
 10
3.5237732970999991
 20
12.3797065242
 30
0.0
 40
0.0625
  0
LINE
  5
18A
  8
0
  6
CONTINUOUS
 62
     7
 10
3.5237732970999991
 20
12.1297065242
 30
0.0
 11
2.4300232970999991
 21
12.1297065242
 31
0.0
  0
LINE
  5
18B
  8
0
  6
CONTINUOUS
 62
     7
 10
2.4300232970999991
 20
12.6297065242
 30
0.0
 11
3.5237732970999991
 21
12.6297065242
 31
0.0
  0
ARC
  5
18C
  8
0
  6
CONTINUOUS
 62
     7
 10
3.5237732970999991
 20
12.3797065242
 30
0.0
 40
0.2500000000000018
 50
270.0
 51
90.0
  0
CIRCLE
  5
18D
  8
0
  6
CONTINUOUS
 62
     7
 10
2.4300232970999991
 20
12.3797065242
 30
0.0
 40
0.0625000000000018
  0
ARC
  5
18E
  8
0
  6
CONTINUOUS
 62
     7
 10
2.4300232970999991
 20
12.3797065242
 30
0.0
 40
0.2500000000000018
 50
90.0
 51
270.0
  0
TEXT
  5
18F
  8
0
 62
     7
 10
3.3768165633999989
 20
13.4825532399
 30
0.0
 40
0.1377952756
  1
1/16" sheet
 41
0.75
  7
SLDTEXTSTYLE0
  0
INSERT
  5
19B
  8
0
  6
CONTINUOUS
 62
     7
  2
SW_CENTERMARKSYMBOL_4
 10
3.5237732970999991
 20
12.3797065242
 30
0.0
  0
INSERT
  5
1A7
  8
0
  6
CONTINUOUS
 62
     7
  2
SW_CENTERMARKSYMBOL_5
 10
2.4300232970999991
 20
12.3797065242
 30
0.0
  0
CIRCLE
  5
1A8
  8
0
  6
CONTINUOUS
 62
     7
 10
13.512901403800001
 20
8.3808925384999995
 30
0.0
 40
0.0625000000000018
  0
ARC
  5
1A9
  8
0
  6
CONTINUOUS
 62
     7
 10
16.262901403800001
 20
8.3808925384999995
 30
0.0
 40
0.0625000000000018
 50
270.0
 51
90.0
  0
LINE
  5
1AA
  8
0
  6
CONTINUOUS
 62
     7
 10
15.24353615049999
 20
8.4433925384999995
 30
0.0
 11
16.262901403800001
 21
8.4433925384999995
 31
0.0
  0
ARC
  5
1AB
  8
0
  6
CONTINUOUS
 62
     7
 10
15.24353615049999
 20
4.9433925385000004
 30
0.0
 40
3.4999999999999978
 50
90.0
 51
103.7277482224
  0
LINE
  5
1AC
  8
0
  6
CONTINUOUS
 62
     7
 10
13.572228563199991
 20
8.1380339619999997
 30
0.0
 11
14.4129559195
 21
8.3434126089999996
 31
0.0
  0
ARC
  5
1AD
  8
0
  6
CONTINUOUS
 62
     7
 10
13.512901403800001
 20
8.3808925384999995
 30
0.0
 40
0.2500000000000003
 50
180.0
 51
283.72774822240001
  0
LINE
  5
1AE
  8
0
  6
CONTINUOUS
 62
     7
 10
13.262901403800001
 20
8.7871425384999995
 30
0.0
 11
13.262901403800001
 21
8.3808925384999995
 31
0.0
  0
LINE
  5
1AF
  8
0
  6
CONTINUOUS
 62
     7
 10
13.637901403800001
 20
8.9746425384999995
 30
0.0
 11
13.262901403800001
 21
8.7871425384999995
 31
0.0
  0
LINE
  5
1B0
  8
0
  6
CONTINUOUS
 62
     7
 10
13.637901403800001
 20
8.8183925384999995
 30
0.0
 11
13.637901403800001
 21
8.9746425384999995
 31
0.0
  0
LINE
  5
1B1
  8
0
  6
CONTINUOUS
 62
     7
 10
13.887901403800001
 20
8.5683925384999995
 30
0.0
 11
13.637901403800001
 21
8.8183925384999995
 31
0.0
  0
LINE
  5
1B2
  8
0
  6
CONTINUOUS
 62
     7
 10
16.262901403800001
 20
8.5683925384999995
 30
0.0
 11
13.887901403800001
 21
8.5683925384999995
 31
0.0
  0
ARC
  5
1B3
  8
0
  6
CONTINUOUS
 62
     7
 10
16.262901403800001
 20
8.6308925384999995
 30
0.0
 40
0.0625
 50
270.0
 51
180.0
  0
LINE
  5
1B4
  8
0
  6
CONTINUOUS
 62
     7
 10
15.637901403800001
 20
8.6308925384999995
 30
0.0
 11
16.200401403800001
 21
8.6308925384999995
 31
0.0
  0
LINE
  5
1B5
  8
0
  6
CONTINUOUS
 62
     7
 10
15.637901403800001
 20
8.8058925385000002
 30
0.0
 11
15.637901403800001
 21
8.6308925384999995
 31
0.0
  0
LINE
  5
1B6
  8
0
  6
CONTINUOUS
 62
     7
 10
14.387901403800001
 20
8.8058925385000002
 30
0.0
 11
15.637901403800001
 21
8.8058925385000002
 31
0.0
  0
LINE
  5
1B7
  8
0
  6
CONTINUOUS
 62
     7
 10
14.137901403800001
 20
8.7121425385000002
 30
0.0
 11
14.387901403800001
 21
8.8058925385000002
 31
0.0
  0
LINE
  5
1B8
  8
0
  6
CONTINUOUS
 62
     7
 10
14.137901403800001
 20
8.8058925385000002
 30
0.0
 11
14.137901403800001
 21
8.7121425385000002
 31
0.0
  0
LINE
  5
1B9
  8
0
  6
CONTINUOUS
 62
     7
 10
13.9066514038
 20
9.0371425384999995
 30
0.0
 11
14.137901403800001
 21
8.8058925385000002
 31
0.0
  0
LINE
  5
1BA
  8
0
  6
CONTINUOUS
 62
     7
 10
11.387901403800001
 20
9.0371425384999995
 30
0.0
 11
13.9066514038
 21
9.0371425384999995
 31
0.0
  0
LINE
  5
1BB
  8
0
  6
CONTINUOUS
 62
     7
 10
10.637901403800001
 20
9.1377347271999998
 30
0.0
 11
11.387901403800001
 21
9.0371425384999995
 31
0.0
  0
LINE
  5
1BC
  8
0
  6
CONTINUOUS
 62
     7
 10
9.6379014038000008
 20
9.1377347271999998
 30
0.0
 11
10.637901403800001
 21
9.1377347271999998
 31
0.0
  0
LINE
  5
1BD
  8
0
  6
CONTINUOUS
 62
     7
 10
9.6379014038000008
 20
9.2610652756
 30
0.0
 11
9.6379014038000008
 21
9.1377347271999998
 31
0.0
  0
LINE
  5
1BE
  8
0
  6
CONTINUOUS
 62
     7
 10
9.8879014038000008
 20
9.3996425385000002
 30
0.0
 11
9.6379014038000008
 21
9.2610652756
 31
0.0
  0
LINE
  5
1BF
  8
0
  6
CONTINUOUS
 62
     7
 10
9.8879014038000008
 20
9.2746425385000002
 30
0.0
 11
9.8879014038000008
 21
9.3996425385000002
 31
0.0
  0
LINE
  5
1C0
  8
0
  6
CONTINUOUS
 62
     7
 10
10.075401403800001
 20
9.2746425385000002
 30
0.0
 11
9.8879014038000008
 21
9.2746425385000002
 31
0.0
  0
LINE
  5
1C1
  8
0
  6
CONTINUOUS
 62
     7
 10
10.075401403800001
 20
9.3996425385000002
 30
0.0
 11
10.075401403800001
 21
9.2746425385000002
 31
0.0
  0
LINE
  5
1C2
  8
0
  6
CONTINUOUS
 62
     7
 10
17.887901403800001
 20
9.3996425385000002
 30
0.0
 11
10.075401403800001
 21
9.3996425385000002
 31
0.0
  0
LINE
  5
1C3
  8
0
  6
CONTINUOUS
 62
     7
 10
17.887901403800001
 20
9.3996425385000002
 30
0.0
 11
17.887901403800001
 21
9.0871425385000002
 31
0.0
  0
LINE
  5
1C4
  8
0
  6
CONTINUOUS
 62
     7
 10
17.887901403800001
 20
9.0871425385000002
 30
0.0
 11
18.075401403800001
 21
9.0871425385000002
 31
0.0
  0
LINE
  5
1C5
  8
0
  6
CONTINUOUS
 62
     7
 10
18.075401403800001
 20
8.3371425385000002
 30
0.0
 11
18.075401403800001
 21
9.0871425385000002
 31
0.0
  0
LINE
  5
1C6
  8
0
  6
CONTINUOUS
 62
     7
 10
18.075401403800001
 20
8.3371425385000002
 30
0.0
 11
17.887901403800001
 21
8.3371425385000002
 31
0.0
  0
LINE
  5
1C7
  8
0
  6
CONTINUOUS
 62
     7
 10
17.887901403800001
 20
8.3371425385000002
 30
0.0
 11
17.887901403800001
 21
7.9746425385000004
 31
0.0
  0
LINE
  5
1C8
  8
0
  6
CONTINUOUS
 62
     7
 10
17.3804885194
 20
7.9746425385000004
 30
0.0
 11
17.887901403800001
 21
7.9746425385000004
 31
0.0
  0
ARC
  5
1C9
  8
0
  6
CONTINUOUS
 62
     7
 10
17.3804885194
 20
7.7246425385000004
 30
0.0
 40
0.2500000000000018
 50
90.0
 51
214.0
  0
LINE
  5
1CA
  8
0
  6
CONTINUOUS
 62
     7
 10
18.6197621759
 20
5.4402708736000003
 30
0.0
 11
17.173229126300001
 21
7.5848443125999987
 31
0.0
  0
ARC
  5
1CB
  8
0
  6
CONTINUOUS
 62
     7
 10
16.5471682445
 20
4.0422886149000004
 30
0.0
 40
2.5
 50
0.6004477672000002
 51
34.0
  0
LINE
  5
1CC
  8
0
  6
CONTINUOUS
 62
     7
 10
16.797030963200001
 20
4.0684876117000002
 30
0.0
 11
19.047030963200001
 21
4.0684876117000002
 31
0.0
  0
ARC
  5
1CD
  8
0
  6
CONTINUOUS
 62
     7
 10
16.797030963200001
 20
4.3184876117000002
 30
0.0
 40
0.25
 50
119.0
 51
270.0
  0
LINE
  5
1CE
  8
0
  6
CONTINUOUS
 62
     7
 10
15.202893548700001
 20
7.1943876360000001
 30
0.0
 11
16.675828558199999
 21
4.5371425385000004
 31
0.0
  0
ARC
  5
1CF
  8
0
  6
CONTINUOUS
 62
     7
 10
15.2575572804
 20
7.2246882372999996
 30
0.0
 40
0.0625000000000007
 50
89.020125938099994
 51
209.0
  0
ARC
  5
1D0
  8
0
  6
CONTINUOUS
 62
     7
 10
15.262901403800001
 20
7.5371425385000004
 30
0.0
 40
0.25
 50
269.02012593810002
 51
180.0
  0
LINE
  5
1D1
  8
0
  6
CONTINUOUS
 62
     7
 10
11.137901403800001
 20
7.5371425385000004
 30
0.0
 11
15.012901403800001
 21
7.5371425385000004
 31
0.0
  0
LINE
  5
1D2
  8
0
  6
CONTINUOUS
 62
     7
 10
10.387901403800001
 20
7.9121425385000004
 30
0.0
 11
11.137901403800001
 21
7.5371425385000004
 31
0.0
  0
LINE
  5
1D3
  8
0
  6
CONTINUOUS
 62
     7
 10
10.075401403800001
 20
7.9121425385000004
 30
0.0
 11
10.387901403800001
 21
7.9121425385000004
 31
0.0
  0
LINE
  5
1D4
  8
0
  6
CONTINUOUS
 62
     7
 10
10.075401403800001
 20
7.9121425385000004
 30
0.0
 11
10.075401403800001
 21
8.1621425384999995
 31
0.0
  0
LINE
  5
1D5
  8
0
  6
CONTINUOUS
 62
     7
 10
10.075401403800001
 20
8.1621425384999995
 30
0.0
 11
9.8879014038000008
 21
8.1621425384999995
 31
0.0
  0
LINE
  5
1D6
  8
0
  6
CONTINUOUS
 62
     7
 10
9.8879014038000008
 20
8.1621425384999995
 30
0.0
 11
9.8879014038000008
 21
7.9121425385000004
 31
0.0
  0
LINE
  5
1D7
  8
0
  6
CONTINUOUS
 62
     7
 10
9.6379014038000008
 20
8.4121425384999995
 30
0.0
 11
9.6379014038000008
 21
7.9121425385000004
 31
0.0
  0
LINE
  5
1D8
  8
0
  6
CONTINUOUS
 62
     7
 10
10.637901403800001
 20
8.4121425384999995
 30
0.0
 11
9.6379014038000008
 21
8.4121425384999995
 31
0.0
  0
LINE
  5
1D9
  8
0
  6
CONTINUOUS
 62
     7
 10
11.387901403800001
 20
8.5058925384999995
 30
0.0
 11
10.637901403800001
 21
8.4121425384999995
 31
0.0
  0
LINE
  5
1DA
  8
0
  6
CONTINUOUS
 62
     7
 10
13.012901403800001
 20
8.5058925384999995
 30
0.0
 11
11.387901403800001
 21
8.5058925384999995
 31
0.0
  0
LINE
  5
1DB
  8
0
  6
CONTINUOUS
 62
     7
 10
13.012901403800001
 20
8.3808925384999995
 30
0.0
 11
13.012901403800001
 21
8.5058925384999995
 31
0.0
  0
ARC
  5
1DC
  8
0
  6
CONTINUOUS
 62
     7
 10
13.512901403800001
 20
8.3808925384999995
 30
0.0
 40
0.5000000000000001
 50
180.0
 51
289.69007517329999
  0
LINE
  5
1DD
  8
0
  6
CONTINUOUS
 62
     7
 10
14.250354597799999
 20
8.1137437676999991
 30
0.0
 11
13.681367489299999
 21
7.9101280772000004
 31
0.0
  0
ARC
  5
1DE
  8
0
  6
CONTINUOUS
 62
     7
 10
15.429617196300001
 20
4.8183925385000004
 30
0.0
 40
3.5000000000000009
 50
90.0
 51
109.6900751733
  0
LINE
  5
1DF
  8
0
  6
CONTINUOUS
 62
     7
 10
16.262901403800001
 20
8.3183925384999995
 30
0.0
 11
15.429617196300001
 21
8.3183925384999995
 31
0.0
  0
LINE
  5
1E0
  8
0
  6
CONTINUOUS
 62
     7
 10
9.6379014038000008
 20
7.9121425385000004
 30
0.0
 11
9.8879014038000008
 21
7.9121425385000004
 31
0.0
  0
INSERT
  5
1EC
  8
0
  6
CONTINUOUS
 62
     7
  2
SW_CENTERMARKSYMBOL_6
 10
13.512901403800001
 20
8.3808925384999995
 30
0.0
  0
ARC
  5
1ED
  8
0
  6
CONTINUOUS
 62
     7
 10
8.1381531614
 20
4.0502152326999994
 30
0.0
 40
0.0624999999999997
 50
300.0
 51
239.99999999999989
  0
LINE
  5
1EE
  8
0
  6
CONTINUOUS
 62
     7
 10
8.1694031614
 20
3.9960886449999999
 30
0.0
 11
8.2183473307000003
 21
3.8134265183999991
 31
0.0
  0
ARC
  5
1EF
  8
0
  6
CONTINUOUS
 62
     7
 10
8.1381531614
 20
4.0502152326999994
 30
0.0
 40
0.2499999999999993
 50
288.70990152420001
 51
251.29009847579999
  0
LINE
  5
1F0
  8
0
  6
CONTINUOUS
 62
     7
 10
8.0579589920999997
 20
3.8134265183999991
 30
0.0
 11
8.1069031614
 21
3.9960886449999999
 31
0.0
  0
LINE
  5
1F1
  8
0
  6
CONTINUOUS
 62
     7
 10
7.8304087338999988
 20
4.2645009470000002
 30
0.0
 11
7.4200828305999993
 21
3.6752152326999989
 31
0.0
  0
ARC
  5
1F2
  8
0
  6
CONTINUOUS
 62
     7
 10
8.1381531614
 20
4.0502152326999994
 30
0.0
 40
0.3750000000000003
 50
34.849904578999997
 51
145.150095421
  0
LINE
  5
1F3
  8
0
  6
CONTINUOUS
 62
     7
 10
8.8562234921999998
 20
3.6752152326999989
 30
0.0
 11
8.4458975888999994
 21
4.2645009470000002
 31
0.0
  0
ARC
  5
1F4
  8
0
  6
CONTINUOUS
 62
     7
 10
8.1381531614
 20
3.1752152326999989
 30
0.0
 40
0.8750000000000001
 50
2.0467130977000001
 51
34.849904578999997
  0
LINE
  5
1F5
  8
0
  6
CONTINUOUS
 62
     7
 10
8.7631531614
 20
3.2064652326999989
 30
0.0
 11
9.0125949476000002
 21
3.2064652326999989
 31
0.0
  0
LINE
  5
1F6
  8
0
  6
CONTINUOUS
 62
     7
 10
8.7631531614
 20
3.0189652326999989
 30
0.0
 11
8.7631531614
 21
3.2064652326999989
 31
0.0
  0
LINE
  5
1F7
  8
0
  6
CONTINUOUS
 62
     7
 10
8.9990892435000003
 20
3.0189652326999989
 30
0.0
 11
8.7631531614
 21
3.0189652326999989
 31
0.0
  0
ARC
  5
1F8
  8
0
  6
CONTINUOUS
 62
     7
 10
8.1381531614
 20
3.1752152326999989
 30
0.0
 40
0.8750000000000001
 50
190.28656061149999
 51
349.71343938849992
  0
LINE
  5
1F9
  8
0
  6
CONTINUOUS
 62
     7
 10
7.5131531614
 20
3.0189652326999989
 30
0.0
 11
7.2772170792999988
 21
3.0189652326999989
 31
0.0
  0
LINE
  5
1FA
  8
0
  6
CONTINUOUS
 62
     7
 10
7.5131531614
 20
3.2064652326999989
 30
0.0
 11
7.5131531614
 21
3.0189652326999989
 31
0.0
  0
LINE
  5
1FB
  8
0
  6
CONTINUOUS
 62
     7
 10
7.2637113751999989
 20
3.2064652326999989
 30
0.0
 11
7.5131531614
 21
3.2064652326999989
 31
0.0
  0
ARC
  5
1FC
  8
0
  6
CONTINUOUS
 62
     7
 10
8.1381531614
 20
3.1752152326999989
 30
0.0
 40
0.8749999999999994
 50
145.150095421
 51
177.95328690229991
  0
LINE
  5
1FD
  8
0
  6
CONTINUOUS
 62
     7
 10
8.2319031614
 20
3.538307421399999
 30
0.0
 11
8.2319031614
 21
3.6752152326999989
 31
0.0
  0
LINE
  5
1FE
  8
0
  6
CONTINUOUS
 62
     7
 10
8.2319031614
 20
3.6752152326999989
 30
0.0
 11
8.0444031614
 21
3.6752152326999989
 31
0.0
  0
LINE
  5
1FF
  8
0
  6
CONTINUOUS
 62
     7
 10
8.0444031614
 20
3.6752152326999989
 30
0.0
 11
8.0444031614
 21
3.538307421399999
 31
0.0
  0
ARC
  5
200
  8
0
  6
CONTINUOUS
 62
     7
 10
8.1381531614
 20
3.1752152326999989
 30
0.0
 40
0.3750000000000003
 50
104.4775121859
 51
255.52248781409989
  0
LINE
  5
201
  8
0
  6
CONTINUOUS
 62
     7
 10
8.0444031614
 20
2.8121230439999989
 30
0.0
 11
8.0444031614
 21
2.5627152327
 31
0.0
  0
LINE
  5
202
  8
0
  6
CONTINUOUS
 62
     7
 10
8.0444031614
 20
2.5627152327
 30
0.0
 11
8.2319031614
 21
2.5627152327
 31
0.0
  0
LINE
  5
203
  8
0
  6
CONTINUOUS
 62
     7
 10
8.2319031614
 20
2.5627152327
 30
0.0
 11
8.2319031614
 21
2.8121230439999989
 31
0.0
  0
ARC
  5
204
  8
0
  6
CONTINUOUS
 62
     7
 10
8.1381531614
 20
3.1752152326999989
 30
0.0
 40
0.3750000000000003
 50
284.47751218590003
 51
75.522487814100003
  0
CIRCLE
  5
205
  8
0
  6
CONTINUOUS
 62
     7
 10
11.190373195799999
 20
4.0722869653
 30
0.0
 40
0.125
  0
LINE
  5
206
  8
0
  6
CONTINUOUS
 62
     7
 10
10.714630239
 20
4.1011331191
 30
0.0
 11
10.476758760599999
 21
3.365556196
 31
0.0
  0
ARC
  5
207
  8
0
  6
CONTINUOUS
 62
     7
 10
11.190373195799999
 20
3.9472869652999991
 30
0.0
 40
0.500000000000001
 50
17.920213139400001
 51
162.0797868606
  0
LINE
  5
208
  8
0
  6
CONTINUOUS
 62
     7
 10
11.903987630999991
 20
3.365556196
 30
0.0
 11
11.666116152600001
 21
4.1011331191
 31
0.0
  0
ARC
  5
209
  8
0
  6
CONTINUOUS
 62
     7
 10
11.190373195799999
 20
3.1347869652999991
 30
0.0
 40
0.7500000000000008
 50
162.0797868606
 51
17.920213139400001
  0
LINE
  5
20A
  8
0
  6
CONTINUOUS
 62
     7
 10
11.096623195799991
 20
3.0410369652999991
 30
0.0
 11
11.096623195799991
 21
2.7597869652999991
 31
0.0
  0
LINE
  5
20B
  8
0
  6
CONTINUOUS
 62
     7
 10
11.096623195799991
 20
2.7597869652999991
 30
0.0
 11
11.284123195799991
 21
2.7597869652999991
 31
0.0
  0
LINE
  5
20C
  8
0
  6
CONTINUOUS
 62
     7
 10
11.284123195799991
 20
2.7597869652999991
 30
0.0
 11
11.284123195799991
 21
3.0410369652999991
 31
0.0
  0
LINE
  5
20D
  8
0
  6
CONTINUOUS
 62
     7
 10
11.284123195799991
 20
3.0410369652999991
 30
0.0
 11
11.565373195799991
 21
3.0410369652999991
 31
0.0
  0
LINE
  5
20E
  8
0
  6
CONTINUOUS
 62
     7
 10
11.565373195799991
 20
3.0410369652999991
 30
0.0
 11
11.565373195799991
 21
3.2285369652999991
 31
0.0
  0
LINE
  5
20F
  8
0
  6
CONTINUOUS
 62
     7
 10
11.565373195799991
 20
3.2285369652999991
 30
0.0
 11
11.284123195799991
 21
3.2285369652999991
 31
0.0
  0
LINE
  5
210
  8
0
  6
CONTINUOUS
 62
     7
 10
11.284123195799991
 20
3.2285369652999991
 30
0.0
 11
11.284123195799991
 21
3.5097869652999991
 31
0.0
  0
LINE
  5
211
  8
0
  6
CONTINUOUS
 62
     7
 10
11.284123195799991
 20
3.5097869652999991
 30
0.0
 11
11.096623195799991
 21
3.5097869652999991
 31
0.0
  0
LINE
  5
212
  8
0
  6
CONTINUOUS
 62
     7
 10
11.096623195799991
 20
3.5097869652999991
 30
0.0
 11
11.096623195799991
 21
3.2285369652999991
 31
0.0
  0
LINE
  5
213
  8
0
  6
CONTINUOUS
 62
     7
 10
11.096623195799991
 20
3.2285369652999991
 30
0.0
 11
10.815373195799991
 21
3.2285369652999991
 31
0.0
  0
LINE
  5
214
  8
0
  6
CONTINUOUS
 62
     7
 10
10.815373195799991
 20
3.2285369652999991
 30
0.0
 11
10.815373195799991
 21
3.0410369652999991
 31
0.0
  0
LINE
  5
215
  8
0
  6
CONTINUOUS
 62
     7
 10
10.815373195799991
 20
3.0410369652999991
 30
0.0
 11
11.096623195799991
 21
3.0410369652999991
 31
0.0
  0
INSERT
  5
221
  8
0
  6
CONTINUOUS
 62
     7
  2
SW_CENTERMARKSYMBOL_7
 10
11.190373195799999
 20
4.0722869653
 30
0.0
  0
CIRCLE
  5
222
  8
0
  6
CONTINUOUS
 62
     7
 10
15.128863724
 20
4.0375739396999997
 30
0.0
 40
0.0625000000000018
  0
LINE
  5
223
  8
0
  6
CONTINUOUS
 62
     7
 10
13.628863724
 20
4.2875739396999997
 30
0.0
 11
15.378863724
 21
4.2875739396999997
 31
0.0
  0
LINE
  5
224
  8
0
  6
CONTINUOUS
 62
     7
 10
15.378863724
 20
4.2875739396999997
 30
0.0
 11
15.378863724
 21
4.0375739396999997
 31
0.0
  0
ARC
  5
225
  8
0
  6
CONTINUOUS
 62
     7
 10
15.128863724
 20
4.0375739396999997
 30
0.0
 40
0.2500000000000006
 50
261.86989764579988
 51
0.0
  0
LINE
  5
226
  8
0
  6
CONTINUOUS
 62
     7
 10
15.0935083849
 20
3.790086566199999
 30
0.0
 11
14.289219063099999
 21
3.9049850407999989
 31
0.0
  0
ARC
  5
227
  8
0
  6
CONTINUOUS
 62
     7
 10
15.378193357500001
 20
3.111253330799999
 30
0.0
 40
1.5000000000000011
 50
154.08766318260001
 51
196.02819735269989
  0
ARC
  5
228
  8
0
  6
CONTINUOUS
 62
     7
 10
13.816363724
 20
2.6625739397000001
 30
0.0
 40
0.1250000000000007
 50
199.47122063450001
 51
16.028197352700001
  0
ARC
  5
229
  8
0
  6
CONTINUOUS
 62
     7
 10
15.584130676999999
 20
3.2875739397000001
 30
0.0
 40
1.999999999999998
 50
159.51075423820001
 51
199.47122063450001
  0
LINE
  5
22A
  8
0
  6
CONTINUOUS
 62
     7
 10
13.7106548658
 20
3.9876370689999989
 30
0.0
 11
13.3435083849
 21
4.0400865662000003
 31
0.0
  0
ARC
  5
22B
  8
0
  6
CONTINUOUS
 62
     7
 10
13.378863724
 20
4.2875739396999997
 30
0.0
 40
0.2499999999999998
 50
0.0
 51
261.86989764579988
  0
CIRCLE
  5
22C
  8
0
  6
CONTINUOUS
 62
     7
 10
13.378863724
 20
4.2875739396999997
 30
0.0
 40
0.0625
  0
ARC
  5
22D
  8
0
  6
CONTINUOUS
 62
     7
 10
14.253863724
 20
3.657497667399999
 30
0.0
 40
0.2500000000000016
 50
81.869897645799995
 51
154.08766318260001
  0
INSERT
  5
239
  8
0
  6
CONTINUOUS
 62
     7
  2
SW_CENTERMARKSYMBOL_8
 10
13.378863724
 20
4.2875739396999997
 30
0.0
  0
INSERT
  5
245
  8
0
  6
CONTINUOUS
 62
     7
  2
SW_CENTERMARKSYMBOL_9
 10
15.128863724
 20
4.0375739396999997
 30
0.0
  0
ENDSEC
  0
EOF
