  0
SECTION
  2
HEADER
  9
$LIMMIN
 10
5.600000
 20
5.600000
  9
$LIMMAX
 10
309.900000
 20
691.900000
  9
$EXTMIN
 10
5.600000
 20
5.600000
  9
$EXTMAX
 10
309.900000
 20
691.900000
  0
ENDSEC
  0
SECTION
  2
TABLES
  0
TABLE
  2
LTYPE
 70
     1
  0
LTYPE
  2
CONTINUOUS
 70
    64
  3
Ausgezogene Linie
 72
    65
 73
     0
 40
0.0
  0
ENDTAB
  0
TABLE
  2
LAYER
 70
     1
  0
LAYER
  2
255
 70
    64
 62
     7
  6
CONTINUOUS
  0
ENDTAB
  0
TABLE
  2
STYLE
 70
     1
  0
STYLE
  2
TXT8
 70
    64
 40
0.0
 41
1.0
 50
0.0
 71
     0
 42
3.500000
  3
TXT8
  4

  0
ENDTAB
  0
ENDSEC
  0
SECTION
  2
BLOCKS
  0
ENDSEC
  0
SECTION
  2
ENTITIES
  0
LINE
  8
255
 62
     7
  6
CONTINUOUS
 10
89.700000
 20
126.600000
 11
52.200000
 21
126.600000
  0
ARC
  8
255
 62
     7
  6
CONTINUOUS
 10
52.200000
 20
125.100000
 40
1.500000
 50
90.000000
 51
270.000000
  0
LINE
  8
255
 62
     7
  6
CONTINUOUS
 10
52.200000
 20
123.600000
 11
89.700000
 21
123.600000
  0
ARC
  8
255
 62
     7
  6
CONTINUOUS
 10
97.682307
 20
123.649631
 40
7.982462
 50
180.356236
 51
219.241516
  0
ARC
  8
255
 62
     7
  6
CONTINUOUS
 10
66.884423
 20
98.540508
 40
31.753895
 50
2.815032
 51
39.176952
  0
ARC
  8
255
 62
     7
  6
CONTINUOUS
 10
66.797287
 20
101.692933
 40
31.842581
 50
320.875447
 51
357.132567
  0
ARC
  8
255
 62
     7
  6
CONTINUOUS
 10
97.713942
 20
76.539197
 40
8.014038
 50
140.839694
 51
180.280237
  0
LINE
  8
255
 62
     7
  6
CONTINUOUS
 10
89.700000
 20
76.500000
 11
52.200000
 21
76.600000
  0
ARC
  8
255
 62
     7
  6
CONTINUOUS
 10
52.199945
 20
75.098335
 40
1.501665
 50
89.997884
 51
266.183812
  0
LINE
  8
255
 62
     7
  6
CONTINUOUS
 10
52.100000
 20
73.600000
 11
89.600000
 21
73.600000
  0
LINE
  8
255
 62
     7
  6
CONTINUOUS
 10
89.600000
 20
73.600000
 11
89.600000
 21
70.600000
  0
ARC
  8
255
 62
     7
  6
CONTINUOUS
 10
87.100000
 20
70.600000
 40
2.500000
 50
270.000000
 51
0.000000
  0
LINE
  8
255
 62
     7
  6
CONTINUOUS
 10
87.100000
 20
68.100000
 11
12.100000
 21
68.200000
  0
ARC
  8
255
 62
     7
  6
CONTINUOUS
 10
12.100000
 20
70.700000
 40
2.500000
 50
180.000000
 51
270.000000
  0
LINE
  8
255
 62
     7
  6
CONTINUOUS
 10
9.600000
 20
70.700000
 11
9.700000
 21
100.200000
  0
LINE
  8
255
 62
     7
  6
CONTINUOUS
 10
9.700000
 20
100.200000
 11
9.700000
 21
129.700000
  0
ARC
  8
255
 62
     7
  6
CONTINUOUS
 10
12.200000
 20
129.700000
 40
2.500000
 50
90.000000
 51
180.000000
  0
LINE
  8
255
 62
     7
  6
CONTINUOUS
 10
12.200000
 20
132.200000
 11
87.200000
 21
132.100000
  0
ARC
  8
255
 62
     7
  6
CONTINUOUS
 10
87.200000
 20
129.600000
 40
2.500000
 50
0.000000
 51
90.000000
  0
LINE
  8
255
 62
     7
  6
CONTINUOUS
 10
89.700000
 20
129.600000
 11
89.700000
 21
126.600000
  0
LINE
  8
255
 62
     7
  6
CONTINUOUS
 10
103.300000
 20
134.700000
 11
113.800000
 21
134.700000
  0
ARC
  8
255
 62
     7
  6
CONTINUOUS
 10
113.800000
 20
136.200000
 40
1.500000
 50
270.000000
 51
90.000000
  0
LINE
  8
255
 62
     7
  6
CONTINUOUS
 10
113.800000
 20
137.700000
 11
103.300000
 21
137.700000
  0
LINE
  8
255
 62
     7
  6
CONTINUOUS
 10
103.300000
 20
137.700000
 11
103.300000
 21
140.700000
  0
ARC
  8
255
 62
     7
  6
CONTINUOUS
 10
105.300000
 20
140.700000
 40
2.000000
 50
90.000000
 51
180.000000
  0
LINE
  8
255
 62
     7
  6
CONTINUOUS
 10
105.300000
 20
142.700000
 11
126.300000
 21
142.700000
  0
ARC
  8
255
 62
     7
  6
CONTINUOUS
 10
126.300000
 20
140.700000
 40
2.000000
 50
0.000000
 51
90.000000
  0
LINE
  8
255
 62
     7
  6
CONTINUOUS
 10
128.300000
 20
140.700000
 11
128.300000
 21
130.700000
  0
ARC
  8
255
 62
     7
  6
CONTINUOUS
 10
126.300000
 20
130.700000
 40
2.000000
 50
270.000000
 51
0.000000
  0
LINE
  8
255
 62
     7
  6
CONTINUOUS
 10
126.300000
 20
128.700000
 11
121.300000
 21
128.700000
  0
ARC
  8
255
 62
     7
  6
CONTINUOUS
 10
121.300000
 20
126.700000
 40
2.000000
 50
90.000000
 51
270.000000
  0
LINE
  8
255
 62
     7
  6
CONTINUOUS
 10
121.300000
 20
124.700000
 11
137.300000
 21
124.700000
  0
ARC
  8
255
 62
     7
  6
CONTINUOUS
 10
137.300000
 20
122.700000
 40
2.000000
 50
0.000000
 51
90.000000
  0
LINE
  8
255
 62
     7
  6
CONTINUOUS
 10
139.300000
 20
122.700000
 11
139.300000
 21
118.700000
  0
LINE
  8
255
 62
     7
  6
CONTINUOUS
 10
139.300000
 20
118.700000
 11
128.800000
 21
118.700000
  0
ARC
  8
255
 62
     7
  6
CONTINUOUS
 10
128.800000
 20
117.200000
 40
1.500000
 50
90.000000
 51
270.000000
  0
LINE
  8
255
 62
     7
  6
CONTINUOUS
 10
128.800000
 20
115.700000
 11
139.300000
 21
115.700000
  0
LINE
  8
255
 62
     7
  6
CONTINUOUS
 10
139.300000
 20
115.700000
 11
139.300000
 21
112.700000
  0
ARC
  8
255
 62
     7
  6
CONTINUOUS
 10
137.300000
 20
112.700000
 40
2.000000
 50
270.000000
 51
0.000000
  0
LINE
  8
255
 62
     7
  6
CONTINUOUS
 10
137.300000
 20
110.700000
 11
116.300000
 21
110.700000
  0
ARC
  8
255
 62
     7
  6
CONTINUOUS
 10
116.300000
 20
112.700000
 40
2.000000
 50
180.000000
 51
270.000000
  0
LINE
  8
255
 62
     7
  6
CONTINUOUS
 10
114.300000
 20
112.700000
 11
114.300000
 21
125.700000
  0
ARC
  8
255
 62
     7
  6
CONTINUOUS
 10
112.300000
 20
125.700000
 40
2.000000
 50
0.000000
 51
90.000000
  0
LINE
  8
255
 62
     7
  6
CONTINUOUS
 10
112.300000
 20
127.700000
 11
105.300000
 21
127.700000
  0
ARC
  8
255
 62
     7
  6
CONTINUOUS
 10
105.300000
 20
129.700000
 40
2.000000
 50
180.000000
 51
270.000000
  0
LINE
  8
255
 62
     7
  6
CONTINUOUS
 10
103.300000
 20
129.700000
 11
103.300000
 21
134.700000
  0
LINE
  8
255
 62
     7
  6
CONTINUOUS
 10
39.800000
 20
217.500000
 11
39.800000
 21
220.000000
  0
ARC
  8
255
 62
     7
  6
CONTINUOUS
 10
42.800000
 20
217.500000
 40
3.000000
 50
180.000000
 51
270.000000
  0
LINE
  8
255
 62
     7
  6
CONTINUOUS
 10
90.400000
 20
214.500000
 11
42.800000
 21
214.500000
  0
ARC
  8
255
 62
     7
  6
CONTINUOUS
 10
90.406109
 20
217.504155
 40
3.004161
 50
269.883482
 51
338.435907
  0
ARC
  8
255
 62
     7
  6
CONTINUOUS
 10
97.789325
 20
214.490009
 40
4.970912
 50
108.646292
 51
157.403840
  0
ARC
  8
255
 62
     7
  6
CONTINUOUS
 10
95.399825
 20
221.450000
 40
2.388050
 50
289.577091
 51
70.422909
  0
ARC
  8
255
 62
     7
  6
CONTINUOUS
 10
97.869956
 20
228.429265
 40
5.015446
 50
201.390735
 51
250.551309
  0
ARC
  8
255
 62
     7
  6
CONTINUOUS
 10
90.406109
 20
225.495845
 40
3.004161
 50
21.564093
 51
90.116518
  0
LINE
  8
255
 62
     7
  6
CONTINUOUS
 10
63.100000
 20
228.500000
 11
90.400000
 21
228.500000
  0
ARC
  8
255
 62
     7
  6
CONTINUOUS
 10
63.025788
 20
232.491166
 40
3.991856
 50
230.747779
 51
271.065236
  0
LINE
  8
255
 62
     7
  6
CONTINUOUS
 10
15.900000
 20
266.900000
 11
60.500000
 21
229.400000
  0
ARC
  8
255
 62
     7
  6
CONTINUOUS
 10
14.253828
 20
264.992426
 40
2.519667
 50
49.206914
 51
148.738339
  0
LINE
  8
255
 62
     7
  6
CONTINUOUS
 10
11.000000
 20
264.300000
 11
12.100000
 21
266.300000
  0
LINE
  8
255
 62
     7
  6
CONTINUOUS
 10
15.700000
 20
258.300000
 11
11.000000
 21
264.300000
  0
ARC
  8
255
 62
     7
  6
CONTINUOUS
 10
14.475662
 20
257.380743
 40
1.531025
 50
219.835021
 51
36.899950
  0
LINE
  8
255
 62
     7
  6
CONTINUOUS
 10
9.600000
 20
261.200000
 11
13.300000
 21
256.400000
  0
ARC
  8
255
 62
     7
  6
CONTINUOUS
 10
42.710232
 20
247.241579
 40
35.932227
 50
157.140965
 51
175.277300
  0
ARC
  8
255
 62
     7
  6
CONTINUOUS
 10
9.396310
 20
250.003991
 40
2.503994
 50
175.510374
 51
270.084430
  0
LINE
  8
255
 62
     7
  6
CONTINUOUS
 10
30.300000
 20
247.500000
 11
9.400000
 21
247.500000
  0
ARC
  8
255
 62
     7
  6
CONTINUOUS
 10
30.278046
 20
245.008122
 40
2.491974
 50
49.392687
 51
89.495223
  0
LINE
  8
255
 62
     7
  6
CONTINUOUS
 10
49.600000
 20
232.000000
 11
31.900000
 21
246.900000
  0
ARC
  8
255
 62
     7
  6
CONTINUOUS
 10
48.297197
 20
230.492470
 40
1.992472
 50
270.080604
 51
49.166526
  0
LINE
  8
255
 62
     7
  6
CONTINUOUS
 10
42.800000
 20
228.500000
 11
48.300000
 21
228.500000
  0
ARC
  8
255
 62
     7
  6
CONTINUOUS
 10
42.800000
 20
225.500000
 40
3.000000
 50
90.000000
 51
180.000000
  0
LINE
  8
255
 62
     7
  6
CONTINUOUS
 10
39.800000
 20
223.000000
 11
39.800000
 21
225.500000
  0
LINE
  8
255
 62
     7
  6
CONTINUOUS
 10
62.300000
 20
223.000000
 11
39.800000
 21
223.000000
  0
ARC
  8
255
 62
     7
  6
CONTINUOUS
 10
62.300000
 20
221.500000
 40
1.500000
 50
270.000000
 51
90.000000
  0
LINE
  8
255
 62
     7
  6
CONTINUOUS
 10
39.800000
 20
220.000000
 11
62.300000
 21
220.000000
  0
LINE
  8
255
 62
     7
  6
CONTINUOUS
 10
38.900000
 20
306.600000
 11
28.900000
 21
306.600000
  0
LINE
  8
255
 62
     7
  6
CONTINUOUS
 10
28.900000
 20
306.600000
 11
28.900000
 21
300.100000
  0
LINE
  8
255
 62
     7
  6
CONTINUOUS
 10
28.900000
 20
300.100000
 11
38.900000
 21
300.100000
  0
ARC
  8
255
 62
     7
  6
CONTINUOUS
 10
38.800031
 20
298.101249
 40
2.001249
 50
269.999106
 51
87.136701
  0
LINE
  8
255
 62
     7
  6
CONTINUOUS
 10
38.800000
 20
296.100000
 11
22.800000
 21
296.200000
  0
ARC
  8
255
 62
     7
  6
CONTINUOUS
 10
22.800000
 20
298.200000
 40
2.000000
 50
180.000000
 51
270.000000
  0
LINE
  8
255
 62
     7
  6
CONTINUOUS
 10
20.800000
 20
298.200000
 11
20.900000
 21
304.700000
  0
ARC
  8
255
 62
     7
  6
CONTINUOUS
 10
18.900000
 20
304.700000
 40
2.000000
 50
0.000000
 51
90.000000
  0
LINE
  8
255
 62
     7
  6
CONTINUOUS
 10
18.900000
 20
306.700000
 11
9.900000
 21
306.700000
  0
ARC
  8
255
 62
     7
  6
CONTINUOUS
 10
9.898811
 20
308.701249
 40
2.001249
 50
177.171606
 51
270.034032
  0
LINE
  8
255
 62
     7
  6
CONTINUOUS
 10
7.900000
 20
308.800000
 11
7.900000
 21
312.300000
  0
LINE
  8
255
 62
     7
  6
CONTINUOUS
 10
7.900000
 20
312.300000
 11
11.400000
 21
312.200000
  0
ARC
  8
255
 62
     7
  6
CONTINUOUS
 10
11.400000
 20
313.700000
 40
1.500000
 50
270.000000
 51
90.000000
  0
LINE
  8
255
 62
     7
  6
CONTINUOUS
 10
11.400000
 20
315.200000
 11
7.900000
 21
315.300000
  0
LINE
  8
255
 62
     7
  6
CONTINUOUS
 10
7.900000
 20
315.300000
 11
8.200000
 21
362.300000
  0
LINE
  8
255
 62
     7
  6
CONTINUOUS
 10
8.200000
 20
362.300000
 11
11.700000
 21
362.200000
  0
ARC
  8
255
 62
     7
  6
CONTINUOUS
 10
11.700000
 20
363.700000
 40
1.500000
 50
270.000000
 51
90.000000
  0
LINE
  8
255
 62
     7
  6
CONTINUOUS
 10
11.700000
 20
365.200000
 11
8.200000
 21
365.300000
  0
LINE
  8
255
 62
     7
  6
CONTINUOUS
 10
8.200000
 20
365.300000
 11
8.200000
 21
368.800000
  0
ARC
  8
255
 62
     7
  6
CONTINUOUS
 10
10.200000
 20
368.700000
 40
2.002498
 50
87.137595
 51
177.137595
  0
LINE
  8
255
 62
     7
  6
CONTINUOUS
 10
10.300000
 20
370.700000
 11
19.300000
 21
370.700000
  0
ARC
  8
255
 62
     7
  6
CONTINUOUS
 10
19.300000
 20
372.700000
 40
2.000000
 50
270.000000
 51
0.000000
  0
LINE
  8
255
 62
     7
  6
CONTINUOUS
 10
21.300000
 20
372.700000
 11
21.300000
 21
379.200000
  0
ARC
  8
255
 62
     7
  6
CONTINUOUS
 10
23.300000
 20
379.200000
 40
2.000000
 50
90.000000
 51
180.000000
  0
LINE
  8
255
 62
     7
  6
CONTINUOUS
 10
23.300000
 20
381.200000
 11
39.300000
 21
381.100000
  0
ARC
  8
255
 62
     7
  6
CONTINUOUS
 10
39.300000
 20
379.100000
 40
2.000000
 50
270.000000
 51
90.000000
  0
LINE
  8
255
 62
     7
  6
CONTINUOUS
 10
39.300000
 20
377.100000
 11
29.300000
 21
377.100000
  0
LINE
  8
255
 62
     7
  6
CONTINUOUS
 10
29.300000
 20
377.100000
 11
29.300000
 21
370.600000
  0
LINE
  8
255
 62
     7
  6
CONTINUOUS
 10
29.300000
 20
370.600000
 11
39.300000
 21
370.600000
  0
ARC
  8
255
 62
     7
  6
CONTINUOUS
 10
39.198751
 20
368.601314
 40
2.001249
 50
0.000000
 51
87.100008
  0
LINE
  8
255
 62
     7
  6
CONTINUOUS
 10
41.200000
 20
368.600000
 11
41.200000
 21
367.100000
  0
ARC
  8
255
 62
     7
  6
CONTINUOUS
 10
39.200000
 20
367.100000
 40
2.000000
 50
270.000000
 51
0.000000
  0
LINE
  8
255
 62
     7
  6
CONTINUOUS
 10
39.200000
 20
365.100000
 11
26.200000
 21
365.200000
  0
LINE
  8
255
 62
     7
  6
CONTINUOUS
 10
26.200000
 20
365.200000
 11
25.900000
 21
312.200000
  0
LINE
  8
255
 62
     7
  6
CONTINUOUS
 10
25.900000
 20
312.200000
 11
38.900000
 21
312.100000
  0
ARC
  8
255
 62
     7
  6
CONTINUOUS
 10
38.900000
 20
310.100000
 40
2.000000
 50
0.000000
 51
90.000000
  0
LINE
  8
255
 62
     7
  6
CONTINUOUS
 10
40.900000
 20
310.100000
 11
40.900000
 21
308.600000
  0
ARC
  8
255
 62
     7
  6
CONTINUOUS
 10
38.900000
 20
308.600000
 40
2.000000
 50
270.000000
 51
0.000000
  0
ARC
  8
255
 62
     7
  6
CONTINUOUS
 10
48.100000
 20
262.400000
 40
3.000000
 50
180.000000
 51
0.000000
  0
LINE
  8
255
 62
     7
  6
CONTINUOUS
 10
51.100000
 20
262.400000
 11
51.100000
 21
278.500000
  0
ARC
  8
255
 62
     7
  6
CONTINUOUS
 10
61.073127
 20
278.468168
 40
9.973178
 50
99.657763
 51
179.817124
  0
ARC
  8
255
 62
     7
  6
CONTINUOUS
 10
59.088855
 20
290.286973
 40
2.011187
 50
278.899817
 51
0.371110
  0
LINE
  8
255
 62
     7
  6
CONTINUOUS
 10
61.100000
 20
290.300000
 11
61.100000
 21
294.500000
  0
ARC
  8
255
 62
     7
  6
CONTINUOUS
 10
59.167660
 20
294.504220
 40
1.932344
 50
359.874885
 51
165.133399
  0
ARC
  8
255
 62
     7
  6
CONTINUOUS
 10
55.380277
 20
295.479029
 40
1.978587
 50
288.253097
 51
345.989095
  0
ARC
  8
255
 62
     7
  6
CONTINUOUS
 10
61.068944
 20
278.456855
 40
15.969002
 50
108.507209
 51
179.845198
  0
LINE
  8
255
 62
     7
  6
CONTINUOUS
 10
45.100000
 20
278.500000
 11
45.100000
 21
262.400000
  0
LINE
  8
255
 62
     7
  6
CONTINUOUS
 10
102.600000
 20
309.500000
 11
102.600000
 21
285.000000
  0
ARC
  8
255
 62
     7
  6
CONTINUOUS
 10
104.100000
 20
285.000000
 40
1.500000
 50
180.000000
 51
0.000000
  0
LINE
  8
255
 62
     7
  6
CONTINUOUS
 10
105.600000
 20
285.000000
 11
105.600000
 21
309.500000
  0
LINE
  8
255
 62
     7
  6
CONTINUOUS
 10
105.600000
 20
309.500000
 11
116.100000
 21
309.500000
  0
LINE
  8
255
 62
     7
  6
CONTINUOUS
 10
116.100000
 20
309.500000
 11
121.100000
 21
305.700000
  0
ARC
  8
255
 62
     7
  6
CONTINUOUS
 10
119.301212
 20
303.269201
 40
3.023975
 50
311.374685
 51
53.498611
  0
LINE
  8
255
 62
     7
  6
CONTINUOUS
 10
121.300000
 20
301.000000
 11
116.600000
 21
296.900000
  0
ARC
  8
255
 62
     7
  6
CONTINUOUS
 10
117.593227
 20
295.784897
 40
1.493303
 50
131.691587
 51
179.420503
  0
LINE
  8
255
 62
     7
  6
CONTINUOUS
 10
116.100000
 20
295.800000
 11
116.100000
 21
262.000000
  0
ARC
  8
255
 62
     7
  6
CONTINUOUS
 10
118.600000
 20
262.000000
 40
2.500000
 50
180.000000
 51
270.000000
  0
LINE
  8
255
 62
     7
  6
CONTINUOUS
 10
118.600000
 20
259.500000
 11
119.600000
 21
259.500000
  0
ARC
  8
255
 62
     7
  6
CONTINUOUS
 10
119.600000
 20
257.000000
 40
2.500000
 50
0.000000
 51
90.000000
  0
LINE
  8
255
 62
     7
  6
CONTINUOUS
 10
122.100000
 20
257.000000
 11
122.100000
 21
246.900000
  0
ARC
  8
255
 62
     7
  6
CONTINUOUS
 10
119.600000
 20
246.900000
 40
2.500000
 50
270.000000
 51
0.000000
  0
LINE
  8
255
 62
     7
  6
CONTINUOUS
 10
119.600000
 20
244.400000
 11
67.100000
 21
244.400000
  0
ARC
  8
255
 62
     7
  6
CONTINUOUS
 10
67.100000
 20
246.400000
 40
2.000000
 50
180.000000
 51
270.000000
  0
LINE
  8
255
 62
     7
  6
CONTINUOUS
 10
65.100000
 20
246.400000
 11
65.100000
 21
250.400000
  0
LINE
  8
255
 62
     7
  6
CONTINUOUS
 10
65.100000
 20
250.400000
 11
90.600000
 21
250.400000
  0
ARC
  8
255
 62
     7
  6
CONTINUOUS
 10
90.600000
 20
251.900000
 40
1.500000
 50
270.000000
 51
90.000000
  0
LINE
  8
255
 62
     7
  6
CONTINUOUS
 10
90.600000
 20
253.400000
 11
65.100000
 21
253.400000
  0
LINE
  8
255
 62
     7
  6
CONTINUOUS
 10
65.100000
 20
253.400000
 11
65.100000
 21
271.000000
  0
ARC
  8
255
 62
     7
  6
CONTINUOUS
 10
63.600000
 20
271.000000
 40
1.500000
 50
0.000000
 51
180.000000
  0
LINE
  8
255
 62
     7
  6
CONTINUOUS
 10
62.100000
 20
271.000000
 11
62.100000
 21
253.400000
  0
LINE
  8
255
 62
     7
  6
CONTINUOUS
 10
62.100000
 20
253.400000
 11
42.100000
 21
253.400000
  0
ARC
  8
255
 62
     7
  6
CONTINUOUS
 10
42.099194
 20
256.400833
 40
3.000833
 50
178.106230
 51
270.015387
  0
LINE
  8
255
 62
     7
  6
CONTINUOUS
 10
39.100000
 20
256.500000
 11
39.100000
 21
278.500000
  0
ARC
  8
255
 62
     7
  6
CONTINUOUS
 10
61.101477
 20
278.502385
 40
22.001477
 50
116.454806
 51
180.006210
  0
ARC
  8
255
 62
     7
  6
CONTINUOUS
 10
50.684421
 20
299.477053
 40
1.417674
 50
295.735509
 51
356.884357
  0
ARC
  8
255
 62
     7
  6
CONTINUOUS
 10
53.538170
 20
299.211968
 40
1.450410
 50
42.938170
 51
172.551174
  0
ARC
  8
255
 62
     7
  6
CONTINUOUS
 10
55.569330
 20
301.306872
 40
1.471314
 50
228.790143
 51
287.020343
  0
ARC
  8
255
 62
     7
  6
CONTINUOUS
 10
60.806813
 20
278.500945
 40
21.932282
 50
93.154266
 51
102.660060
  0
ARC
  8
255
 62
     7
  6
CONTINUOUS
 10
59.498336
 20
301.898220
 40
1.501665
 50
273.881934
 51
0.067934
  0
LINE
  8
255
 62
     7
  6
CONTINUOUS
 10
61.000000
 20
301.900000
 11
61.000000
 21
301.700000
  0
ARC
  8
255
 62
     7
  6
CONTINUOUS
 10
63.550000
 20
301.700000
 40
2.550000
 50
0.000000
 51
180.000000
  0
LINE
  8
255
 62
     7
  6
CONTINUOUS
 10
66.100000
 20
301.700000
 11
66.100000
 21
291.900000
  0
ARC
  8
255
 62
     7
  6
CONTINUOUS
 10
70.092119
 20
291.811009
 40
3.993111
 50
178.722986
 51
252.629830
  0
ARC
  8
255
 62
     7
  6
CONTINUOUS
 10
66.100253
 20
278.399666
 40
10.000250
 50
0.574868
 51
73.741725
  0
LINE
  8
255
 62
     7
  6
CONTINUOUS
 10
76.100000
 20
278.500000
 11
76.100000
 21
261.500000
  0
ARC
  8
255
 62
     7
  6
CONTINUOUS
 10
78.100000
 20
261.500000
 40
2.000000
 50
180.000000
 51
270.000000
  0
LINE
  8
255
 62
     7
  6
CONTINUOUS
 10
78.100000
 20
259.500000
 11
90.100000
 21
259.500000
  0
ARC
  8
255
 62
     7
  6
CONTINUOUS
 10
90.100000
 20
261.500000
 40
2.000000
 50
270.000000
 51
0.000000
  0
LINE
  8
255
 62
     7
  6
CONTINUOUS
 10
92.100000
 20
261.500000
 11
92.100000
 21
295.800000
  0
ARC
  8
255
 62
     7
  6
CONTINUOUS
 10
90.606773
 20
295.784897
 40
1.493303
 50
0.579497
 51
48.308413
  0
LINE
  8
255
 62
     7
  6
CONTINUOUS
 10
91.600000
 20
296.900000
 11
86.900000
 21
301.000000
  0
ARC
  8
255
 62
     7
  6
CONTINUOUS
 10
88.800238
 20
303.310633
 40
2.991643
 50
126.995732
 51
230.566518
  0
LINE
  8
255
 62
     7
  6
CONTINUOUS
 10
87.000000
 20
305.700000
 11
92.100000
 21
309.500000
  0
LINE
  8
255
 62
     7
  6
CONTINUOUS
 10
92.100000
 20
309.500000
 11
102.600000
 21
309.500000
  0
LINE
  8
255
 62
     7
  6
CONTINUOUS
 10
57.100000
 20
428.600000
 11
57.100000
 21
413.600000
  0
ARC
  8
255
 62
     7
  6
CONTINUOUS
 10
58.600000
 20
413.600000
 40
1.500000
 50
180.000000
 51
0.000000
  0
LINE
  8
255
 62
     7
  6
CONTINUOUS
 10
60.100000
 20
413.600000
 11
60.100000
 21
428.600000
  0
ARC
  8
255
 62
     7
  6
CONTINUOUS
 10
58.600000
 20
414.600000
 40
14.080128
 50
96.115503
 51
83.884496
  0
ARC
  8
255
 62
     7
  6
CONTINUOUS
 10
19.900000
 20
434.300000
 40
1.500000
 50
0.000000
 51
90.000000
  0
LINE
  8
255
 62
     7
  6
CONTINUOUS
 10
19.900000
 20
435.800000
 11
15.900000
 21
435.800000
  0
ARC
  8
255
 62
     7
  6
CONTINUOUS
 10
15.900000
 20
434.300000
 40
1.500000
 50
90.000000
 51
180.000000
  0
LINE
  8
255
 62
     7
  6
CONTINUOUS
 10
14.400000
 20
434.300000
 11
14.400000
 21
411.300000
  0
ARC
  8
255
 62
     7
  6
CONTINUOUS
 10
15.900000
 20
411.300000
 40
1.500000
 50
180.000000
 51
270.000000
  0
LINE
  8
255
 62
     7
  6
CONTINUOUS
 10
15.900000
 20
409.800000
 11
19.900000
 21
409.800000
  0
ARC
  8
255
 62
     7
  6
CONTINUOUS
 10
19.900000
 20
411.300000
 40
1.500000
 50
270.000000
 51
0.000000
  0
LINE
  8
255
 62
     7
  6
CONTINUOUS
 10
21.400000
 20
411.300000
 11
21.400000
 21
434.300000
  0
ARC
  8
255
 62
     7
  6
CONTINUOUS
 10
103.901669
 20
407.602653
 40
2.998332
 50
295.659229
 51
0.000000
  0
LINE
  8
255
 62
     7
  6
CONTINUOUS
 10
106.900000
 20
407.600000
 11
106.900000
 21
415.100000
  0
ARC
  8
255
 62
     7
  6
CONTINUOUS
 10
103.895841
 20
415.103171
 40
3.004161
 50
359.939528
 51
105.361773
  0
ARC
  8
255
 62
     7
  6
CONTINUOUS
 10
109.465400
 20
395.857604
 40
23.039185
 50
106.038656
 51
175.413277
  0
ARC
  8
255
 62
     7
  6
CONTINUOUS
 10
89.497658
 20
397.502419
 40
3.004163
 50
176.228988
 51
271.952251
  0
LINE
  8
255
 62
     7
  6
CONTINUOUS
 10
89.600000
 20
394.500000
 11
96.700000
 21
394.700000
  0
ARC
  8
255
 62
     7
  6
CONTINUOUS
 10
96.557517
 20
397.661135
 40
2.964561
 50
272.754811
 51
353.002997
  0
ARC
  8
255
 62
     7
  6
CONTINUOUS
 10
109.406004
 20
395.807997
 40
10.017733
 50
114.825485
 51
171.434720
  0
ARC
  8
255
 62
     7
  6
CONTINUOUS
 10
122.164857
 20
398.527524
 40
3.030539
 50
191.950518
 51
272.555870
  0
LINE
  8
255
 62
     7
  6
CONTINUOUS
 10
122.300000
 20
395.500000
 11
129.300000
 21
395.700000
  0
ARC
  8
255
 62
     7
  6
CONTINUOUS
 10
129.216786
 20
398.720378
 40
3.021524
 50
271.578156
 51
9.133494
  0
ARC
  8
255
 62
     7
  6
CONTINUOUS
 10
109.368349
 20
395.836219
 40
23.078114
 50
8.381079
 51
73.817934
  0
ARC
  8
255
 62
     7
  6
CONTINUOUS
 10
114.918193
 20
415.113465
 40
3.018223
 50
73.012615
 51
180.255613
  0
LINE
  8
255
 62
     7
  6
CONTINUOUS
 10
111.900000
 20
415.100000
 11
111.900000
 21
407.600000
  0
ARC
  8
255
 62
     7
  6
CONTINUOUS
 10
114.877126
 20
407.634751
 40
2.977329
 50
180.668756
 51
246.711379
  0
ARC
  8
255
 62
     7
  6
CONTINUOUS
 10
109.370425
 20
395.837477
 40
10.043632
 50
11.850359
 51
64.464095
  0
LINE
  8
255
 62
     7
  6
CONTINUOUS
 10
28.400000
 20
440.800000
 11
28.400000
 21
421.300000
  0
ARC
  8
255
 62
     7
  6
CONTINUOUS
 10
29.900000
 20
421.300000
 40
1.500000
 50
180.000000
 51
0.000000
  0
LINE
  8
255
 62
     7
  6
CONTINUOUS
 10
31.400000
 20
421.300000
 11
31.400000
 21
440.800000
  0
LINE
  8
255
 62
     7
  6
CONTINUOUS
 10
31.400000
 20
440.800000
 11
33.400000
 21
440.800000
  0
ARC
  8
255
 62
     7
  6
CONTINUOUS
 10
33.400000
 20
437.800000
 40
3.000000
 50
0.000000
 51
90.000000
  0
LINE
  8
255
 62
     7
  6
CONTINUOUS
 10
36.400000
 20
437.800000
 11
36.400000
 21
398.800000
  0
ARC
  8
255
 62
     7
  6
CONTINUOUS
 10
39.400000
 20
398.800000
 40
3.000000
 50
180.000000
 51
270.000000
  0
LINE
  8
255
 62
     7
  6
CONTINUOUS
 10
39.400000
 20
395.800000
 11
74.600000
 21
395.800000
  0
ARC
  8
255
 62
     7
  6
CONTINUOUS
 10
74.603561
 20
398.803328
 40
3.003330
 50
269.932066
 51
356.118066
  0
ARC
  8
255
 62
     7
  6
CONTINUOUS
 10
109.438484
 20
395.798310
 40
31.961516
 50
0.000000
 51
174.971099
  0
LINE
  8
255
 62
     7
  6
CONTINUOUS
 10
141.400000
 20
395.800000
 11
141.400000
 21
390.800000
  0
ARC
  8
255
 62
     7
  6
CONTINUOUS
 10
138.400000
 20
390.800000
 40
3.000000
 50
270.000000
 51
0.000000
  0
LINE
  8
255
 62
     7
  6
CONTINUOUS
 10
138.400000
 20
387.800000
 11
24.400000
 21
387.800000
  0
ARC
  8
255
 62
     7
  6
CONTINUOUS
 10
24.400000
 20
390.800000
 40
3.000000
 50
180.000000
 51
270.000000
  0
LINE
  8
255
 62
     7
  6
CONTINUOUS
 10
21.400000
 20
390.800000
 11
21.400000
 21
401.800000
  0
ARC
  8
255
 62
     7
  6
CONTINUOUS
 10
18.400000
 20
401.800000
 40
3.000000
 50
0.000000
 51
90.000000
  0
LINE
  8
255
 62
     7
  6
CONTINUOUS
 10
18.400000
 20
404.800000
 11
12.400000
 21
404.800000
  0
ARC
  8
255
 62
     7
  6
CONTINUOUS
 10
12.400000
 20
407.800000
 40
3.000000
 50
180.000000
 51
270.000000
  0
LINE
  8
255
 62
     7
  6
CONTINUOUS
 10
9.400000
 20
407.800000
 11
9.400000
 21
437.800000
  0
ARC
  8
255
 62
     7
  6
CONTINUOUS
 10
12.400000
 20
437.800000
 40
3.000000
 50
90.000000
 51
180.000000
  0
LINE
  8
255
 62
     7
  6
CONTINUOUS
 10
12.400000
 20
440.800000
 11
28.400000
 21
440.800000
  0
LINE
  8
255
 62
     7
  6
CONTINUOUS
 10
43.900000
 20
526.500000
 11
37.400000
 21
526.500000
  0
ARC
  8
255
 62
     7
  6
CONTINUOUS
 10
37.400000
 20
525.000000
 40
1.500000
 50
90.000000
 51
270.000000
  0
LINE
  8
255
 62
     7
  6
CONTINUOUS
 10
37.400000
 20
523.500000
 11
57.900000
 21
523.500000
  0
ARC
  8
255
 62
     7
  6
CONTINUOUS
 10
57.900000
 20
521.500000
 40
2.000000
 50
0.000000
 51
90.000000
  0
LINE
  8
255
 62
     7
  6
CONTINUOUS
 10
59.900000
 20
521.500000
 11
59.900000
 21
494.500000
  0
LINE
  8
255
 62
     7
  6
CONTINUOUS
 10
59.900000
 20
494.500000
 11
55.400000
 21
494.500000
  0
ARC
  8
255
 62
     7
  6
CONTINUOUS
 10
55.400000
 20
493.000000
 40
1.500000
 50
90.000000
 51
270.000000
  0
LINE
  8
255
 62
     7
  6
CONTINUOUS
 10
55.400000
 20
491.500000
 11
59.900000
 21
491.500000
  0
LINE
  8
255
 62
     7
  6
CONTINUOUS
 10
59.900000
 20
491.500000
 11
59.900000
 21
478.500000
  0
ARC
  8
255
 62
     7
  6
CONTINUOUS
 10
57.900000
 20
478.500000
 40
2.000000
 50
270.000000
 51
0.000000
  0
LINE
  8
255
 62
     7
  6
CONTINUOUS
 10
57.900000
 20
476.500000
 11
37.400000
 21
476.500000
  0
ARC
  8
255
 62
     7
  6
CONTINUOUS
 10
37.400000
 20
475.000000
 40
1.500000
 50
90.000000
 51
270.000000
  0
LINE
  8
255
 62
     7
  6
CONTINUOUS
 10
37.400000
 20
473.500000
 11
43.900000
 21
473.500000
  0
LINE
  8
255
 62
     7
  6
CONTINUOUS
 10
43.900000
 20
473.500000
 11
43.900000
 21
469.000000
  0
ARC
  8
255
 62
     7
  6
CONTINUOUS
 10
40.900000
 20
469.000000
 40
3.000000
 50
270.000000
 51
0.000000
  0
LINE
  8
255
 62
     7
  6
CONTINUOUS
 10
40.900000
 20
466.000000
 11
30.400000
 21
466.000000
  0
ARC
  8
255
 62
     7
  6
CONTINUOUS
 10
30.400000
 20
464.000000
 40
2.000000
 50
90.000000
 51
180.000000
  0
LINE
  8
255
 62
     7
  6
CONTINUOUS
 10
28.400000
 20
464.000000
 11
28.400000
 21
458.000000
  0
ARC
  8
255
 62
     7
  6
CONTINUOUS
 10
26.400000
 20
458.000000
 40
2.000000
 50
270.000000
 51
0.000000
  0
LINE
  8
255
 62
     7
  6
CONTINUOUS
 10
26.400000
 20
456.000000
 11
11.400000
 21
456.000000
  0
ARC
  8
255
 62
     7
  6
CONTINUOUS
 10
11.400000
 20
458.000000
 40
2.000000
 50
90.000000
 51
270.000000
  0
LINE
  8
255
 62
     7
  6
CONTINUOUS
 10
11.400000
 20
460.000000
 11
21.400000
 21
460.000000
  0
LINE
  8
255
 62
     7
  6
CONTINUOUS
 10
21.400000
 20
460.000000
 11
21.400000
 21
467.500000
  0
LINE
  8
255
 62
     7
  6
CONTINUOUS
 10
21.400000
 20
467.500000
 11
11.400000
 21
467.500000
  0
ARC
  8
255
 62
     7
  6
CONTINUOUS
 10
11.400000
 20
469.500000
 40
2.000000
 50
180.000000
 51
270.000000
  0
LINE
  8
255
 62
     7
  6
CONTINUOUS
 10
9.400000
 20
469.500000
 11
9.400000
 21
471.000000
  0
ARC
  8
255
 62
     7
  6
CONTINUOUS
 10
11.400000
 20
471.000000
 40
2.000000
 50
90.000000
 51
180.000000
  0
LINE
  8
255
 62
     7
  6
CONTINUOUS
 10
11.400000
 20
473.000000
 11
19.900000
 21
473.000000
  0
LINE
  8
255
 62
     7
  6
CONTINUOUS
 10
19.900000
 20
473.000000
 11
19.900000
 21
527.000000
  0
LINE
  8
255
 62
     7
  6
CONTINUOUS
 10
19.900000
 20
527.000000
 11
11.400000
 21
527.000000
  0
ARC
  8
255
 62
     7
  6
CONTINUOUS
 10
11.400000
 20
529.000000
 40
2.000000
 50
180.000000
 51
270.000000
  0
LINE
  8
255
 62
     7
  6
CONTINUOUS
 10
9.400000
 20
529.000000
 11
9.400000
 21
530.500000
  0
ARC
  8
255
 62
     7
  6
CONTINUOUS
 10
11.400000
 20
530.500000
 40
2.000000
 50
90.000000
 51
180.000000
  0
LINE
  8
255
 62
     7
  6
CONTINUOUS
 10
11.400000
 20
532.500000
 11
21.400000
 21
532.500000
  0
LINE
  8
255
 62
     7
  6
CONTINUOUS
 10
21.400000
 20
532.500000
 11
21.400000
 21
540.000000
  0
LINE
  8
255
 62
     7
  6
CONTINUOUS
 10
21.400000
 20
540.000000
 11
11.400000
 21
540.000000
  0
ARC
  8
255
 62
     7
  6
CONTINUOUS
 10
11.400000
 20
542.000000
 40
2.000000
 50
90.000000
 51
270.000000
  0
LINE
  8
255
 62
     7
  6
CONTINUOUS
 10
11.400000
 20
544.000000
 11
26.400000
 21
544.000000
  0
ARC
  8
255
 62
     7
  6
CONTINUOUS
 10
26.400000
 20
542.000000
 40
2.000000
 50
0.000000
 51
90.000000
  0
LINE
  8
255
 62
     7
  6
CONTINUOUS
 10
28.400000
 20
542.000000
 11
28.400000
 21
536.000000
  0
ARC
  8
255
 62
     7
  6
CONTINUOUS
 10
30.400000
 20
536.000000
 40
2.000000
 50
180.000000
 51
270.000000
  0
LINE
  8
255
 62
     7
  6
CONTINUOUS
 10
30.400000
 20
534.000000
 11
40.900000
 21
534.000000
  0
ARC
  8
255
 62
     7
  6
CONTINUOUS
 10
40.900000
 20
531.000000
 40
3.000000
 50
0.000000
 51
90.000000
  0
LINE
  8
255
 62
     7
  6
CONTINUOUS
 10
43.900000
 20
531.000000
 11
43.900000
 21
526.500000
  0
ARC
  8
255
 62
     7
  6
CONTINUOUS
 10
37.390913
 20
581.122224
 40
9.463085
 50
13.304951
 51
31.027741
  0
LINE
  8
255
 62
     7
  6
CONTINUOUS
 10
46.600000
 20
583.300000
 11
53.800000
 21
583.300000
  0
ARC
  8
255
 62
     7
  6
CONTINUOUS
 10
53.824210
 20
585.330632
 40
2.030776
 50
269.316933
 51
13.363451
  0
ARC
  8
255
 62
     7
  6
CONTINUOUS
 10
37.406639
 20
581.188680
 40
18.962594
 50
14.074292
 51
46.747870
  0
ARC
  8
255
 62
     7
  6
CONTINUOUS
 10
49.004760
 20
593.600611
 40
1.976104
 50
45.085070
 51
149.619689
  0
LINE
  8
255
 62
     7
  6
CONTINUOUS
 10
47.300000
 20
594.600000
 11
43.700000
 21
588.300000
  0
ARC
  8
255
 62
     7
  6
CONTINUOUS
 10
37.220003
 20
581.374351
 40
9.484460
 50
29.190064
 51
46.904021
  0
ARC
  8
255
 62
     7
  6
CONTINUOUS
 10
37.156449
 20
581.307406
 40
9.493680
 50
71.301569
 51
89.133617
  0
LINE
  8
255
 62
     7
  6
CONTINUOUS
 10
40.200000
 20
590.300000
 11
43.800000
 21
596.600000
  0
ARC
  8
255
 62
     7
  6
CONTINUOUS
 10
42.101824
 20
597.595582
 40
1.968498
 50
329.618362
 51
75.340507
  0
ARC
  8
255
 62
     7
  6
CONTINUOUS
 10
37.250000
 20
581.299937
 40
18.970103
 50
73.619036
 51
106.380964
  0
ARC
  8
255
 62
     7
  6
CONTINUOUS
 10
32.504598
 20
597.612049
 40
1.982397
 50
107.757166
 51
210.698324
  0
LINE
  8
255
 62
     7
  6
CONTINUOUS
 10
30.800000
 20
596.600000
 11
34.400000
 21
590.300000
  0
ARC
  8
255
 62
     7
  6
CONTINUOUS
 10
37.443551
 20
581.307406
 40
9.493680
 50
90.866383
 51
108.698431
  0
ARC
  8
255
 62
     7
  6
CONTINUOUS
 10
37.180823
 20
581.176711
 40
9.496840
 50
131.403618
 51
149.477047
  0
LINE
  8
255
 62
     7
  6
CONTINUOUS
 10
30.900000
 20
588.300000
 11
27.300000
 21
594.600000
  0
ARC
  8
255
 62
     7
  6
CONTINUOUS
 10
25.595240
 20
593.600611
 40
1.976104
 50
30.380311
 51
134.914930
  0
ARC
  8
255
 62
     7
  6
CONTINUOUS
 10
37.193361
 20
581.188680
 40
18.962594
 50
133.252130
 51
165.925708
  0
ARC
  8
255
 62
     7
  6
CONTINUOUS
 10
20.775790
 20
585.330632
 40
2.030776
 50
166.636549
 51
270.683067
  0
LINE
  8
255
 62
     7
  6
CONTINUOUS
 10
20.800000
 20
583.300000
 11
28.000000
 21
583.300000
  0
ARC
  8
255
 62
     7
  6
CONTINUOUS
 10
37.296988
 20
581.391856
 40
9.490785
 50
150.952225
 51
168.401501
  0
ARC
  8
255
 62
     7
  6
CONTINUOUS
 10
37.406807
 20
581.081003
 40
9.573922
 50
190.720981
 51
208.586667
  0
LINE
  8
255
 62
     7
  6
CONTINUOUS
 10
28.000000
 20
579.300000
 11
20.800000
 21
579.300000
  0
ARC
  8
255
 62
     7
  6
CONTINUOUS
 10
20.775790
 20
577.269368
 40
2.030776
 50
89.316933
 51
193.363451
  0
ARC
  8
255
 62
     7
  6
CONTINUOUS
 10
37.289504
 20
581.318099
 40
19.033522
 50
193.731714
 51
226.551057
  0
ARC
  8
255
 62
     7
  6
CONTINUOUS
 10
25.549631
 20
568.992285
 40
2.012068
 50
227.873617
 51
330.451076
  0
LINE
  8
255
 62
     7
  6
CONTINUOUS
 10
27.300000
 20
568.000000
 11
30.900000
 21
574.200000
  0
ARC
  8
255
 62
     7
  6
CONTINUOUS
 10
37.229975
 20
581.363893
 40
9.559809
 50
210.582970
 51
228.536366
  0
ARC
  8
255
 62
     7
  6
CONTINUOUS
 10
37.132155
 20
581.295620
 40
9.497104
 50
253.280713
 51
271.012660
  0
LINE
  8
255
 62
     7
  6
CONTINUOUS
 10
34.400000
 20
572.200000
 11
30.800000
 21
566.000000
  0
ARC
  8
255
 62
     7
  6
CONTINUOUS
 10
32.504598
 20
564.987951
 40
1.982397
 50
149.301676
 51
252.242834
  0
ARC
  8
255
 62
     7
  6
CONTINUOUS
 10
37.250000
 20
581.300063
 40
18.970103
 50
253.619036
 51
286.380964
  0
ARC
  8
255
 62
     7
  6
CONTINUOUS
 10
42.101824
 20
565.004418
 40
1.968498
 50
284.659493
 51
30.381638
  0
LINE
  8
255
 62
     7
  6
CONTINUOUS
 10
43.800000
 20
566.000000
 11
40.200000
 21
572.200000
  0
ARC
  8
255
 62
     7
  6
CONTINUOUS
 10
37.467845
 20
581.295620
 40
9.497104
 50
268.987340
 51
286.719287
  0
ARC
  8
255
 62
     7
  6
CONTINUOUS
 10
37.220003
 20
581.125649
 40
9.484460
 50
313.095979
 51
330.809936
  0
LINE
  8
255
 62
     7
  6
CONTINUOUS
 10
43.700000
 20
574.200000
 11
47.300000
 21
568.000000
  0
ARC
  8
255
 62
     7
  6
CONTINUOUS
 10
49.052896
 20
569.007958
 40
2.022035
 50
209.899938
 51
311.775369
  0
ARC
  8
255
 62
     7
  6
CONTINUOUS
 10
37.310496
 20
581.318099
 40
19.033522
 50
313.448943
 51
346.268286
  0
ARC
  8
255
 62
     7
  6
CONTINUOUS
 10
53.824210
 20
577.269368
 40
2.030776
 50
346.636549
 51
90.683067
  0
LINE
  8
255
 62
     7
  6
CONTINUOUS
 10
53.800000
 20
579.300000
 11
46.600000
 21
579.300000
  0
ARC
  8
255
 62
     7
  6
CONTINUOUS
 10
37.312704
 20
581.332509
 40
9.507101
 50
329.448991
 51
347.655536
  0
CIRCLE
  8
255
 62
     7
  6
CONTINUOUS
 10
37.300000
 20
581.300000
 40
5.500000
  0
ARC
  8
255
 62
     7
  6
CONTINUOUS
 10
37.300000
 20
581.300000
 40
25.500000
 50
270.000000
 51
180.000000
  0
ARC
  8
255
 62
     7
  6
CONTINUOUS
 10
37.368056
 20
581.313334
 40
25.513424
 50
224.913103
 51
269.847166
  0
ARC
  8
255
 62
     7
  6
CONTINUOUS
 10
37.313334
 20
581.368056
 40
25.513424
 50
180.152833
 51
225.086896
  0
ARC
  8
255
 62
     7
  6
CONTINUOUS
 10
41.393193
 20
636.818997
 40
9.573922
 50
10.720981
 51
28.586667
  0
LINE
  8
255
 62
     7
  6
CONTINUOUS
 10
50.800000
 20
638.600000
 11
58.100000
 21
638.600000
  0
ARC
  8
255
 62
     7
  6
CONTINUOUS
 10
58.086450
 20
640.582298
 40
1.982344
 50
270.391633
 51
15.138700
  0
ARC
  8
255
 62
     7
  6
CONTINUOUS
 10
41.510496
 20
636.581901
 40
19.033522
 50
13.731714
 51
46.551057
  0
ARC
  8
255
 62
     7
  6
CONTINUOUS
 10
53.250369
 20
648.907715
 40
2.012068
 50
47.873617
 51
150.451076
  0
LINE
  8
255
 62
     7
  6
CONTINUOUS
 10
51.500000
 20
649.900000
 11
47.900000
 21
643.600000
  0
ARC
  8
255
 62
     7
  6
CONTINUOUS
 10
41.687619
 20
636.314307
 40
9.574706
 50
32.083807
 51
49.546361
  0
ARC
  8
255
 62
     7
  6
CONTINUOUS
 10
41.356449
 20
636.607406
 40
9.493680
 50
71.301569
 51
89.133617
  0
LINE
  8
255
 62
     7
  6
CONTINUOUS
 10
44.400000
 20
645.600000
 11
48.100000
 21
651.900000
  0
ARC
  8
255
 62
     7
  6
CONTINUOUS
 10
46.316180
 20
652.860143
 40
2.025806
 50
331.708588
 51
73.250282
  0
ARC
  8
255
 62
     7
  6
CONTINUOUS
 10
41.550000
 20
636.599937
 40
18.970103
 50
73.619036
 51
106.380964
  0
ARC
  8
255
 62
     7
  6
CONTINUOUS
 10
36.698176
 20
652.895582
 40
1.968498
 50
104.659493
 51
210.381638
  0
LINE
  8
255
 62
     7
  6
CONTINUOUS
 10
35.000000
 20
651.900000
 11
38.600000
 21
645.600000
  0
ARC
  8
255
 62
     7
  6
CONTINUOUS
 10
41.643551
 20
636.607406
 40
9.493680
 50
90.866383
 51
108.698431
  0
ARC
  8
255
 62
     7
  6
CONTINUOUS
 10
41.305624
 20
636.406506
 40
9.435306
 50
130.323610
 51
148.046222
  0
LINE
  8
255
 62
     7
  6
CONTINUOUS
 10
35.200000
 20
643.600000
 11
31.500000
 21
649.900000
  0
ARC
  8
255
 62
     7
  6
CONTINUOUS
 10
29.747104
 20
648.892042
 40
2.022035
 50
29.899938
 51
131.775369
  0
ARC
  8
255
 62
     7
  6
CONTINUOUS
 10
41.607406
 20
636.712984
 40
19.020252
 50
133.978348
 51
166.664672
  0
ARC
  8
255
 62
     7
  6
CONTINUOUS
 10
25.013550
 20
640.582298
 40
1.982344
 50
164.861301
 51
269.608368
  0
LINE
  8
255
 62
     7
  6
CONTINUOUS
 10
25.000000
 20
638.600000
 11
32.200000
 21
638.600000
  0
ARC
  8
255
 62
     7
  6
CONTINUOUS
 10
41.487296
 20
636.567491
 40
9.507101
 50
149.448991
 51
167.655536
  0
ARC
  8
255
 62
     7
  6
CONTINUOUS
 10
41.409087
 20
636.777776
 40
9.463085
 50
193.304951
 51
211.027741
  0
LINE
  8
255
 62
     7
  6
CONTINUOUS
 10
32.200000
 20
634.600000
 11
25.000000
 21
634.600000
  0
ARC
  8
255
 62
     7
  6
CONTINUOUS
 10
25.013550
 20
632.617702
 40
1.982344
 50
90.391633
 51
195.138700
  0
ARC
  8
255
 62
     7
  6
CONTINUOUS
 10
41.607406
 20
636.487016
 40
19.020252
 50
193.335328
 51
226.021652
  0
ARC
  8
255
 62
     7
  6
CONTINUOUS
 10
29.749631
 20
624.292285
 40
2.012068
 50
227.873617
 51
330.451076
  0
LINE
  8
255
 62
     7
  6
CONTINUOUS
 10
31.500000
 20
623.300000
 11
35.200000
 21
629.600000
  0
ARC
  8
255
 62
     7
  6
CONTINUOUS
 10
41.421394
 20
636.674195
 40
9.420720
 50
210.449317
 51
228.670019
  0
ARC
  8
255
 62
     7
  6
CONTINUOUS
 10
41.643551
 20
636.592594
 40
9.493680
 50
251.301569
 51
269.133617
  0
LINE
  8
255
 62
     7
  6
CONTINUOUS
 10
38.600000
 20
627.600000
 11
35.000000
 21
621.300000
  0
ARC
  8
255
 62
     7
  6
CONTINUOUS
 10
36.698176
 20
620.304418
 40
1.968498
 50
149.618362
 51
255.340507
  0
ARC
  8
255
 62
     7
  6
CONTINUOUS
 10
41.550000
 20
636.600063
 40
18.970103
 50
253.619036
 51
286.380964
  0
ARC
  8
255
 62
     7
  6
CONTINUOUS
 10
46.316180
 20
620.339857
 40
2.025806
 50
286.749719
 51
28.291413
  0
LINE
  8
255
 62
     7
  6
CONTINUOUS
 10
48.100000
 20
621.300000
 11
44.400000
 21
627.600000
  0
ARC
  8
255
 62
     7
  6
CONTINUOUS
 10
41.356449
 20
636.592594
 40
9.493680
 50
270.866383
 51
288.698431
  0
ARC
  8
255
 62
     7
  6
CONTINUOUS
 10
41.619177
 20
636.723289
 40
9.496840
 50
311.403618
 51
329.477047
  0
LINE
  8
255
 62
     7
  6
CONTINUOUS
 10
47.900000
 20
629.600000
 11
51.500000
 21
623.300000
  0
ARC
  8
255
 62
     7
  6
CONTINUOUS
 10
53.252896
 20
624.307958
 40
2.022035
 50
209.899938
 51
311.775369
  0
ARC
  8
255
 62
     7
  6
CONTINUOUS
 10
41.510496
 20
636.618099
 40
19.033522
 50
313.448943
 51
346.268286
  0
ARC
  8
255
 62
     7
  6
CONTINUOUS
 10
58.086450
 20
632.617702
 40
1.982344
 50
344.861301
 51
89.608368
  0
LINE
  8
255
 62
     7
  6
CONTINUOUS
 10
58.100000
 20
634.600000
 11
50.800000
 21
634.600000
  0
ARC
  8
255
 62
     7
  6
CONTINUOUS
 10
41.503012
 20
636.508144
 40
9.490785
 50
330.952225
 51
348.401501
  0
CIRCLE
  8
255
 62
     7
  6
CONTINUOUS
 10
41.500000
 20
636.600000
 40
5.500000
  0
ARC
  8
255
 62
     7
  6
CONTINUOUS
 10
41.500000
 20
636.600000
 40
25.500000
 50
270.000000
 51
180.000000
  0
ARC
  8
255
 62
     7
  6
CONTINUOUS
 10
41.568056
 20
636.613334
 40
25.513424
 50
224.913103
 51
269.847166
  0
ARC
  8
255
 62
     7
  6
CONTINUOUS
 10
41.513334
 20
636.668056
 40
25.513424
 50
180.152833
 51
225.086896
  0
ARC
  8
255
 62
     7
  6
CONTINUOUS
 10
115.893193
 20
666.618997
 40
9.573922
 50
10.720981
 51
28.586667
  0
LINE
  8
255
 62
     7
  6
CONTINUOUS
 10
125.300000
 20
668.400000
 11
132.500000
 21
668.400000
  0
ARC
  8
255
 62
     7
  6
CONTINUOUS
 10
132.524210
 20
670.430632
 40
2.030776
 50
269.316933
 51
13.363451
  0
ARC
  8
255
 62
     7
  6
CONTINUOUS
 10
116.010496
 20
666.381901
 40
19.033522
 50
13.731714
 51
46.551057
  0
ARC
  8
255
 62
     7
  6
CONTINUOUS
 10
127.750369
 20
678.707715
 40
2.012068
 50
47.873617
 51
150.451076
  0
LINE
  8
255
 62
     7
  6
CONTINUOUS
 10
126.000000
 20
679.700000
 11
122.400000
 21
673.500000
  0
ARC
  8
255
 62
     7
  6
CONTINUOUS
 10
116.070025
 20
666.336107
 40
9.559809
 50
30.582970
 51
48.536366
  0
ARC
  8
255
 62
     7
  6
CONTINUOUS
 10
116.167845
 20
666.404380
 40
9.497104
 50
73.280713
 51
91.012660
  0
LINE
  8
255
 62
     7
  6
CONTINUOUS
 10
118.900000
 20
675.500000
 11
122.500000
 21
681.700000
  0
ARC
  8
255
 62
     7
  6
CONTINUOUS
 10
120.795402
 20
682.712049
 40
1.982397
 50
329.301676
 51
72.242834
  0
ARC
  8
255
 62
     7
  6
CONTINUOUS
 10
116.050000
 20
666.399937
 40
18.970103
 50
73.619036
 51
106.380964
  0
ARC
  8
255
 62
     7
  6
CONTINUOUS
 10
111.198176
 20
682.695582
 40
1.968498
 50
104.659493
 51
210.381638
  0
LINE
  8
255
 62
     7
  6
CONTINUOUS
 10
109.500000
 20
681.700000
 11
113.100000
 21
675.500000
  0
ARC
  8
255
 62
     7
  6
CONTINUOUS
 10
115.832155
 20
666.404380
 40
9.497104
 50
88.987340
 51
106.719287
  0
ARC
  8
255
 62
     7
  6
CONTINUOUS
 10
116.079997
 20
666.574351
 40
9.484460
 50
133.095979
 51
150.809936
  0
LINE
  8
255
 62
     7
  6
CONTINUOUS
 10
109.600000
 20
673.500000
 11
106.000000
 21
679.700000
  0
ARC
  8
255
 62
     7
  6
CONTINUOUS
 10
104.247104
 20
678.692042
 40
2.022035
 50
29.899938
 51
131.775369
  0
ARC
  8
255
 62
     7
  6
CONTINUOUS
 10
115.989504
 20
666.381901
 40
19.033522
 50
133.448943
 51
166.268286
  0
ARC
  8
255
 62
     7
  6
CONTINUOUS
 10
99.475790
 20
670.430632
 40
2.030776
 50
166.636549
 51
270.683067
  0
LINE
  8
255
 62
     7
  6
CONTINUOUS
 10
99.500000
 20
668.400000
 11
106.700000
 21
668.400000
  0
ARC
  8
255
 62
     7
  6
CONTINUOUS
 10
115.987296
 20
666.367491
 40
9.507101
 50
149.448991
 51
167.655536
  0
ARC
  8
255
 62
     7
  6
CONTINUOUS
 10
115.909087
 20
666.577776
 40
9.463085
 50
193.304951
 51
211.027741
  0
LINE
  8
255
 62
     7
  6
CONTINUOUS
 10
106.700000
 20
664.400000
 11
99.500000
 21
664.400000
  0
ARC
  8
255
 62
     7
  6
CONTINUOUS
 10
99.475790
 20
662.369368
 40
2.030776
 50
89.316933
 51
193.363451
  0
ARC
  8
255
 62
     7
  6
CONTINUOUS
 10
115.893361
 20
666.511320
 40
18.962594
 50
194.074292
 51
226.747870
  0
ARC
  8
255
 62
     7
  6
CONTINUOUS
 10
104.295240
 20
654.099389
 40
1.976104
 50
225.085070
 51
329.619689
  0
LINE
  8
255
 62
     7
  6
CONTINUOUS
 10
106.000000
 20
653.100000
 11
109.600000
 21
659.400000
  0
ARC
  8
255
 62
     7
  6
CONTINUOUS
 10
116.079997
 20
666.325649
 40
9.484460
 50
209.190064
 51
226.904021
  0
ARC
  8
255
 62
     7
  6
CONTINUOUS
 10
116.143551
 20
666.392594
 40
9.493680
 50
251.301569
 51
269.133617
  0
LINE
  8
255
 62
     7
  6
CONTINUOUS
 10
113.100000
 20
657.400000
 11
109.500000
 21
651.100000
  0
ARC
  8
255
 62
     7
  6
CONTINUOUS
 10
111.198176
 20
650.104418
 40
1.968498
 50
149.618362
 51
255.340507
  0
ARC
  8
255
 62
     7
  6
CONTINUOUS
 10
116.050000
 20
666.400063
 40
18.970103
 50
253.619036
 51
286.380964
  0
ARC
  8
255
 62
     7
  6
CONTINUOUS
 10
120.795402
 20
650.087951
 40
1.982397
 50
287.757166
 51
30.698324
  0
LINE
  8
255
 62
     7
  6
CONTINUOUS
 10
122.500000
 20
651.100000
 11
118.900000
 21
657.400000
  0
ARC
  8
255
 62
     7
  6
CONTINUOUS
 10
115.856449
 20
666.392594
 40
9.493680
 50
270.866383
 51
288.698431
  0
ARC
  8
255
 62
     7
  6
CONTINUOUS
 10
116.119177
 20
666.523289
 40
9.496840
 50
311.403618
 51
329.477047
  0
LINE
  8
255
 62
     7
  6
CONTINUOUS
 10
122.400000
 20
659.400000
 11
126.000000
 21
653.100000
  0
ARC
  8
255
 62
     7
  6
CONTINUOUS
 10
127.704760
 20
654.099389
 40
1.976104
 50
210.380311
 51
314.914930
  0
ARC
  8
255
 62
     7
  6
CONTINUOUS
 10
116.106639
 20
666.511320
 40
18.962594
 50
313.252130
 51
345.925708
  0
ARC
  8
255
 62
     7
  6
CONTINUOUS
 10
132.524210
 20
662.369368
 40
2.030776
 50
346.636549
 51
90.683067
  0
LINE
  8
255
 62
     7
  6
CONTINUOUS
 10
132.500000
 20
664.400000
 11
125.300000
 21
664.400000
  0
ARC
  8
255
 62
     7
  6
CONTINUOUS
 10
116.003012
 20
666.308144
 40
9.490785
 50
330.952225
 51
348.401501
  0
CIRCLE
  8
255
 62
     7
  6
CONTINUOUS
 10
116.000000
 20
666.400000
 40
5.500000
  0
ARC
  8
255
 62
     7
  6
CONTINUOUS
 10
116.000000
 20
666.400000
 40
25.500000
 50
270.000000
 51
180.000000
  0
ARC
  8
255
 62
     7
  6
CONTINUOUS
 10
116.068056
 20
666.413334
 40
25.513424
 50
224.913103
 51
269.847166
  0
ARC
  8
255
 62
     7
  6
CONTINUOUS
 10
116.013334
 20
666.468056
 40
25.513424
 50
180.152833
 51
225.086896
  0
ARC
  8
255
 62
     7
  6
CONTINUOUS
 10
103.193193
 20
605.418997
 40
9.573922
 50
10.720981
 51
28.586667
  0
LINE
  8
255
 62
     7
  6
CONTINUOUS
 10
112.600000
 20
607.200000
 11
122.900000
 21
607.200000
  0
ARC
  8
255
 62
     7
  6
CONTINUOUS
 10
122.916314
 20
609.219738
 40
2.019804
 50
269.537205
 51
10.851653
  0
ARC
  8
255
 62
     7
  6
CONTINUOUS
 10
103.309128
 20
605.184207
 40
22.037808
 50
11.558803
 51
48.541024
  0
ARC
  8
255
 62
     7
  6
CONTINUOUS
 10
116.608110
 20
620.201341
 40
1.978626
 50
49.237660
 51
149.686985
  0
LINE
  8
255
 62
     7
  6
CONTINUOUS
 10
114.900000
 20
621.200000
 11
109.700000
 21
612.300000
  0
ARC
  8
255
 62
     7
  6
CONTINUOUS
 10
103.370025
 20
605.136107
 40
9.559809
 50
30.582970
 51
48.536366
  0
ARC
  8
255
 62
     7
  6
CONTINUOUS
 10
103.560688
 20
605.205159
 40
9.498419
 50
73.238010
 51
91.572703
  0
LINE
  8
255
 62
     7
  6
CONTINUOUS
 10
106.300000
 20
614.300000
 11
111.400000
 21
623.200000
  0
ARC
  8
255
 62
     7
  6
CONTINUOUS
 10
109.695402
 20
624.212049
 40
1.982397
 50
329.301676
 51
72.242834
  0
ARC
  8
255
 62
     7
  6
CONTINUOUS
 10
103.350000
 20
605.199946
 40
22.025321
 50
71.606227
 51
108.393774
  0
ARC
  8
255
 62
     7
  6
CONTINUOUS
 10
97.004598
 20
624.212049
 40
1.982397
 50
107.757166
 51
210.698324
  0
LINE
  8
255
 62
     7
  6
CONTINUOUS
 10
95.300000
 20
623.200000
 11
100.400000
 21
614.300000
  0
ARC
  8
255
 62
     7
  6
CONTINUOUS
 10
103.132155
 20
605.204380
 40
9.497104
 50
88.987340
 51
106.719287
  0
ARC
  8
255
 62
     7
  6
CONTINUOUS
 10
103.280823
 20
605.176711
 40
9.496840
 50
131.403618
 51
149.477047
  0
LINE
  8
255
 62
     7
  6
CONTINUOUS
 10
97.000000
 20
612.300000
 11
91.800000
 21
621.200000
  0
ARC
  8
255
 62
     7
  6
CONTINUOUS
 10
90.091890
 20
620.201341
 40
1.978626
 50
30.313016
 51
130.762341
  0
ARC
  8
255
 62
     7
  6
CONTINUOUS
 10
103.315960
 20
605.227544
 40
21.955749
 50
131.387347
 51
168.512825
  0
ARC
  8
255
 62
     7
  6
CONTINUOUS
 10
83.723496
 20
609.170684
 40
1.970824
 50
167.418062
 51
269.316908
  0
LINE
  8
255
 62
     7
  6
CONTINUOUS
 10
83.700000
 20
607.200000
 11
94.100000
 21
607.200000
  0
ARC
  8
255
 62
     7
  6
CONTINUOUS
 10
103.386506
 20
605.461962
 40
9.447749
 50
151.293040
 51
169.399312
  0
ARC
  8
255
 62
     7
  6
CONTINUOUS
 10
103.309080
 20
605.075585
 40
9.398137
 50
191.511809
 51
209.134464
  0
LINE
  8
255
 62
     7
  6
CONTINUOUS
 10
94.100000
 20
603.200000
 11
83.700000
 21
603.200000
  0
ARC
  8
255
 62
     7
  6
CONTINUOUS
 10
83.723496
 20
601.229316
 40
1.970824
 50
90.683091
 51
192.581937
  0
ARC
  8
255
 62
     7
  6
CONTINUOUS
 10
103.300000
 20
605.300000
 40
21.965883
 50
191.821488
 51
228.691386
  0
ARC
  8
255
 62
     7
  6
CONTINUOUS
 10
90.091890
 20
590.298659
 40
1.978626
 50
229.237660
 51
329.686985
  0
LINE
  8
255
 62
     7
  6
CONTINUOUS
 10
91.800000
 20
589.300000
 11
97.000000
 21
598.200000
  0
ARC
  8
255
 62
     7
  6
CONTINUOUS
 10
103.221394
 20
605.274195
 40
9.420720
 50
210.449317
 51
228.670019
  0
ARC
  8
255
 62
     7
  6
CONTINUOUS
 10
103.443551
 20
605.192594
 40
9.493680
 50
251.301569
 51
269.133617
  0
LINE
  8
255
 62
     7
  6
CONTINUOUS
 10
100.400000
 20
596.200000
 11
95.300000
 21
587.300000
  0
ARC
  8
255
 62
     7
  6
CONTINUOUS
 10
97.004598
 20
586.287951
 40
1.982397
 50
149.301676
 51
252.242834
  0
ARC
  8
255
 62
     7
  6
CONTINUOUS
 10
103.350000
 20
605.200054
 40
21.930453
 50
251.523787
 51
288.476213
  0
ARC
  8
255
 62
     7
  6
CONTINUOUS
 10
109.695402
 20
586.287951
 40
1.982397
 50
287.757166
 51
30.698324
  0
LINE
  8
255
 62
     7
  6
CONTINUOUS
 10
111.400000
 20
587.300000
 11
106.300000
 21
596.200000
  0
ARC
  8
255
 62
     7
  6
CONTINUOUS
 10
103.259445
 20
605.193330
 40
9.493416
 50
270.244763
 51
288.679882
  0
ARC
  8
255
 62
     7
  6
CONTINUOUS
 10
103.419177
 20
605.323289
 40
9.496840
 50
311.403618
 51
329.477047
  0
LINE
  8
255
 62
     7
  6
CONTINUOUS
 10
109.700000
 20
598.200000
 11
114.900000
 21
589.300000
  0
ARC
  8
255
 62
     7
  6
CONTINUOUS
 10
116.608110
 20
590.298659
 40
1.978626
 50
210.313016
 51
310.762341
  0
ARC
  8
255
 62
     7
  6
CONTINUOUS
 10
103.400000
 20
605.300000
 40
21.965883
 50
311.308614
 51
348.178512
  0
ARC
  8
255
 62
     7
  6
CONTINUOUS
 10
122.916314
 20
601.180262
 40
2.019804
 50
349.148347
 51
90.462795
  0
LINE
  8
255
 62
     7
  6
CONTINUOUS
 10
122.900000
 20
603.200000
 11
112.600000
 21
603.200000
  0
ARC
  8
255
 62
     7
  6
CONTINUOUS
 10
103.303012
 20
605.108144
 40
9.490785
 50
330.952225
 51
348.401501
  0
CIRCLE
  8
255
 62
     7
  6
CONTINUOUS
 10
103.300000
 20
605.200000
 40
5.500000
  0
ARC
  8
255
 62
     7
  6
CONTINUOUS
 10
103.300000
 20
605.200000
 40
28.500000
 50
270.000000
 51
180.000000
  0
ARC
  8
255
 62
     7
  6
CONTINUOUS
 10
103.404447
 20
605.198142
 40
28.498333
 50
224.848873
 51
269.790009
  0
ARC
  8
255
 62
     7
  6
CONTINUOUS
 10
103.298142
 20
605.304447
 40
28.498333
 50
180.209992
 51
225.151128
  0
ARC
  8
255
 62
     7
  6
CONTINUOUS
 10
90.812704
 20
539.767491
 40
9.507101
 50
12.344464
 51
30.551009
  0
LINE
  8
255
 62
     7
  6
CONTINUOUS
 10
100.100000
 20
541.800000
 11
110.400000
 21
541.800000
  0
ARC
  8
255
 62
     7
  6
CONTINUOUS
 10
110.376504
 20
543.770684
 40
1.970824
 50
270.683091
 51
12.581937
  0
ARC
  8
255
 62
     7
  6
CONTINUOUS
 10
90.700000
 20
539.900000
 40
22.023851
 50
11.258912
 51
48.128810
  0
ARC
  8
255
 62
     7
  6
CONTINUOUS
 10
104.050369
 20
554.807715
 40
2.012068
 50
47.873617
 51
150.451076
  0
LINE
  8
255
 62
     7
  6
CONTINUOUS
 10
102.300000
 20
555.800000
 11
97.100000
 21
546.900000
  0
ARC
  8
255
 62
     7
  6
CONTINUOUS
 10
90.819177
 20
539.776711
 40
9.496840
 50
30.522953
 51
48.596382
  0
ARC
  8
255
 62
     7
  6
CONTINUOUS
 10
90.967845
 20
539.804380
 40
9.497104
 50
73.280713
 51
91.012660
  0
LINE
  8
255
 62
     7
  6
CONTINUOUS
 10
93.700000
 20
548.900000
 11
98.800000
 21
557.800000
  0
ARC
  8
255
 62
     7
  6
CONTINUOUS
 10
97.095402
 20
558.812049
 40
1.982397
 50
329.301676
 51
72.242834
  0
ARC
  8
255
 62
     7
  6
CONTINUOUS
 10
90.750000
 20
539.799946
 40
22.025321
 50
71.606227
 51
108.393774
  0
ARC
  8
255
 62
     7
  6
CONTINUOUS
 10
84.404598
 20
558.812049
 40
1.982397
 50
107.757166
 51
210.698324
  0
LINE
  8
255
 62
     7
  6
CONTINUOUS
 10
82.700000
 20
557.800000
 11
87.900000
 21
548.900000
  0
ARC
  8
255
 62
     7
  6
CONTINUOUS
 10
90.632155
 20
539.804380
 40
9.497104
 50
88.987340
 51
106.719287
  0
ARC
  8
255
 62
     7
  6
CONTINUOUS
 10
90.729975
 20
539.736107
 40
9.559809
 50
131.463634
 51
149.417030
  0
LINE
  8
255
 62
     7
  6
CONTINUOUS
 10
84.400000
 20
546.900000
 11
79.200000
 21
555.800000
  0
ARC
  8
255
 62
     7
  6
CONTINUOUS
 10
77.491890
 20
554.801341
 40
1.978626
 50
30.313016
 51
130.762341
  0
ARC
  8
255
 62
     7
  6
CONTINUOUS
 10
90.790872
 20
539.784207
 40
22.037808
 50
131.458976
 51
168.441197
  0
ARC
  8
255
 62
     7
  6
CONTINUOUS
 10
71.183686
 20
543.819738
 40
2.019804
 50
169.148347
 51
270.462795
  0
LINE
  8
255
 62
     7
  6
CONTINUOUS
 10
71.200000
 20
541.800000
 11
81.500000
 21
541.800000
  0
ARC
  8
255
 62
     7
  6
CONTINUOUS
 10
90.906807
 20
540.018997
 40
9.573922
 50
151.413333
 51
169.279019
  0
ARC
  8
255
 62
     7
  6
CONTINUOUS
 10
90.796988
 20
539.708144
 40
9.490785
 50
191.598499
 51
209.047775
  0
LINE
  8
255
 62
     7
  6
CONTINUOUS
 10
81.500000
 20
537.800000
 11
71.200000
 21
537.800000
  0
ARC
  8
255
 62
     7
  6
CONTINUOUS
 10
71.183686
 20
535.780262
 40
2.019804
 50
89.537205
 51
190.851653
  0
ARC
  8
255
 62
     7
  6
CONTINUOUS
 10
90.790872
 20
539.815793
 40
22.037808
 50
191.558803
 51
228.541024
  0
ARC
  8
255
 62
     7
  6
CONTINUOUS
 10
77.491890
 20
524.798659
 40
1.978626
 50
229.237660
 51
329.686985
  0
LINE
  8
255
 62
     7
  6
CONTINUOUS
 10
79.200000
 20
523.800000
 11
84.400000
 21
532.800000
  0
ARC
  8
255
 62
     7
  6
CONTINUOUS
 10
90.680823
 20
539.923289
 40
9.496840
 50
210.522953
 51
228.596382
  0
ARC
  8
255
 62
     7
  6
CONTINUOUS
 10
90.943551
 20
539.792594
 40
9.493680
 50
251.301569
 51
269.133617
  0
LINE
  8
255
 62
     7
  6
CONTINUOUS
 10
87.900000
 20
530.800000
 11
82.700000
 21
521.800000
  0
ARC
  8
255
 62
     7
  6
CONTINUOUS
 10
84.404598
 20
520.787951
 40
1.982397
 50
149.301676
 51
252.242834
  0
ARC
  8
255
 62
     7
  6
CONTINUOUS
 10
90.750000
 20
539.800054
 40
22.025321
 50
251.606227
 51
288.393774
  0
ARC
  8
255
 62
     7
  6
CONTINUOUS
 10
97.095402
 20
520.787951
 40
1.982397
 50
287.757166
 51
30.698324
  0
LINE
  8
255
 62
     7
  6
CONTINUOUS
 10
98.800000
 20
521.800000
 11
93.700000
 21
530.800000
  0
ARC
  8
255
 62
     7
  6
CONTINUOUS
 10
90.656449
 20
539.792594
 40
9.493680
 50
270.866383
 51
288.698431
  0
ARC
  8
255
 62
     7
  6
CONTINUOUS
 10
90.878606
 20
539.874195
 40
9.420720
 50
311.329981
 51
329.550683
  0
LINE
  8
255
 62
     7
  6
CONTINUOUS
 10
97.100000
 20
532.800000
 11
102.300000
 21
523.800000
  0
ARC
  8
255
 62
     7
  6
CONTINUOUS
 10
104.052896
 20
524.807958
 40
2.022035
 50
209.899938
 51
311.775369
  0
ARC
  8
255
 62
     7
  6
CONTINUOUS
 10
90.700000
 20
539.700000
 40
22.023851
 50
311.871190
 51
348.741088
  0
ARC
  8
255
 62
     7
  6
CONTINUOUS
 10
110.376504
 20
535.829316
 40
1.970824
 50
347.418062
 51
89.316908
  0
LINE
  8
255
 62
     7
  6
CONTINUOUS
 10
110.400000
 20
537.800000
 11
100.100000
 21
537.800000
  0
ARC
  8
255
 62
     7
  6
CONTINUOUS
 10
90.890913
 20
539.977776
 40
9.463085
 50
328.972259
 51
346.695049
  0
CIRCLE
  8
255
 62
     7
  6
CONTINUOUS
 10
90.800000
 20
539.800000
 40
5.500000
  0
CIRCLE
  8
255
 62
     7
  6
CONTINUOUS
 10
90.800000
 20
539.800000
 40
28.500000
  0
ARC
  8
255
 62
     7
  6
CONTINUOUS
 10
158.712704
 20
539.767491
 40
9.507101
 50
12.344464
 51
30.551009
  0
LINE
  8
255
 62
     7
  6
CONTINUOUS
 10
168.000000
 20
541.800000
 11
178.300000
 21
541.800000
  0
ARC
  8
255
 62
     7
  6
CONTINUOUS
 10
178.316314
 20
543.819738
 40
2.019804
 50
269.537205
 51
10.851653
  0
ARC
  8
255
 62
     7
  6
CONTINUOUS
 10
158.709128
 20
539.784207
 40
22.037808
 50
11.558803
 51
48.541024
  0
ARC
  8
255
 62
     7
  6
CONTINUOUS
 10
171.950369
 20
554.807715
 40
2.012068
 50
47.873617
 51
150.451076
  0
LINE
  8
255
 62
     7
  6
CONTINUOUS
 10
170.200000
 20
555.800000
 11
165.100000
 21
546.900000
  0
ARC
  8
255
 62
     7
  6
CONTINUOUS
 10
158.571425
 20
539.936333
 40
9.545415
 50
29.247073
 51
46.847011
  0
ARC
  8
255
 62
     7
  6
CONTINUOUS
 10
158.867845
 20
539.804380
 40
9.497104
 50
73.280713
 51
91.012660
  0
LINE
  8
255
 62
     7
  6
CONTINUOUS
 10
161.600000
 20
548.900000
 11
166.800000
 21
557.800000
  0
ARC
  8
255
 62
     7
  6
CONTINUOUS
 10
165.007928
 20
558.778869
 40
2.041986
 50
331.355653
 51
70.188856
  0
ARC
  8
255
 62
     7
  6
CONTINUOUS
 10
158.700000
 20
539.800000
 40
22.041098
 50
71.482848
 51
108.517152
  0
ARC
  8
255
 62
     7
  6
CONTINUOUS
 10
152.392072
 20
558.778869
 40
2.041986
 50
109.811144
 51
208.644347
  0
LINE
  8
255
 62
     7
  6
CONTINUOUS
 10
150.600000
 20
557.800000
 11
155.800000
 21
548.900000
  0
ARC
  8
255
 62
     7
  6
CONTINUOUS
 10
158.532155
 20
539.804380
 40
9.497104
 50
88.987340
 51
106.719287
  0
ARC
  8
255
 62
     7
  6
CONTINUOUS
 10
158.779997
 20
539.974351
 40
9.484460
 50
133.095979
 51
150.809936
  0
LINE
  8
255
 62
     7
  6
CONTINUOUS
 10
152.300000
 20
546.900000
 11
147.200000
 21
555.800000
  0
ARC
  8
255
 62
     7
  6
CONTINUOUS
 10
145.447104
 20
554.792042
 40
2.022035
 50
29.899938
 51
131.775369
  0
ARC
  8
255
 62
     7
  6
CONTINUOUS
 10
158.690872
 20
539.784207
 40
22.037808
 50
131.458976
 51
168.441197
  0
ARC
  8
255
 62
     7
  6
CONTINUOUS
 10
139.083686
 20
543.819738
 40
2.019804
 50
169.148347
 51
270.462795
  0
LINE
  8
255
 62
     7
  6
CONTINUOUS
 10
139.100000
 20
541.800000
 11
149.400000
 21
541.800000
  0
ARC
  8
255
 62
     7
  6
CONTINUOUS
 10
158.687296
 20
539.767491
 40
9.507101
 50
149.448991
 51
167.655536
  0
ARC
  8
255
 62
     7
  6
CONTINUOUS
 10
158.609087
 20
539.977776
 40
9.463085
 50
193.304951
 51
211.027741
  0
LINE
  8
255
 62
     7
  6
CONTINUOUS
 10
149.400000
 20
537.800000
 11
139.100000
 21
537.800000
  0
ARC
  8
255
 62
     7
  6
CONTINUOUS
 10
139.083686
 20
535.780262
 40
2.019804
 50
89.537205
 51
190.851653
  0
ARC
  8
255
 62
     7
  6
CONTINUOUS
 10
158.690872
 20
539.815793
 40
22.037808
 50
191.558803
 51
228.541024
  0
ARC
  8
255
 62
     7
  6
CONTINUOUS
 10
145.449631
 20
524.792285
 40
2.012068
 50
227.873617
 51
330.451076
  0
LINE
  8
255
 62
     7
  6
CONTINUOUS
 10
147.200000
 20
523.800000
 11
152.300000
 21
532.800000
  0
ARC
  8
255
 62
     7
  6
CONTINUOUS
 10
158.779997
 20
539.725649
 40
9.484460
 50
209.190064
 51
226.904021
  0
ARC
  8
255
 62
     7
  6
CONTINUOUS
 10
158.843551
 20
539.792594
 40
9.493680
 50
251.301569
 51
269.133617
  0
LINE
  8
255
 62
     7
  6
CONTINUOUS
 10
155.800000
 20
530.800000
 11
150.600000
 21
521.800000
  0
ARC
  8
255
 62
     7
  6
CONTINUOUS
 10
152.392072
 20
520.821131
 40
2.041986
 50
151.355653
 51
250.188856
  0
ARC
  8
255
 62
     7
  6
CONTINUOUS
 10
158.700000
 20
539.800000
 40
22.041098
 50
251.482848
 51
288.517152
  0
ARC
  8
255
 62
     7
  6
CONTINUOUS
 10
165.007928
 20
520.821131
 40
2.041986
 50
289.811144
 51
28.644347
  0
LINE
  8
255
 62
     7
  6
CONTINUOUS
 10
166.800000
 20
521.800000
 11
161.600000
 21
530.800000
  0
ARC
  8
255
 62
     7
  6
CONTINUOUS
 10
158.556449
 20
539.792594
 40
9.493680
 50
270.866383
 51
288.698431
  0
ARC
  8
255
 62
     7
  6
CONTINUOUS
 10
158.620003
 20
539.725649
 40
9.484460
 50
313.095979
 51
330.809936
  0
LINE
  8
255
 62
     7
  6
CONTINUOUS
 10
165.100000
 20
532.800000
 11
170.200000
 21
523.800000
  0
ARC
  8
255
 62
     7
  6
CONTINUOUS
 10
171.952896
 20
524.807958
 40
2.022035
 50
209.899938
 51
311.775369
  0
ARC
  8
255
 62
     7
  6
CONTINUOUS
 10
158.709128
 20
539.815793
 40
22.037808
 50
311.458976
 51
348.441197
  0
ARC
  8
255
 62
     7
  6
CONTINUOUS
 10
178.316314
 20
535.780262
 40
2.019804
 50
349.148347
 51
90.462795
  0
LINE
  8
255
 62
     7
  6
CONTINUOUS
 10
178.300000
 20
537.800000
 11
168.000000
 21
537.800000
  0
ARC
  8
255
 62
     7
  6
CONTINUOUS
 10
158.790913
 20
539.977776
 40
9.463085
 50
328.972259
 51
346.695049
  0
CIRCLE
  8
255
 62
     7
  6
CONTINUOUS
 10
158.700000
 20
539.800000
 40
5.500000
  0
CIRCLE
  8
255
 62
     7
  6
CONTINUOUS
 10
158.700000
 20
539.800000
 40
28.500000
  0
LINE
  8
255
 62
     7
  6
CONTINUOUS
 10
194.000000
 20
495.300000
 11
204.000000
 21
495.300000
  0
ARC
  8
255
 62
     7
  6
CONTINUOUS
 10
204.000000
 20
493.300000
 40
2.000000
 50
0.000000
 51
90.000000
  0
LINE
  8
255
 62
     7
  6
CONTINUOUS
 10
206.000000
 20
493.300000
 11
206.000000
 21
491.800000
  0
ARC
  8
255
 62
     7
  6
CONTINUOUS
 10
204.000000
 20
491.800000
 40
2.000000
 50
270.000000
 51
0.000000
  0
LINE
  8
255
 62
     7
  6
CONTINUOUS
 10
204.000000
 20
489.800000
 11
191.000000
 21
489.800000
  0
LINE
  8
255
 62
     7
  6
CONTINUOUS
 10
191.000000
 20
489.800000
 11
191.000000
 21
436.800000
  0
LINE
  8
255
 62
     7
  6
CONTINUOUS
 10
191.000000
 20
436.800000
 11
204.000000
 21
436.800000
  0
ARC
  8
255
 62
     7
  6
CONTINUOUS
 10
204.000000
 20
434.800000
 40
2.000000
 50
0.000000
 51
90.000000
  0
LINE
  8
255
 62
     7
  6
CONTINUOUS
 10
206.000000
 20
434.800000
 11
206.000000
 21
433.300000
  0
ARC
  8
255
 62
     7
  6
CONTINUOUS
 10
204.000000
 20
433.300000
 40
2.000000
 50
270.000000
 51
0.000000
  0
LINE
  8
255
 62
     7
  6
CONTINUOUS
 10
204.000000
 20
431.300000
 11
194.000000
 21
431.300000
  0
LINE
  8
255
 62
     7
  6
CONTINUOUS
 10
194.000000
 20
431.300000
 11
194.000000
 21
424.800000
  0
LINE
  8
255
 62
     7
  6
CONTINUOUS
 10
194.000000
 20
424.800000
 11
204.000000
 21
424.800000
  0
ARC
  8
255
 62
     7
  6
CONTINUOUS
 10
204.000000
 20
422.800000
 40
2.000000
 50
270.000000
 51
90.000000
  0
LINE
  8
255
 62
     7
  6
CONTINUOUS
 10
204.000000
 20
420.800000
 11
188.000000
 21
420.800000
  0
ARC
  8
255
 62
     7
  6
CONTINUOUS
 10
188.000000
 20
422.800000
 40
2.000000
 50
180.000000
 51
270.000000
  0
LINE
  8
255
 62
     7
  6
CONTINUOUS
 10
186.000000
 20
422.800000
 11
186.000000
 21
429.300000
  0
ARC
  8
255
 62
     7
  6
CONTINUOUS
 10
184.000000
 20
429.300000
 40
2.000000
 50
0.000000
 51
90.000000
  0
LINE
  8
255
 62
     7
  6
CONTINUOUS
 10
184.000000
 20
431.300000
 11
175.000000
 21
431.300000
  0
ARC
  8
255
 62
     7
  6
CONTINUOUS
 10
175.000000
 20
433.300000
 40
2.000000
 50
180.000000
 51
270.000000
  0
LINE
  8
255
 62
     7
  6
CONTINUOUS
 10
173.000000
 20
433.300000
 11
173.000000
 21
436.800000
  0
LINE
  8
255
 62
     7
  6
CONTINUOUS
 10
173.000000
 20
436.800000
 11
176.500000
 21
436.800000
  0
ARC
  8
255
 62
     7
  6
CONTINUOUS
 10
176.500000
 20
438.300000
 40
1.500000
 50
270.000000
 51
90.000000
  0
LINE
  8
255
 62
     7
  6
CONTINUOUS
 10
176.500000
 20
439.800000
 11
173.000000
 21
439.800000
  0
LINE
  8
255
 62
     7
  6
CONTINUOUS
 10
173.000000
 20
439.800000
 11
173.000000
 21
486.800000
  0
LINE
  8
255
 62
     7
  6
CONTINUOUS
 10
173.000000
 20
486.800000
 11
176.500000
 21
486.800000
  0
ARC
  8
255
 62
     7
  6
CONTINUOUS
 10
176.500000
 20
488.300000
 40
1.500000
 50
270.000000
 51
90.000000
  0
LINE
  8
255
 62
     7
  6
CONTINUOUS
 10
176.500000
 20
489.800000
 11
173.000000
 21
489.800000
  0
LINE
  8
255
 62
     7
  6
CONTINUOUS
 10
173.000000
 20
489.800000
 11
173.000000
 21
493.300000
  0
ARC
  8
255
 62
     7
  6
CONTINUOUS
 10
175.000000
 20
493.300000
 40
2.000000
 50
90.000000
 51
180.000000
  0
LINE
  8
255
 62
     7
  6
CONTINUOUS
 10
175.000000
 20
495.300000
 11
184.000000
 21
495.300000
  0
ARC
  8
255
 62
     7
  6
CONTINUOUS
 10
184.000000
 20
497.300000
 40
2.000000
 50
270.000000
 51
0.000000
  0
LINE
  8
255
 62
     7
  6
CONTINUOUS
 10
186.000000
 20
497.300000
 11
186.000000
 21
503.800000
  0
ARC
  8
255
 62
     7
  6
CONTINUOUS
 10
188.000000
 20
503.800000
 40
2.000000
 50
90.000000
 51
180.000000
  0
LINE
  8
255
 62
     7
  6
CONTINUOUS
 10
188.000000
 20
505.800000
 11
204.000000
 21
505.800000
  0
ARC
  8
255
 62
     7
  6
CONTINUOUS
 10
204.000000
 20
503.800000
 40
2.000000
 50
270.000000
 51
90.000000
  0
LINE
  8
255
 62
     7
  6
CONTINUOUS
 10
204.000000
 20
501.800000
 11
194.000000
 21
501.800000
  0
LINE
  8
255
 62
     7
  6
CONTINUOUS
 10
194.000000
 20
501.800000
 11
194.000000
 21
495.300000
  0
LINE
  8
255
 62
     7
  6
CONTINUOUS
 10
125.300000
 20
489.400000
 11
125.300000
 21
494.400000
  0
LINE
  8
255
 62
     7
  6
CONTINUOUS
 10
125.300000
 20
494.400000
 11
96.300000
 21
494.400000
  0
LINE
  8
255
 62
     7
  6
CONTINUOUS
 10
96.300000
 20
494.400000
 11
96.300000
 21
489.400000
  0
LINE
  8
255
 62
     7
  6
CONTINUOUS
 10
96.300000
 20
489.400000
 11
125.300000
 21
489.400000
  0
LINE
  8
255
 62
     7
  6
CONTINUOUS
 10
137.300000
 20
438.400000
 11
137.300000
 21
463.900000
  0
ARC
  8
255
 62
     7
  6
CONTINUOUS
 10
135.800000
 20
463.900000
 40
1.500000
 50
0.000000
 51
180.000000
  0
LINE
  8
255
 62
     7
  6
CONTINUOUS
 10
134.300000
 20
463.900000
 11
134.300000
 21
438.400000
  0
LINE
  8
255
 62
     7
  6
CONTINUOUS
 10
134.300000
 20
438.400000
 11
87.300000
 21
438.400000
  0
LINE
  8
255
 62
     7
  6
CONTINUOUS
 10
87.300000
 20
438.400000
 11
87.300000
 21
463.900000
  0
ARC
  8
255
 62
     7
  6
CONTINUOUS
 10
85.800000
 20
463.900000
 40
1.500000
 50
0.000000
 51
180.000000
  0
LINE
  8
255
 62
     7
  6
CONTINUOUS
 10
84.300000
 20
463.900000
 11
84.300000
 21
438.400000
  0
LINE
  8
255
 62
     7
  6
CONTINUOUS
 10
84.300000
 20
438.400000
 11
67.800000
 21
438.400000
  0
ARC
  8
255
 62
     7
  6
CONTINUOUS
 10
67.800000
 20
441.400000
 40
3.000000
 50
180.000000
 51
270.000000
  0
LINE
  8
255
 62
     7
  6
CONTINUOUS
 10
64.800000
 20
441.400000
 11
64.800000
 21
476.400000
  0
ARC
  8
255
 62
     7
  6
CONTINUOUS
 10
67.800000
 20
476.400000
 40
3.000000
 50
90.000000
 51
180.000000
  0
LINE
  8
255
 62
     7
  6
CONTINUOUS
 10
67.800000
 20
479.400000
 11
70.300000
 21
479.400000
  0
LINE
  8
255
 62
     7
  6
CONTINUOUS
 10
70.300000
 20
479.400000
 11
70.300000
 21
459.900000
  0
ARC
  8
255
 62
     7
  6
CONTINUOUS
 10
71.800000
 20
459.900000
 40
1.500000
 50
180.000000
 51
0.000000
  0
LINE
  8
255
 62
     7
  6
CONTINUOUS
 10
73.300000
 20
459.900000
 11
73.300000
 21
479.400000
  0
LINE
  8
255
 62
     7
  6
CONTINUOUS
 10
73.300000
 20
479.400000
 11
76.800000
 21
479.400000
  0
ARC
  8
255
 62
     7
  6
CONTINUOUS
 10
76.800000
 20
482.400000
 40
3.000000
 50
270.000000
 51
0.000000
  0
LINE
  8
255
 62
     7
  6
CONTINUOUS
 10
79.800000
 20
482.400000
 11
79.800000
 21
498.400000
  0
ARC
  8
255
 62
     7
  6
CONTINUOUS
 10
82.800000
 20
498.400000
 40
3.000000
 50
90.000000
 51
180.000000
  0
LINE
  8
255
 62
     7
  6
CONTINUOUS
 10
82.800000
 20
501.400000
 11
138.800000
 21
501.400000
  0
ARC
  8
255
 62
     7
  6
CONTINUOUS
 10
138.800000
 20
498.400000
 40
3.000000
 50
0.000000
 51
90.000000
  0
LINE
  8
255
 62
     7
  6
CONTINUOUS
 10
141.800000
 20
498.400000
 11
141.800000
 21
482.400000
  0
ARC
  8
255
 62
     7
  6
CONTINUOUS
 10
144.800000
 20
482.400000
 40
3.000000
 50
180.000000
 51
270.000000
  0
LINE
  8
255
 62
     7
  6
CONTINUOUS
 10
144.800000
 20
479.400000
 11
148.300000
 21
479.400000
  0
LINE
  8
255
 62
     7
  6
CONTINUOUS
 10
148.300000
 20
479.400000
 11
148.300000
 21
459.900000
  0
ARC
  8
255
 62
     7
  6
CONTINUOUS
 10
149.800000
 20
459.900000
 40
1.500000
 50
180.000000
 51
0.000000
  0
LINE
  8
255
 62
     7
  6
CONTINUOUS
 10
151.300000
 20
459.900000
 11
151.300000
 21
479.400000
  0
LINE
  8
255
 62
     7
  6
CONTINUOUS
 10
151.300000
 20
479.400000
 11
153.800000
 21
479.400000
  0
ARC
  8
255
 62
     7
  6
CONTINUOUS
 10
153.800000
 20
476.400000
 40
3.000000
 50
0.000000
 51
90.000000
  0
LINE
  8
255
 62
     7
  6
CONTINUOUS
 10
156.800000
 20
476.400000
 11
156.800000
 21
441.400000
  0
ARC
  8
255
 62
     7
  6
CONTINUOUS
 10
153.800000
 20
441.400000
 40
3.000000
 50
270.000000
 51
0.000000
  0
LINE
  8
255
 62
     7
  6
CONTINUOUS
 10
153.800000
 20
438.400000
 11
137.300000
 21
438.400000
  0
ARC
  8
255
 62
     7
  6
CONTINUOUS
 10
44.100000
 20
330.600000
 40
1.500000
 50
270.000000
 51
0.000000
  0
LINE
  8
255
 62
     7
  6
CONTINUOUS
 10
40.100000
 20
329.100000
 11
44.100000
 21
329.100000
  0
ARC
  8
255
 62
     7
  6
CONTINUOUS
 10
40.100000
 20
330.600000
 40
1.500000
 50
180.000000
 51
270.000000
  0
LINE
  8
255
 62
     7
  6
CONTINUOUS
 10
38.600000
 20
353.600000
 11
38.600000
 21
330.600000
  0
ARC
  8
255
 62
     7
  6
CONTINUOUS
 10
40.100000
 20
353.600000
 40
1.500000
 50
90.000000
 51
180.000000
  0
LINE
  8
255
 62
     7
  6
CONTINUOUS
 10
44.100000
 20
355.100000
 11
40.100000
 21
355.100000
  0
ARC
  8
255
 62
     7
  6
CONTINUOUS
 10
44.100000
 20
353.600000
 40
1.500000
 50
0.000000
 51
90.000000
  0
LINE
  8
255
 62
     7
  6
CONTINUOUS
 10
45.600000
 20
330.600000
 11
45.600000
 21
353.600000
  0
ARC
  8
255
 62
     7
  6
CONTINUOUS
 10
128.122874
 20
357.365249
 40
2.977329
 50
0.668756
 51
66.711379
  0
LINE
  8
255
 62
     7
  6
CONTINUOUS
 10
131.100000
 20
349.900000
 11
131.100000
 21
357.400000
  0
ARC
  8
255
 62
     7
  6
CONTINUOUS
 10
128.081807
 20
349.886535
 40
3.018223
 50
253.012615
 51
0.255613
  0
ARC
  8
255
 62
     7
  6
CONTINUOUS
 10
133.565400
 20
369.142396
 40
23.039185
 50
184.586723
 51
253.961344
  0
ARC
  8
255
 62
     7
  6
CONTINUOUS
 10
113.597658
 20
367.497581
 40
3.004163
 50
88.047749
 51
183.771012
  0
LINE
  8
255
 62
     7
  6
CONTINUOUS
 10
120.800000
 20
370.300000
 11
113.700000
 21
370.500000
  0
ARC
  8
255
 62
     7
  6
CONTINUOUS
 10
120.714306
 20
367.287111
 40
3.014108
 50
7.873452
 51
88.370809
  0
ARC
  8
255
 62
     7
  6
CONTINUOUS
 10
133.584942
 20
369.120484
 40
9.986484
 50
188.177523
 51
244.591182
  0
ARC
  8
255
 62
     7
  6
CONTINUOUS
 10
146.324468
 20
366.519414
 40
2.981542
 50
88.548367
 51
168.771249
  0
LINE
  8
255
 62
     7
  6
CONTINUOUS
 10
153.400000
 20
369.300000
 11
146.400000
 21
369.500000
  0
ARC
  8
255
 62
     7
  6
CONTINUOUS
 10
153.376021
 20
366.328703
 40
2.971394
 50
349.750735
 51
89.537615
  0
ARC
  8
255
 62
     7
  6
CONTINUOUS
 10
133.574684
 20
369.071020
 40
22.959520
 50
285.991731
 51
351.809257
  0
ARC
  8
255
 62
     7
  6
CONTINUOUS
 10
139.104159
 20
349.896829
 40
3.004161
 50
179.939528
 51
285.361773
  0
LINE
  8
255
 62
     7
  6
CONTINUOUS
 10
136.100000
 20
357.400000
 11
136.100000
 21
349.900000
  0
ARC
  8
255
 62
     7
  6
CONTINUOUS
 10
139.098331
 20
357.397347
 40
2.998332
 50
115.659229
 51
179.949303
  0
ARC
  8
255
 62
     7
  6
CONTINUOUS
 10
133.600000
 20
369.200000
 40
10.022475
 50
294.775141
 51
347.905243
  0
LINE
  8
255
 62
     7
  6
CONTINUOUS
 10
48.600000
 20
377.100000
 11
162.600000
 21
377.100000
  0
ARC
  8
255
 62
     7
  6
CONTINUOUS
 10
48.600000
 20
374.100000
 40
3.000000
 50
90.000000
 51
180.000000
  0
LINE
  8
255
 62
     7
  6
CONTINUOUS
 10
45.600000
 20
363.100000
 11
45.600000
 21
374.100000
  0
ARC
  8
255
 62
     7
  6
CONTINUOUS
 10
42.600000
 20
363.100000
 40
3.000000
 50
270.000000
 51
0.000000
  0
LINE
  8
255
 62
     7
  6
CONTINUOUS
 10
36.600000
 20
360.100000
 11
42.600000
 21
360.100000
  0
ARC
  8
255
 62
     7
  6
CONTINUOUS
 10
36.600000
 20
357.100000
 40
3.000000
 50
90.000000
 51
180.000000
  0
LINE
  8
255
 62
     7
  6
CONTINUOUS
 10
33.600000
 20
327.100000
 11
33.600000
 21
357.100000
  0
ARC
  8
255
 62
     7
  6
CONTINUOUS
 10
36.600000
 20
327.100000
 40
3.000000
 50
180.000000
 51
270.000000
  0
LINE
  8
255
 62
     7
  6
CONTINUOUS
 10
52.600000
 20
324.100000
 11
36.600000
 21
324.100000
  0
LINE
  8
255
 62
     7
  6
CONTINUOUS
 10
52.600000
 20
343.600000
 11
52.600000
 21
324.100000
  0
ARC
  8
255
 62
     7
  6
CONTINUOUS
 10
54.100000
 20
343.600000
 40
1.500000
 50
0.000000
 51
180.000000
  0
LINE
  8
255
 62
     7
  6
CONTINUOUS
 10
55.600000
 20
324.100000
 11
55.600000
 21
343.600000
  0
LINE
  8
255
 62
     7
  6
CONTINUOUS
 10
57.600000
 20
324.100000
 11
55.600000
 21
324.100000
  0
ARC
  8
255
 62
     7
  6
CONTINUOUS
 10
57.600000
 20
327.100000
 40
3.000000
 50
270.000000
 51
0.000000
  0
LINE
  8
255
 62
     7
  6
CONTINUOUS
 10
60.600000
 20
366.100000
 11
60.600000
 21
327.100000
  0
ARC
  8
255
 62
     7
  6
CONTINUOUS
 10
63.600000
 20
366.100000
 40
3.000000
 50
90.000000
 51
180.000000
  0
LINE
  8
255
 62
     7
  6
CONTINUOUS
 10
98.700000
 20
369.100000
 11
63.600000
 21
369.100000
  0
ARC
  8
255
 62
     7
  6
CONTINUOUS
 10
98.708277
 20
366.092530
 40
3.007481
 50
5.867888
 51
90.157687
  0
ARC
  8
255
 62
     7
  6
CONTINUOUS
 10
133.592970
 20
369.099703
 40
32.007030
 50
184.838487
 51
0.000000
  0
LINE
  8
255
 62
     7
  6
CONTINUOUS
 10
165.600000
 20
374.100000
 11
165.600000
 21
369.100000
  0
ARC
  8
255
 62
     7
  6
CONTINUOUS
 10
162.600000
 20
374.100000
 40
3.000000
 50
0.000000
 51
90.000000
  0
LINE
  8
255
 62
     7
  6
CONTINUOUS
 10
173.000000
 20
334.400000
 11
179.500000
 21
334.400000
  0
ARC
  8
255
 62
     7
  6
CONTINUOUS
 10
179.500000
 20
335.900000
 40
1.500000
 50
270.000000
 51
90.000000
  0
LINE
  8
255
 62
     7
  6
CONTINUOUS
 10
179.500000
 20
337.400000
 11
173.000000
 21
337.400000
  0
LINE
  8
255
 62
     7
  6
CONTINUOUS
 10
173.000000
 20
337.400000
 11
173.000000
 21
353.900000
  0
ARC
  8
255
 62
     7
  6
CONTINUOUS
 10
175.500000
 20
353.900000
 40
2.500000
 50
90.000000
 51
180.000000
  0
LINE
  8
255
 62
     7
  6
CONTINUOUS
 10
175.500000
 20
356.400000
 11
180.500000
 21
356.400000
  0
ARC
  8
255
 62
     7
  6
CONTINUOUS
 10
180.500000
 20
358.900000
 40
2.500000
 50
270.000000
 51
0.000000
  0
LINE
  8
255
 62
     7
  6
CONTINUOUS
 10
183.000000
 20
358.900000
 11
183.000000
 21
381.900000
  0
ARC
  8
255
 62
     7
  6
CONTINUOUS
 10
185.500000
 20
381.900000
 40
2.500000
 50
90.000000
 51
180.000000
  0
LINE
  8
255
 62
     7
  6
CONTINUOUS
 10
185.500000
 20
384.400000
 11
190.000000
 21
384.400000
  0
ARC
  8
255
 62
     7
  6
CONTINUOUS
 10
190.007713
 20
380.387546
 40
4.012461
 50
333.544750
 51
90.110143
  0
LINE
  8
255
 62
     7
  6
CONTINUOUS
 10
193.600000
 20
378.600000
 11
191.100000
 21
373.500000
  0
ARC
  8
255
 62
     7
  6
CONTINUOUS
 10
196.502095
 20
370.896664
 40
5.996665
 50
154.270016
 51
269.979981
  0
ARC
  8
255
 62
     7
  6
CONTINUOUS
 10
196.470015
 20
370.851619
 40
5.951694
 50
270.288664
 51
26.422017
  0
LINE
  8
255
 62
     7
  6
CONTINUOUS
 10
201.800000
 20
373.500000
 11
199.300000
 21
378.600000
  0
ARC
  8
255
 62
     7
  6
CONTINUOUS
 10
202.892287
 20
380.387546
 40
4.012461
 50
89.889857
 51
206.455250
  0
LINE
  8
255
 62
     7
  6
CONTINUOUS
 10
202.900000
 20
384.400000
 11
207.500000
 21
384.400000
  0
ARC
  8
255
 62
     7
  6
CONTINUOUS
 10
207.500000
 20
381.900000
 40
2.500000
 50
0.000000
 51
90.000000
  0
LINE
  8
255
 62
     7
  6
CONTINUOUS
 10
210.000000
 20
381.900000
 11
210.000000
 21
358.900000
  0
ARC
  8
255
 62
     7
  6
CONTINUOUS
 10
212.500000
 20
358.900000
 40
2.500000
 50
180.000000
 51
270.000000
  0
LINE
  8
255
 62
     7
  6
CONTINUOUS
 10
212.500000
 20
356.400000
 11
217.500000
 21
356.400000
  0
ARC
  8
255
 62
     7
  6
CONTINUOUS
 10
217.500000
 20
353.900000
 40
2.500000
 50
0.000000
 51
90.000000
  0
LINE
  8
255
 62
     7
  6
CONTINUOUS
 10
220.000000
 20
353.900000
 11
220.000000
 21
337.400000
  0
LINE
  8
255
 62
     7
  6
CONTINUOUS
 10
220.000000
 20
337.400000
 11
213.500000
 21
337.400000
  0
ARC
  8
255
 62
     7
  6
CONTINUOUS
 10
213.500000
 20
335.900000
 40
1.500000
 50
90.000000
 51
270.000000
  0
LINE
  8
255
 62
     7
  6
CONTINUOUS
 10
213.500000
 20
334.400000
 11
220.000000
 21
334.400000
  0
LINE
  8
255
 62
     7
  6
CONTINUOUS
 10
220.000000
 20
334.400000
 11
220.000000
 21
279.900000
  0
ARC
  8
255
 62
     7
  6
CONTINUOUS
 10
217.500000
 20
279.900000
 40
2.500000
 50
270.000000
 51
0.000000
  0
LINE
  8
255
 62
     7
  6
CONTINUOUS
 10
217.500000
 20
277.400000
 11
175.500000
 21
277.400000
  0
ARC
  8
255
 62
     7
  6
CONTINUOUS
 10
175.500000
 20
279.900000
 40
2.500000
 50
180.000000
 51
270.000000
  0
LINE
  8
255
 62
     7
  6
CONTINUOUS
 10
173.000000
 20
279.900000
 11
173.000000
 21
334.400000
  0
LINE
  8
255
 62
     7
  6
CONTINUOUS
 10
143.700000
 20
309.800000
 11
143.700000
 21
292.300000
  0
ARC
  8
255
 62
     7
  6
CONTINUOUS
 10
145.200000
 20
292.300000
 40
1.500000
 50
180.000000
 51
0.000000
  0
LINE
  8
255
 62
     7
  6
CONTINUOUS
 10
146.700000
 20
292.300000
 11
146.700000
 21
309.800000
  0
LINE
  8
255
 62
     7
  6
CONTINUOUS
 10
146.700000
 20
309.800000
 11
151.700000
 21
309.800000
  0
ARC
  8
255
 62
     7
  6
CONTINUOUS
 10
151.700000
 20
303.800000
 40
6.000000
 50
0.000000
 51
90.000000
  0
LINE
  8
255
 62
     7
  6
CONTINUOUS
 10
157.700000
 20
303.800000
 11
157.700000
 21
281.800000
  0
ARC
  8
255
 62
     7
  6
CONTINUOUS
 10
159.700000
 20
281.800000
 40
2.000000
 50
180.000000
 51
270.000000
  0
LINE
  8
255
 62
     7
  6
CONTINUOUS
 10
159.700000
 20
279.800000
 11
162.700000
 21
279.800000
  0
ARC
  8
255
 62
     7
  6
CONTINUOUS
 10
162.700000
 20
277.300000
 40
2.500000
 50
270.000000
 51
90.000000
  0
LINE
  8
255
 62
     7
  6
CONTINUOUS
 10
162.700000
 20
274.800000
 11
127.700000
 21
274.800000
  0
ARC
  8
255
 62
     7
  6
CONTINUOUS
 10
127.700000
 20
277.300000
 40
2.500000
 50
90.000000
 51
270.000000
  0
LINE
  8
255
 62
     7
  6
CONTINUOUS
 10
127.700000
 20
279.800000
 11
130.700000
 21
279.800000
  0
ARC
  8
255
 62
     7
  6
CONTINUOUS
 10
130.700000
 20
281.800000
 40
2.000000
 50
270.000000
 51
0.000000
  0
LINE
  8
255
 62
     7
  6
CONTINUOUS
 10
132.700000
 20
281.800000
 11
132.700000
 21
303.800000
  0
ARC
  8
255
 62
     7
  6
CONTINUOUS
 10
138.700000
 20
303.800000
 40
6.000000
 50
90.000000
 51
180.000000
  0
LINE
  8
255
 62
     7
  6
CONTINUOUS
 10
138.700000
 20
309.800000
 11
143.700000
 21
309.800000
  0
LINE
  8
255
 62
     7
  6
CONTINUOUS
 10
149.300000
 20
260.600000
 11
171.800000
 21
260.600000
  0
ARC
  8
255
 62
     7
  6
CONTINUOUS
 10
171.800000
 20
262.100000
 40
1.500000
 50
270.000000
 51
90.000000
  0
LINE
  8
255
 62
     7
  6
CONTINUOUS
 10
171.800000
 20
263.600000
 11
149.300000
 21
263.600000
  0
LINE
  8
255
 62
     7
  6
CONTINUOUS
 10
149.300000
 20
263.600000
 11
149.300000
 21
266.100000
  0
ARC
  8
255
 62
     7
  6
CONTINUOUS
 10
152.300000
 20
266.100000
 40
3.000000
 50
90.000000
 51
180.000000
  0
LINE
  8
255
 62
     7
  6
CONTINUOUS
 10
152.300000
 20
269.100000
 11
199.900000
 21
269.100000
  0
ARC
  8
255
 62
     7
  6
CONTINUOUS
 10
199.906109
 20
266.095845
 40
3.004161
 50
21.564093
 51
90.116518
  0
ARC
  8
255
 62
     7
  6
CONTINUOUS
 10
207.289325
 20
269.109991
 40
4.970912
 50
202.596160
 51
251.353708
  0
ARC
  8
255
 62
     7
  6
CONTINUOUS
 10
204.900000
 20
262.100000
 40
2.435159
 50
289.179008
 51
70.820992
  0
ARC
  8
255
 62
     7
  6
CONTINUOUS
 10
207.289325
 20
255.090009
 40
4.970912
 50
108.646292
 51
157.403840
  0
ARC
  8
255
 62
     7
  6
CONTINUOUS
 10
199.906109
 20
258.104155
 40
3.004161
 50
269.883482
 51
338.435907
  0
LINE
  8
255
 62
     7
  6
CONTINUOUS
 10
199.900000
 20
255.100000
 11
172.600000
 21
255.100000
  0
ARC
  8
255
 62
     7
  6
CONTINUOUS
 10
172.525788
 20
251.108834
 40
3.991856
 50
88.934764
 51
129.252221
  0
LINE
  8
255
 62
     7
  6
CONTINUOUS
 10
170.000000
 20
254.200000
 11
125.400000
 21
216.700000
  0
ARC
  8
255
 62
     7
  6
CONTINUOUS
 10
123.753828
 20
218.607574
 40
2.519667
 50
211.261661
 51
310.793086
  0
LINE
  8
255
 62
     7
  6
CONTINUOUS
 10
121.600000
 20
217.300000
 11
120.500000
 21
219.300000
  0
LINE
  8
255
 62
     7
  6
CONTINUOUS
 10
120.500000
 20
219.300000
 11
125.200000
 21
225.300000
  0
ARC
  8
255
 62
     7
  6
CONTINUOUS
 10
123.975662
 20
226.219257
 40
1.531025
 50
323.100050
 51
140.164979
  0
LINE
  8
255
 62
     7
  6
CONTINUOUS
 10
122.800000
 20
227.200000
 11
119.100000
 21
222.400000
  0
ARC
  8
255
 62
     7
  6
CONTINUOUS
 10
152.210232
 20
236.358421
 40
35.932227
 50
184.722700
 51
202.859035
  0
ARC
  8
255
 62
     7
  6
CONTINUOUS
 10
118.896310
 20
233.596009
 40
2.503994
 50
89.915570
 51
184.489626
  0
LINE
  8
255
 62
     7
  6
CONTINUOUS
 10
118.900000
 20
236.100000
 11
139.800000
 21
236.100000
  0
ARC
  8
255
 62
     7
  6
CONTINUOUS
 10
139.778046
 20
238.591878
 40
2.491974
 50
270.504777
 51
310.607313
  0
LINE
  8
255
 62
     7
  6
CONTINUOUS
 10
141.400000
 20
236.700000
 11
159.100000
 21
251.600000
  0
ARC
  8
255
 62
     7
  6
CONTINUOUS
 10
157.797197
 20
253.107530
 40
1.992472
 50
310.833474
 51
89.919396
  0
LINE
  8
255
 62
     7
  6
CONTINUOUS
 10
157.800000
 20
255.100000
 11
152.300000
 21
255.100000
  0
ARC
  8
255
 62
     7
  6
CONTINUOUS
 10
152.300000
 20
258.100000
 40
3.000000
 50
180.000000
 51
270.000000
  0
LINE
  8
255
 62
     7
  6
CONTINUOUS
 10
149.300000
 20
258.100000
 11
149.300000
 21
260.600000
  0
LINE
  8
255
 62
     7
  6
CONTINUOUS
 10
128.300000
 20
72.500000
 11
114.400000
 21
72.500000
  0
ARC
  8
255
 62
     7
  6
CONTINUOUS
 10
114.400000
 20
71.000000
 40
1.500000
 50
90.000000
 51
270.000000
  0
LINE
  8
255
 62
     7
  6
CONTINUOUS
 10
114.400000
 20
69.500000
 11
127.900000
 21
69.500000
  0
LINE
  8
255
 62
     7
  6
CONTINUOUS
 10
127.900000
 20
69.500000
 11
127.200000
 21
64.800000
  0
ARC
  8
255
 62
     7
  6
CONTINUOUS
 10
125.707598
 20
65.006618
 40
1.506637
 50
269.711070
 51
352.117697
  0
LINE
  8
255
 62
     7
  6
CONTINUOUS
 10
125.700000
 20
63.500000
 11
101.500000
 21
63.500000
  0
ARC
  8
255
 62
     7
  6
CONTINUOUS
 10
101.500000
 20
65.000000
 40
1.500000
 50
180.000000
 51
270.000000
  0
LINE
  8
255
 62
     7
  6
CONTINUOUS
 10
100.000000
 20
65.000000
 11
100.000000
 21
76.000000
  0
ARC
  8
255
 62
     7
  6
CONTINUOUS
 10
101.500000
 20
76.000000
 40
1.500000
 50
90.000000
 51
180.000000
  0
LINE
  8
255
 62
     7
  6
CONTINUOUS
 10
101.500000
 20
77.500000
 11
114.500000
 21
77.500000
  0
ARC
  8
255
 62
     7
  6
CONTINUOUS
 10
114.500000
 20
79.000000
 40
1.500000
 50
270.000000
 51
0.000000
  0
LINE
  8
255
 62
     7
  6
CONTINUOUS
 10
116.000000
 20
79.000000
 11
116.000000
 21
81.000000
  0
ARC
  8
255
 62
     7
  6
CONTINUOUS
 10
114.500000
 20
81.000000
 40
1.500000
 50
0.000000
 51
90.000000
  0
LINE
  8
255
 62
     7
  6
CONTINUOUS
 10
114.500000
 20
82.500000
 11
109.000000
 21
82.500000
  0
ARC
  8
255
 62
     7
  6
CONTINUOUS
 10
109.000000
 20
84.500000
 40
2.000000
 50
180.000000
 51
270.000000
  0
LINE
  8
255
 62
     7
  6
CONTINUOUS
 10
107.000000
 20
84.500000
 11
107.000000
 21
86.000000
  0
ARC
  8
255
 62
     7
  6
CONTINUOUS
 10
108.992404
 20
85.983545
 40
1.992472
 50
130.439403
 51
179.526811
  0
LINE
  8
255
 62
     7
  6
CONTINUOUS
 10
107.700000
 20
87.500000
 11
109.700000
 21
89.300000
  0
ARC
  8
255
 62
     7
  6
CONTINUOUS
 10
108.409897
 20
90.820052
 40
1.993721
 50
310.322042
 51
356.547856
  0
LINE
  8
255
 62
     7
  6
CONTINUOUS
 10
110.400000
 20
90.700000
 11
110.600000
 21
96.600000
  0
ARC
  8
255
 62
     7
  6
CONTINUOUS
 10
112.611935
 20
96.516380
 40
2.013672
 50
110.704645
 51
177.620050
  0
LINE
  8
255
 62
     7
  6
CONTINUOUS
 10
111.900000
 20
98.400000
 11
113.600000
 21
99.000000
  0
ARC
  8
255
 62
     7
  6
CONTINUOUS
 10
112.937766
 20
100.931619
 40
2.041986
 50
288.923700
 51
329.655113
  0
ARC
  8
255
 62
     7
  6
CONTINUOUS
 10
118.112151
 20
97.909474
 40
3.950312
 50
106.351834
 51
149.742250
  0
LINE
  8
255
 62
     7
  6
CONTINUOUS
 10
117.000000
 20
101.700000
 11
118.100000
 21
102.100000
  0
ARC
  8
255
 62
     7
  6
CONTINUOUS
 10
119.000000
 20
99.200000
 40
3.036445
 50
72.758540
 51
107.241459
  0
LINE
  8
255
 62
     7
  6
CONTINUOUS
 10
119.900000
 20
102.100000
 11
121.000000
 21
101.700000
  0
ARC
  8
255
 62
     7
  6
CONTINUOUS
 10
119.849595
 20
97.860594
 40
4.008050
 50
30.585755
 51
73.320161
  0
ARC
  8
255
 62
     7
  6
CONTINUOUS
 10
125.062234
 20
100.931619
 40
2.041986
 50
210.344887
 51
251.076300
  0
LINE
  8
255
 62
     7
  6
CONTINUOUS
 10
124.400000
 20
99.000000
 11
126.100000
 21
98.400000
  0
ARC
  8
255
 62
     7
  6
CONTINUOUS
 10
125.388065
 20
96.516380
 40
2.013672
 50
2.379950
 51
69.295355
  0
LINE
  8
255
 62
     7
  6
CONTINUOUS
 10
127.400000
 20
96.600000
 11
127.600000
 21
90.700000
  0
ARC
  8
255
 62
     7
  6
CONTINUOUS
 10
129.590103
 20
90.820052
 40
1.993721
 50
183.452144
 51
229.677958
  0
LINE
  8
255
 62
     7
  6
CONTINUOUS
 10
128.300000
 20
89.300000
 11
130.300000
 21
87.500000
  0
ARC
  8
255
 62
     7
  6
CONTINUOUS
 10
129.007596
 20
85.983545
 40
1.992472
 50
0.473190
 51
49.560598
  0
LINE
  8
255
 62
     7
  6
CONTINUOUS
 10
131.000000
 20
86.000000
 11
131.000000
 21
84.500000
  0
ARC
  8
255
 62
     7
  6
CONTINUOUS
 10
129.000000
 20
84.500000
 40
2.000000
 50
270.000000
 51
0.000000
  0
LINE
  8
255
 62
     7
  6
CONTINUOUS
 10
129.000000
 20
82.500000
 11
123.500000
 21
82.500000
  0
ARC
  8
255
 62
     7
  6
CONTINUOUS
 10
123.500000
 20
81.000000
 40
1.500000
 50
90.000000
 51
180.000000
  0
LINE
  8
255
 62
     7
  6
CONTINUOUS
 10
122.000000
 20
81.000000
 11
122.000000
 21
79.000000
  0
ARC
  8
255
 62
     7
  6
CONTINUOUS
 10
123.500000
 20
79.000000
 40
1.500000
 50
180.000000
 51
270.000000
  0
LINE
  8
255
 62
     7
  6
CONTINUOUS
 10
123.500000
 20
77.500000
 11
127.300000
 21
77.500000
  0
ARC
  8
255
 62
     7
  6
CONTINUOUS
 10
127.305824
 20
75.993374
 40
1.506637
 50
352.625857
 51
90.221474
  0
LINE
  8
255
 62
     7
  6
CONTINUOUS
 10
128.800000
 20
75.800000
 11
128.300000
 21
72.500000
  0
ARC
  8
255
 62
     7
  6
CONTINUOUS
 10
186.600000
 20
65.600000
 40
10.000000
 50
270.000000
 51
0.000000
  0
LINE
  8
255
 62
     7
  6
CONTINUOUS
 10
196.600000
 20
65.600000
 11
196.600000
 21
77.600000
  0
ARC
  8
255
 62
     7
  6
CONTINUOUS
 10
186.600000
 20
77.600000
 40
10.000000
 50
0.000000
 51
90.000000
  0
LINE
  8
255
 62
     7
  6
CONTINUOUS
 10
186.600000
 20
87.600000
 11
166.600000
 21
87.600000
  0
ARC
  8
255
 62
     7
  6
CONTINUOUS
 10
166.600000
 20
84.600000
 40
3.000000
 50
90.000000
 51
180.000000
  0
LINE
  8
255
 62
     7
  6
CONTINUOUS
 10
163.600000
 20
84.600000
 11
163.600000
 21
58.600000
  0
ARC
  8
255
 62
     7
  6
CONTINUOUS
 10
166.600000
 20
58.600000
 40
3.000000
 50
180.000000
 51
270.000000
  0
LINE
  8
255
 62
     7
  6
CONTINUOUS
 10
166.600000
 20
55.600000
 11
186.600000
 21
55.600000
  0
LINE
  8
255
 62
     7
  6
CONTINUOUS
 10
225.600000
 20
95.600000
 11
187.100000
 21
95.600000
  0
ARC
  8
255
 62
     7
  6
CONTINUOUS
 10
187.100000
 20
94.100000
 40
1.500000
 50
90.000000
 51
270.000000
  0
LINE
  8
255
 62
     7
  6
CONTINUOUS
 10
187.100000
 20
92.600000
 11
225.600000
 21
92.600000
  0
LINE
  8
255
 62
     7
  6
CONTINUOUS
 10
225.600000
 20
92.600000
 11
225.600000
 21
89.600000
  0
ARC
  8
255
 62
     7
  6
CONTINUOUS
 10
222.600000
 20
89.600000
 40
3.000000
 50
270.000000
 51
0.000000
  0
LINE
  8
255
 62
     7
  6
CONTINUOUS
 10
222.600000
 20
86.600000
 11
216.100000
 21
86.600000
  0
ARC
  8
255
 62
     7
  6
CONTINUOUS
 10
216.121198
 20
80.616751
 40
5.983287
 50
90.202989
 51
166.633122
  0
LINE
  8
255
 62
     7
  6
CONTINUOUS
 10
210.300000
 20
82.000000
 11
208.500000
 21
74.300000
  0
ARC
  8
255
 62
     7
  6
CONTINUOUS
 10
211.406570
 20
73.591636
 40
2.991643
 50
166.303380
 51
269.874166
  0
LINE
  8
255
 62
     7
  6
CONTINUOUS
 10
211.400000
 20
70.600000
 11
222.600000
 21
70.600000
  0
ARC
  8
255
 62
     7
  6
CONTINUOUS
 10
222.600000
 20
67.600000
 40
3.000000
 50
0.000000
 51
90.000000
  0
LINE
  8
255
 62
     7
  6
CONTINUOUS
 10
225.600000
 20
67.600000
 11
225.600000
 21
8.600000
  0
ARC
  8
255
 62
     7
  6
CONTINUOUS
 10
222.600000
 20
8.600000
 40
3.000000
 50
270.000000
 51
0.000000
  0
LINE
  8
255
 62
     7
  6
CONTINUOUS
 10
222.600000
 20
5.600000
 11
219.100000
 21
5.600000
  0
LINE
  8
255
 62
     7
  6
CONTINUOUS
 10
219.100000
 20
5.600000
 11
219.100000
 21
38.100000
  0
ARC
  8
255
 62
     7
  6
CONTINUOUS
 10
217.600000
 20
38.100000
 40
1.500000
 50
0.000000
 51
180.000000
  0
LINE
  8
255
 62
     7
  6
CONTINUOUS
 10
216.100000
 20
38.100000
 11
216.100000
 21
5.600000
  0
LINE
  8
255
 62
     7
  6
CONTINUOUS
 10
216.100000
 20
5.600000
 11
196.600000
 21
5.600000
  0
LINE
  8
255
 62
     7
  6
CONTINUOUS
 10
196.600000
 20
5.600000
 11
196.600000
 21
12.100000
  0
ARC
  8
255
 62
     7
  6
CONTINUOUS
 10
195.100000
 20
12.100000
 40
1.500000
 50
0.000000
 51
180.000000
  0
LINE
  8
255
 62
     7
  6
CONTINUOUS
 10
193.600000
 20
12.100000
 11
193.600000
 21
5.600000
  0
LINE
  8
255
 62
     7
  6
CONTINUOUS
 10
193.600000
 20
5.600000
 11
136.600000
 21
5.600000
  0
LINE
  8
255
 62
     7
  6
CONTINUOUS
 10
136.600000
 20
5.600000
 11
136.600000
 21
12.100000
  0
ARC
  8
255
 62
     7
  6
CONTINUOUS
 10
135.100000
 20
12.100000
 40
1.500000
 50
0.000000
 51
180.000000
  0
LINE
  8
255
 62
     7
  6
CONTINUOUS
 10
133.600000
 20
12.100000
 11
133.600000
 21
5.600000
  0
LINE
  8
255
 62
     7
  6
CONTINUOUS
 10
133.600000
 20
5.600000
 11
79.600000
 21
5.600000
  0
LINE
  8
255
 62
     7
  6
CONTINUOUS
 10
79.600000
 20
5.600000
 11
79.600000
 21
12.100000
  0
ARC
  8
255
 62
     7
  6
CONTINUOUS
 10
78.100000
 20
12.100000
 40
1.500000
 50
0.000000
 51
180.000000
  0
LINE
  8
255
 62
     7
  6
CONTINUOUS
 10
76.600000
 20
12.100000
 11
76.600000
 21
5.600000
  0
LINE
  8
255
 62
     7
  6
CONTINUOUS
 10
76.600000
 20
5.600000
 11
21.600000
 21
5.600000
  0
LINE
  8
255
 62
     7
  6
CONTINUOUS
 10
21.600000
 20
5.600000
 11
21.600000
 21
12.100000
  0
ARC
  8
255
 62
     7
  6
CONTINUOUS
 10
20.100000
 20
12.100000
 40
1.500000
 50
0.000000
 51
180.000000
  0
LINE
  8
255
 62
     7
  6
CONTINUOUS
 10
18.600000
 20
12.100000
 11
18.600000
 21
5.600000
  0
LINE
  8
255
 62
     7
  6
CONTINUOUS
 10
18.600000
 20
5.600000
 11
8.600000
 21
5.600000
  0
ARC
  8
255
 62
     7
  6
CONTINUOUS
 10
8.600000
 20
8.600000
 40
3.000000
 50
180.000000
 51
270.000000
  0
LINE
  8
255
 62
     7
  6
CONTINUOUS
 10
5.600000
 20
8.600000
 11
5.600000
 21
43.600000
  0
ARC
  8
255
 62
     7
  6
CONTINUOUS
 10
8.600000
 20
43.600000
 40
3.000000
 50
90.000000
 51
180.000000
  0
LINE
  8
255
 62
     7
  6
CONTINUOUS
 10
8.600000
 20
46.600000
 11
12.600000
 21
46.600000
  0
LINE
  8
255
 62
     7
  6
CONTINUOUS
 10
12.600000
 20
46.600000
 11
12.600000
 21
39.100000
  0
ARC
  8
255
 62
     7
  6
CONTINUOUS
 10
14.100000
 20
39.100000
 40
1.500000
 50
180.000000
 51
0.000000
  0
LINE
  8
255
 62
     7
  6
CONTINUOUS
 10
15.600000
 20
39.100000
 11
15.600000
 21
46.600000
  0
LINE
  8
255
 62
     7
  6
CONTINUOUS
 10
15.600000
 20
46.600000
 11
37.100000
 21
46.600000
  0
ARC
  8
255
 62
     7
  6
CONTINUOUS
 10
37.100000
 20
48.100000
 40
1.500000
 50
270.000000
 51
90.000000
  0
LINE
  8
255
 62
     7
  6
CONTINUOUS
 10
37.100000
 20
49.600000
 11
15.600000
 21
49.600000
  0
LINE
  8
255
 62
     7
  6
CONTINUOUS
 10
15.600000
 20
49.600000
 11
15.600000
 21
52.600000
  0
ARC
  8
255
 62
     7
  6
CONTINUOUS
 10
18.600000
 20
52.600000
 40
3.000000
 50
90.000000
 51
180.000000
  0
LINE
  8
255
 62
     7
  6
CONTINUOUS
 10
18.600000
 20
55.600000
 11
150.600000
 21
55.600000
  0
ARC
  8
255
 62
     7
  6
CONTINUOUS
 10
150.600000
 20
58.600000
 40
3.000000
 50
270.000000
 51
0.000000
  0
LINE
  8
255
 62
     7
  6
CONTINUOUS
 10
153.600000
 20
58.600000
 11
153.600000
 21
83.600000
  0
ARC
  8
255
 62
     7
  6
CONTINUOUS
 10
150.600000
 20
83.600000
 40
3.000000
 50
0.000000
 51
90.000000
  0
LINE
  8
255
 62
     7
  6
CONTINUOUS
 10
150.600000
 20
86.600000
 11
148.600000
 21
86.600000
  0
ARC
  8
255
 62
     7
  6
CONTINUOUS
 10
148.600000
 20
89.600000
 40
3.000000
 50
180.000000
 51
270.000000
  0
LINE
  8
255
 62
     7
  6
CONTINUOUS
 10
145.600000
 20
89.600000
 11
145.600000
 21
98.600000
  0
ARC
  8
255
 62
     7
  6
CONTINUOUS
 10
148.600000
 20
98.600000
 40
3.000000
 50
90.000000
 51
180.000000
  0
LINE
  8
255
 62
     7
  6
CONTINUOUS
 10
148.600000
 20
101.600000
 11
222.600000
 21
101.600000
  0
ARC
  8
255
 62
     7
  6
CONTINUOUS
 10
222.600000
 20
98.600000
 40
3.000000
 50
0.000000
 51
90.000000
  0
LINE
  8
255
 62
     7
  6
CONTINUOUS
 10
225.600000
 20
98.600000
 11
225.600000
 21
95.600000
  0
LINE
  8
255
 62
     7
  6
CONTINUOUS
 10
261.900000
 20
132.600000
 11
272.400000
 21
132.600000
  0
LINE
  8
255
 62
     7
  6
CONTINUOUS
 10
272.400000
 20
132.600000
 11
272.400000
 21
121.100000
  0
ARC
  8
255
 62
     7
  6
CONTINUOUS
 10
273.900000
 20
121.100000
 40
1.500000
 50
180.000000
 51
0.000000
  0
LINE
  8
255
 62
     7
  6
CONTINUOUS
 10
275.400000
 20
121.100000
 11
275.400000
 21
132.600000
  0
LINE
  8
255
 62
     7
  6
CONTINUOUS
 10
275.400000
 20
132.600000
 11
285.900000
 21
132.600000
  0
ARC
  8
255
 62
     7
  6
CONTINUOUS
 10
285.900000
 20
136.600000
 40
4.000000
 50
270.000000
 51
0.000000
  0
LINE
  8
255
 62
     7
  6
CONTINUOUS
 10
289.900000
 20
136.600000
 11
289.900000
 21
148.100000
  0
ARC
  8
255
 62
     7
  6
CONTINUOUS
 10
292.400000
 20
148.100000
 40
2.500000
 50
90.000000
 51
180.000000
  0
LINE
  8
255
 62
     7
  6
CONTINUOUS
 10
292.400000
 20
150.600000
 11
294.900000
 21
150.600000
  0
ARC
  8
255
 62
     7
  6
CONTINUOUS
 10
294.900000
 20
148.100000
 40
2.500000
 50
0.000000
 51
90.000000
  0
LINE
  8
255
 62
     7
  6
CONTINUOUS
 10
297.400000
 20
148.100000
 11
297.400000
 21
29.100000
  0
ARC
  8
255
 62
     7
  6
CONTINUOUS
 10
298.900000
 20
29.100000
 40
1.500000
 50
180.000000
 51
270.000000
  0
LINE
  8
255
 62
     7
  6
CONTINUOUS
 10
298.900000
 20
27.600000
 11
301.900000
 21
27.600000
  0
ARC
  8
255
 62
     7
  6
CONTINUOUS
 10
301.900000
 20
29.100000
 40
1.500000
 50
270.000000
 51
0.000000
  0
LINE
  8
255
 62
     7
  6
CONTINUOUS
 10
303.400000
 20
29.100000
 11
303.400000
 21
50.500000
  0
ARC
  8
255
 62
     7
  6
CONTINUOUS
 10
304.404095
 20
45.096596
 40
5.495906
 50
0.000000
 51
100.526992
  0
LINE
  8
255
 62
     7
  6
CONTINUOUS
 10
309.900000
 20
45.100000
 11
309.900000
 21
10.100000
  0
ARC
  8
255
 62
     7
  6
CONTINUOUS
 10
307.400000
 20
10.100000
 40
2.500000
 50
270.000000
 51
0.000000
  0
LINE
  8
255
 62
     7
  6
CONTINUOUS
 10
307.400000
 20
7.600000
 11
275.400000
 21
7.600000
  0
LINE
  8
255
 62
     7
  6
CONTINUOUS
 10
275.400000
 20
7.600000
 11
275.400000
 21
43.100000
  0
ARC
  8
255
 62
     7
  6
CONTINUOUS
 10
273.900000
 20
43.100000
 40
1.500000
 50
0.000000
 51
180.000000
  0
LINE
  8
255
 62
     7
  6
CONTINUOUS
 10
272.400000
 20
43.100000
 11
272.400000
 21
7.600000
  0
LINE
  8
255
 62
     7
  6
CONTINUOUS
 10
272.400000
 20
7.600000
 11
240.400000
 21
7.600000
  0
ARC
  8
255
 62
     7
  6
CONTINUOUS
 10
240.400000
 20
10.100000
 40
2.500000
 50
180.000000
 51
270.000000
  0
LINE
  8
255
 62
     7
  6
CONTINUOUS
 10
237.900000
 20
10.100000
 11
237.900000
 21
45.100000
  0
ARC
  8
255
 62
     7
  6
CONTINUOUS
 10
243.395905
 20
45.096596
 40
5.495906
 50
79.473008
 51
179.964511
  0
LINE
  8
255
 62
     7
  6
CONTINUOUS
 10
244.400000
 20
50.500000
 11
244.400000
 21
29.100000
  0
ARC
  8
255
 62
     7
  6
CONTINUOUS
 10
245.900000
 20
29.100000
 40
1.500000
 50
180.000000
 51
270.000000
  0
LINE
  8
255
 62
     7
  6
CONTINUOUS
 10
245.900000
 20
27.600000
 11
248.900000
 21
27.600000
  0
ARC
  8
255
 62
     7
  6
CONTINUOUS
 10
248.900000
 20
29.100000
 40
1.500000
 50
270.000000
 51
0.000000
  0
LINE
  8
255
 62
     7
  6
CONTINUOUS
 10
250.400000
 20
29.100000
 11
250.400000
 21
148.100000
  0
ARC
  8
255
 62
     7
  6
CONTINUOUS
 10
252.900000
 20
148.100000
 40
2.500000
 50
90.000000
 51
180.000000
  0
LINE
  8
255
 62
     7
  6
CONTINUOUS
 10
252.900000
 20
150.600000
 11
255.400000
 21
150.600000
  0
ARC
  8
255
 62
     7
  6
CONTINUOUS
 10
255.400000
 20
148.100000
 40
2.500000
 50
0.000000
 51
90.000000
  0
LINE
  8
255
 62
     7
  6
CONTINUOUS
 10
257.900000
 20
148.100000
 11
257.900000
 21
136.600000
  0
ARC
  8
255
 62
     7
  6
CONTINUOUS
 10
261.900000
 20
136.600000
 40
4.000000
 50
180.000000
 51
270.000000
  0
LINE
  8
255
 62
     7
  6
CONTINUOUS
 10
297.300000
 20
185.100000
 11
297.300000
 21
196.600000
  0
ARC
  8
255
 62
     7
  6
CONTINUOUS
 10
295.800000
 20
196.600000
 40
1.500000
 50
0.000000
 51
180.000000
  0
LINE
  8
255
 62
     7
  6
CONTINUOUS
 10
294.300000
 20
196.600000
 11
294.300000
 21
169.800000
  0
ARC
  8
255
 62
     7
  6
CONTINUOUS
 10
284.314834
 20
169.835281
 40
9.985228
 50
314.390907
 51
359.797553
  0
ARC
  8
255
 62
     7
  6
CONTINUOUS
 10
270.273240
 20
184.088788
 40
29.993414
 50
271.006310
 51
314.510977
  0
ARC
  8
255
 62
     7
  6
CONTINUOUS
 10
271.326760
 20
184.088788
 40
29.993414
 50
225.489023
 51
268.993690
  0
ARC
  8
255
 62
     7
  6
CONTINUOUS
 10
257.285166
 20
169.835281
 40
9.985228
 50
180.202447
 51
225.609093
  0
LINE
  8
255
 62
     7
  6
CONTINUOUS
 10
247.300000
 20
169.800000
 11
247.300000
 21
196.600000
  0
ARC
  8
255
 62
     7
  6
CONTINUOUS
 10
245.800000
 20
196.600000
 40
1.500000
 50
0.000000
 51
180.000000
  0
LINE
  8
255
 62
     7
  6
CONTINUOUS
 10
244.300000
 20
196.600000
 11
244.300000
 21
185.100000
  0
LINE
  8
255
 62
     7
  6
CONTINUOUS
 10
244.300000
 20
185.100000
 11
239.800000
 21
185.100000
  0
ARC
  8
255
 62
     7
  6
CONTINUOUS
 10
239.800000
 20
187.600000
 40
2.500000
 50
180.000000
 51
270.000000
  0
LINE
  8
255
 62
     7
  6
CONTINUOUS
 10
237.300000
 20
187.600000
 11
237.300000
 21
205.100000
  0
ARC
  8
255
 62
     7
  6
CONTINUOUS
 10
236.300000
 20
205.100000
 40
1.000000
 50
0.000000
 51
90.000000
  0
LINE
  8
255
 62
     7
  6
CONTINUOUS
 10
236.300000
 20
206.100000
 11
235.800000
 21
206.100000
  0
ARC
  8
255
 62
     7
  6
CONTINUOUS
 10
235.800000
 20
208.600000
 40
2.500000
 50
180.000000
 51
270.000000
  0
LINE
  8
255
 62
     7
  6
CONTINUOUS
 10
233.300000
 20
208.600000
 11
233.300000
 21
213.600000
  0
ARC
  8
255
 62
     7
  6
CONTINUOUS
 10
235.800000
 20
213.600000
 40
2.500000
 50
90.000000
 51
180.000000
  0
LINE
  8
255
 62
     7
  6
CONTINUOUS
 10
235.800000
 20
216.100000
 11
245.800000
 21
216.100000
  0
ARC
  8
255
 62
     7
  6
CONTINUOUS
 10
245.839197
 20
224.113942
 40
8.014038
 50
269.719763
 51
309.160306
  0
ARC
  8
255
 62
     7
  6
CONTINUOUS
 10
271.130170
 20
193.311789
 40
31.840853
 50
93.295101
 51
129.446144
  0
LINE
  8
255
 62
     7
  6
CONTINUOUS
 10
269.300000
 20
225.100000
 11
269.300000
 21
215.600000
  0
ARC
  8
255
 62
     7
  6
CONTINUOUS
 10
270.800000
 20
215.600000
 40
1.500000
 50
180.000000
 51
0.000000
  0
LINE
  8
255
 62
     7
  6
CONTINUOUS
 10
272.300000
 20
215.600000
 11
272.300000
 21
225.000000
  0
ARC
  8
255
 62
     7
  6
CONTINUOUS
 10
270.740508
 20
193.284423
 40
31.753895
 50
50.823048
 51
87.184968
  0
ARC
  8
255
 62
     7
  6
CONTINUOUS
 10
295.860803
 20
224.113942
 40
8.014038
 50
230.839694
 51
270.280237
  0
LINE
  8
255
 62
     7
  6
CONTINUOUS
 10
295.900000
 20
216.100000
 11
305.800000
 21
216.100000
  0
ARC
  8
255
 62
     7
  6
CONTINUOUS
 10
305.800000
 20
213.600000
 40
2.500000
 50
0.000000
 51
90.000000
  0
LINE
  8
255
 62
     7
  6
CONTINUOUS
 10
308.300000
 20
213.600000
 11
308.300000
 21
208.600000
  0
ARC
  8
255
 62
     7
  6
CONTINUOUS
 10
305.800000
 20
208.600000
 40
2.500000
 50
270.000000
 51
0.000000
  0
LINE
  8
255
 62
     7
  6
CONTINUOUS
 10
305.800000
 20
206.100000
 11
305.300000
 21
206.100000
  0
ARC
  8
255
 62
     7
  6
CONTINUOUS
 10
305.300000
 20
205.100000
 40
1.000000
 50
90.000000
 51
180.000000
  0
LINE
  8
255
 62
     7
  6
CONTINUOUS
 10
304.300000
 20
205.100000
 11
304.300000
 21
187.600000
  0
ARC
  8
255
 62
     7
  6
CONTINUOUS
 10
301.800000
 20
187.600000
 40
2.500000
 50
270.000000
 51
0.000000
  0
LINE
  8
255
 62
     7
  6
CONTINUOUS
 10
301.800000
 20
185.100000
 11
297.300000
 21
185.100000
  0
ARC
  8
255
 62
     7
  6
CONTINUOUS
 10
187.900000
 20
147.300000
 40
10.000000
 50
0.000000
 51
90.000000
  0
LINE
  8
255
 62
     7
  6
CONTINUOUS
 10
197.900000
 20
135.300000
 11
197.900000
 21
147.300000
  0
ARC
  8
255
 62
     7
  6
CONTINUOUS
 10
187.900000
 20
135.300000
 40
10.000000
 50
270.000000
 51
0.000000
  0
LINE
  8
255
 62
     7
  6
CONTINUOUS
 10
167.900000
 20
125.300000
 11
187.900000
 21
125.300000
  0
ARC
  8
255
 62
     7
  6
CONTINUOUS
 10
167.900000
 20
128.300000
 40
3.000000
 50
180.000000
 51
270.000000
  0
LINE
  8
255
 62
     7
  6
CONTINUOUS
 10
164.900000
 20
154.300000
 11
164.900000
 21
128.300000
  0
ARC
  8
255
 62
     7
  6
CONTINUOUS
 10
167.900000
 20
154.300000
 40
3.000000
 50
90.000000
 51
180.000000
  0
LINE
  8
255
 62
     7
  6
CONTINUOUS
 10
187.900000
 20
157.300000
 11
167.900000
 21
157.300000
  0
LINE
  8
255
 62
     7
  6
CONTINUOUS
 10
217.400000
 20
207.300000
 11
217.400000
 21
174.800000
  0
ARC
  8
255
 62
     7
  6
CONTINUOUS
 10
218.900000
 20
174.800000
 40
1.500000
 50
180.000000
 51
0.000000
  0
LINE
  8
255
 62
     7
  6
CONTINUOUS
 10
220.400000
 20
174.800000
 11
220.400000
 21
207.300000
  0
LINE
  8
255
 62
     7
  6
CONTINUOUS
 10
220.400000
 20
207.300000
 11
223.900000
 21
207.300000
  0
ARC
  8
255
 62
     7
  6
CONTINUOUS
 10
223.900000
 20
204.300000
 40
3.000000
 50
0.000000
 51
90.000000
  0
LINE
  8
255
 62
     7
  6
CONTINUOUS
 10
226.900000
 20
204.300000
 11
226.900000
 21
145.300000
  0
ARC
  8
255
 62
     7
  6
CONTINUOUS
 10
223.900000
 20
145.300000
 40
3.000000
 50
270.000000
 51
0.000000
  0
LINE
  8
255
 62
     7
  6
CONTINUOUS
 10
223.900000
 20
142.300000
 11
212.700000
 21
142.300000
  0
ARC
  8
255
 62
     7
  6
CONTINUOUS
 10
212.706570
 20
139.308364
 40
2.991643
 50
90.125834
 51
193.696620
  0
LINE
  8
255
 62
     7
  6
CONTINUOUS
 10
209.800000
 20
138.600000
 11
211.600000
 21
131.000000
  0
ARC
  8
255
 62
     7
  6
CONTINUOUS
 10
217.434947
 20
132.271850
 40
5.971952
 50
192.296491
 51
269.664708
  0
LINE
  8
255
 62
     7
  6
CONTINUOUS
 10
217.400000
 20
126.300000
 11
223.900000
 21
126.300000
  0
ARC
  8
255
 62
     7
  6
CONTINUOUS
 10
223.900000
 20
123.300000
 40
3.000000
 50
0.000000
 51
90.000000
  0
LINE
  8
255
 62
     7
  6
CONTINUOUS
 10
226.900000
 20
123.300000
 11
226.900000
 21
120.300000
  0
LINE
  8
255
 62
     7
  6
CONTINUOUS
 10
226.900000
 20
120.300000
 11
188.400000
 21
120.300000
  0
ARC
  8
255
 62
     7
  6
CONTINUOUS
 10
188.400000
 20
118.800000
 40
1.500000
 50
90.000000
 51
270.000000
  0
LINE
  8
255
 62
     7
  6
CONTINUOUS
 10
188.400000
 20
117.300000
 11
226.900000
 21
117.300000
  0
LINE
  8
255
 62
     7
  6
CONTINUOUS
 10
226.900000
 20
117.300000
 11
226.900000
 21
114.300000
  0
ARC
  8
255
 62
     7
  6
CONTINUOUS
 10
223.900000
 20
114.300000
 40
3.000000
 50
270.000000
 51
0.000000
  0
LINE
  8
255
 62
     7
  6
CONTINUOUS
 10
223.900000
 20
111.300000
 11
149.900000
 21
111.300000
  0
ARC
  8
255
 62
     7
  6
CONTINUOUS
 10
149.900000
 20
114.300000
 40
3.000000
 50
180.000000
 51
270.000000
  0
LINE
  8
255
 62
     7
  6
CONTINUOUS
 10
146.900000
 20
114.300000
 11
146.900000
 21
123.300000
  0
ARC
  8
255
 62
     7
  6
CONTINUOUS
 10
149.900000
 20
123.300000
 40
3.000000
 50
90.000000
 51
180.000000
  0
LINE
  8
255
 62
     7
  6
CONTINUOUS
 10
149.900000
 20
126.300000
 11
151.900000
 21
126.300000
  0
ARC
  8
255
 62
     7
  6
CONTINUOUS
 10
151.900000
 20
129.300000
 40
3.000000
 50
270.000000
 51
0.000000
  0
LINE
  8
255
 62
     7
  6
CONTINUOUS
 10
154.900000
 20
129.300000
 11
154.900000
 21
154.300000
  0
ARC
  8
255
 62
     7
  6
CONTINUOUS
 10
151.900000
 20
154.300000
 40
3.000000
 50
0.000000
 51
90.000000
  0
LINE
  8
255
 62
     7
  6
CONTINUOUS
 10
151.900000
 20
157.300000
 11
19.900000
 21
157.300000
  0
ARC
  8
255
 62
     7
  6
CONTINUOUS
 10
19.900000
 20
160.300000
 40
3.000000
 50
180.000000
 51
270.000000
  0
LINE
  8
255
 62
     7
  6
CONTINUOUS
 10
16.900000
 20
160.300000
 11
16.900000
 21
163.300000
  0
LINE
  8
255
 62
     7
  6
CONTINUOUS
 10
16.900000
 20
163.300000
 11
38.400000
 21
163.300000
  0
ARC
  8
255
 62
     7
  6
CONTINUOUS
 10
38.400000
 20
164.800000
 40
1.500000
 50
270.000000
 51
90.000000
  0
LINE
  8
255
 62
     7
  6
CONTINUOUS
 10
38.400000
 20
166.300000
 11
16.900000
 21
166.300000
  0
LINE
  8
255
 62
     7
  6
CONTINUOUS
 10
16.900000
 20
166.300000
 11
16.900000
 21
173.800000
  0
ARC
  8
255
 62
     7
  6
CONTINUOUS
 10
15.400000
 20
173.800000
 40
1.500000
 50
0.000000
 51
180.000000
  0
LINE
  8
255
 62
     7
  6
CONTINUOUS
 10
13.900000
 20
173.800000
 11
13.900000
 21
166.300000
  0
LINE
  8
255
 62
     7
  6
CONTINUOUS
 10
13.900000
 20
166.300000
 11
9.900000
 21
166.300000
  0
ARC
  8
255
 62
     7
  6
CONTINUOUS
 10
9.900000
 20
169.300000
 40
3.000000
 50
180.000000
 51
270.000000
  0
LINE
  8
255
 62
     7
  6
CONTINUOUS
 10
6.900000
 20
169.300000
 11
6.900000
 21
204.300000
  0
ARC
  8
255
 62
     7
  6
CONTINUOUS
 10
9.900000
 20
204.300000
 40
3.000000
 50
90.000000
 51
180.000000
  0
LINE
  8
255
 62
     7
  6
CONTINUOUS
 10
9.900000
 20
207.300000
 11
19.900000
 21
207.300000
  0
LINE
  8
255
 62
     7
  6
CONTINUOUS
 10
19.900000
 20
207.300000
 11
19.900000
 21
200.800000
  0
ARC
  8
255
 62
     7
  6
CONTINUOUS
 10
21.400000
 20
200.800000
 40
1.500000
 50
180.000000
 51
0.000000
  0
LINE
  8
255
 62
     7
  6
CONTINUOUS
 10
22.900000
 20
200.800000
 11
22.900000
 21
207.300000
  0
LINE
  8
255
 62
     7
  6
CONTINUOUS
 10
22.900000
 20
207.300000
 11
77.900000
 21
207.300000
  0
LINE
  8
255
 62
     7
  6
CONTINUOUS
 10
77.900000
 20
207.300000
 11
77.900000
 21
200.800000
  0
ARC
  8
255
 62
     7
  6
CONTINUOUS
 10
79.400000
 20
200.800000
 40
1.500000
 50
180.000000
 51
0.000000
  0
LINE
  8
255
 62
     7
  6
CONTINUOUS
 10
80.900000
 20
200.800000
 11
80.900000
 21
207.300000
  0
LINE
  8
255
 62
     7
  6
CONTINUOUS
 10
80.900000
 20
207.300000
 11
134.900000
 21
207.300000
  0
LINE
  8
255
 62
     7
  6
CONTINUOUS
 10
134.900000
 20
207.300000
 11
134.900000
 21
200.800000
  0
ARC
  8
255
 62
     7
  6
CONTINUOUS
 10
136.400000
 20
200.800000
 40
1.500000
 50
180.000000
 51
0.000000
  0
LINE
  8
255
 62
     7
  6
CONTINUOUS
 10
137.900000
 20
200.800000
 11
137.900000
 21
207.300000
  0
LINE
  8
255
 62
     7
  6
CONTINUOUS
 10
137.900000
 20
207.300000
 11
194.900000
 21
207.300000
  0
LINE
  8
255
 62
     7
  6
CONTINUOUS
 10
194.900000
 20
207.300000
 11
194.900000
 21
200.800000
  0
ARC
  8
255
 62
     7
  6
CONTINUOUS
 10
196.400000
 20
200.800000
 40
1.500000
 50
180.000000
 51
0.000000
  0
LINE
  8
255
 62
     7
  6
CONTINUOUS
 10
197.900000
 20
200.800000
 11
197.900000
 21
207.300000
  0
LINE
  8
255
 62
     7
  6
CONTINUOUS
 10
197.900000
 20
207.300000
 11
217.400000
 21
207.300000
  0
LINE
  8
255
 62
     7
  6
CONTINUOUS
 10
210.900000
 20
226.900000
 11
206.400000
 21
226.900000
  0
ARC
  8
255
 62
     7
  6
CONTINUOUS
 10
206.400000
 20
225.400000
 40
1.500000
 50
90.000000
 51
270.000000
  0
LINE
  8
255
 62
     7
  6
CONTINUOUS
 10
206.400000
 20
223.900000
 11
210.900000
 21
223.900000
  0
LINE
  8
255
 62
     7
  6
CONTINUOUS
 10
210.900000
 20
223.900000
 11
210.900000
 21
219.900000
  0
ARC
  8
255
 62
     7
  6
CONTINUOUS
 10
207.900000
 20
219.900000
 40
3.000000
 50
270.000000
 51
0.000000
  0
LINE
  8
255
 62
     7
  6
CONTINUOUS
 10
207.900000
 20
216.900000
 11
202.100000
 21
216.900000
  0
ARC
  8
255
 62
     7
  6
CONTINUOUS
 10
202.120142
 20
214.907630
 40
1.992472
 50
90.579223
 51
131.495799
  0
LINE
  8
255
 62
     7
  6
CONTINUOUS
 10
200.800000
 20
216.400000
 11
196.800000
 21
212.700000
  0
ARC
  8
255
 62
     7
  6
CONTINUOUS
 10
194.764574
 20
214.886742
 40
2.987440
 50
268.761437
 51
312.947479
  0
LINE
  8
255
 62
     7
  6
CONTINUOUS
 10
194.700000
 20
211.900000
 11
167.900000
 21
211.900000
  0
ARC
  8
255
 62
     7
  6
CONTINUOUS
 10
167.900000
 20
216.900000
 40
5.000000
 50
180.000000
 51
270.000000
  0
LINE
  8
255
 62
     7
  6
CONTINUOUS
 10
162.900000
 20
216.900000
 11
162.900000
 21
239.900000
  0
ARC
  8
255
 62
     7
  6
CONTINUOUS
 10
165.900000
 20
239.900000
 40
3.000000
 50
0.000000
 51
180.000000
  0
LINE
  8
255
 62
     7
  6
CONTINUOUS
 10
168.900000
 20
239.900000
 11
168.900000
 21
219.900000
  0
ARC
  8
255
 62
     7
  6
CONTINUOUS
 10
170.900000
 20
219.900000
 40
2.000000
 50
180.000000
 51
270.000000
  0
LINE
  8
255
 62
     7
  6
CONTINUOUS
 10
170.900000
 20
217.900000
 11
190.900000
 21
217.900000
  0
ARC
  8
255
 62
     7
  6
CONTINUOUS
 10
190.900000
 20
219.900000
 40
2.000000
 50
270.000000
 51
0.000000
  0
LINE
  8
255
 62
     7
  6
CONTINUOUS
 10
192.900000
 20
219.900000
 11
192.900000
 21
229.900000
  0
ARC
  8
255
 62
     7
  6
CONTINUOUS
 10
194.900000
 20
229.900000
 40
2.000000
 50
90.000000
 51
180.000000
  0
LINE
  8
255
 62
     7
  6
CONTINUOUS
 10
194.900000
 20
231.900000
 11
207.900000
 21
231.900000
  0
ARC
  8
255
 62
     7
  6
CONTINUOUS
 10
207.900000
 20
228.900000
 40
3.000000
 50
0.000000
 51
90.000000
  0
LINE
  8
255
 62
     7
  6
CONTINUOUS
 10
210.900000
 20
228.900000
 11
210.900000
 21
226.900000
  0
ARC
  8
255
 62
     7
  6
CONTINUOUS
 10
266.300000
 20
257.700000
 40
2.500000
 50
270.000000
 51
90.000000
  0
LINE
  8
255
 62
     7
  6
CONTINUOUS
 10
266.300000
 20
260.200000
 11
239.600000
 21
260.200000
  0
ARC
  8
255
 62
     7
  6
CONTINUOUS
 10
239.600000
 20
257.700000
 40
2.500000
 50
90.000000
 51
270.000000
  0
LINE
  8
255
 62
     7
  6
CONTINUOUS
 10
239.600000
 20
255.200000
 11
266.300000
 21
255.200000
  0
ARC
  8
255
 62
     7
  6
CONTINUOUS
 10
269.300000
 20
265.700000
 40
2.500000
 50
270.000000
 51
90.000000
  0
LINE
  8
255
 62
     7
  6
CONTINUOUS
 10
269.300000
 20
268.200000
 11
235.200000
 21
268.200000
  0
ARC
  8
255
 62
     7
  6
CONTINUOUS
 10
235.200000
 20
265.700000
 40
2.500000
 50
90.000000
 51
270.000000
  0
LINE
  8
255
 62
     7
  6
CONTINUOUS
 10
235.200000
 20
263.200000
 11
269.300000
 21
263.200000
  0
ARC
  8
255
 62
     7
  6
CONTINUOUS
 10
269.300000
 20
273.700000
 40
2.500000
 50
270.000000
 51
90.000000
  0
LINE
  8
255
 62
     7
  6
CONTINUOUS
 10
269.300000
 20
276.200000
 11
234.300000
 21
276.200000
  0
ARC
  8
255
 62
     7
  6
CONTINUOUS
 10
234.300000
 20
273.700000
 40
2.500000
 50
90.000000
 51
270.000000
  0
LINE
  8
255
 62
     7
  6
CONTINUOUS
 10
234.300000
 20
271.200000
 11
269.300000
 21
271.200000
  0
ARC
  8
255
 62
     7
  6
CONTINUOUS
 10
269.300000
 20
281.700000
 40
2.500000
 50
270.000000
 51
90.000000
  0
LINE
  8
255
 62
     7
  6
CONTINUOUS
 10
269.300000
 20
284.200000
 11
235.200000
 21
284.200000
  0
ARC
  8
255
 62
     7
  6
CONTINUOUS
 10
235.200000
 20
281.700000
 40
2.500000
 50
90.000000
 51
270.000000
  0
LINE
  8
255
 62
     7
  6
CONTINUOUS
 10
235.200000
 20
279.200000
 11
269.300000
 21
279.200000
  0
ARC
  8
255
 62
     7
  6
CONTINUOUS
 10
266.300000
 20
289.700000
 40
2.500000
 50
270.000000
 51
90.000000
  0
LINE
  8
255
 62
     7
  6
CONTINUOUS
 10
266.300000
 20
292.200000
 11
239.600000
 21
292.200000
  0
ARC
  8
255
 62
     7
  6
CONTINUOUS
 10
239.600000
 20
289.700000
 40
2.500000
 50
90.000000
 51
270.000000
  0
LINE
  8
255
 62
     7
  6
CONTINUOUS
 10
239.600000
 20
287.200000
 11
266.300000
 21
287.200000
  0
ARC
  8
255
 62
     7
  6
CONTINUOUS
 10
251.779721
 20
306.428752
 40
6.020348
 50
359.726370
 51
70.392485
  0
LINE
  8
255
 62
     7
  6
CONTINUOUS
 10
253.800000
 20
312.100000
 11
253.500000
 21
312.200000
  0
ARC
  8
255
 62
     7
  6
CONTINUOUS
 10
251.789956
 20
307.496204
 40
5.004993
 50
70.021492
 51
151.296328
  0
LINE
  8
255
 62
     7
  6
CONTINUOUS
 10
247.400000
 20
309.900000
 11
242.800000
 21
301.600000
  0
ARC
  8
255
 62
     7
  6
CONTINUOUS
 10
245.487379
 20
300.220664
 40
3.020691
 50
152.830187
 51
270.239397
  0
LINE
  8
255
 62
     7
  6
CONTINUOUS
 10
245.500000
 20
297.200000
 11
251.800000
 21
297.200000
  0
ARC
  8
255
 62
     7
  6
CONTINUOUS
 10
251.800000
 20
303.200000
 40
6.000000
 50
270.000000
 51
0.000000
  0
LINE
  8
255
 62
     7
  6
CONTINUOUS
 10
257.800000
 20
303.200000
 11
257.800000
 21
306.400000
  0
ARC
  8
255
 62
     7
  6
CONTINUOUS
 10
251.800000
 20
244.200000
 40
6.000000
 50
0.000000
 51
90.000000
  0
LINE
  8
255
 62
     7
  6
CONTINUOUS
 10
251.800000
 20
250.200000
 11
245.500000
 21
250.200000
  0
ARC
  8
255
 62
     7
  6
CONTINUOUS
 10
245.473718
 20
247.155769
 40
3.044345
 50
89.505365
 51
208.567122
  0
LINE
  8
255
 62
     7
  6
CONTINUOUS
 10
242.800000
 20
245.700000
 11
247.400000
 21
237.400000
  0
ARC
  8
255
 62
     7
  6
CONTINUOUS
 10
251.822981
 20
239.891384
 40
5.076392
 50
209.391761
 51
289.290418
  0
LINE
  8
255
 62
     7
  6
CONTINUOUS
 10
253.500000
 20
235.100000
 11
253.800000
 21
235.300000
  0
ARC
  8
255
 62
     7
  6
CONTINUOUS
 10
251.826907
 20
240.937924
 40
5.973214
 50
289.288417
 51
359.636228
  0
LINE
  8
255
 62
     7
  6
CONTINUOUS
 10
257.800000
 20
240.900000
 11
257.800000
 21
244.200000
  0
LINE
  8
255
 62
     7
  6
CONTINUOUS
 10
272.800000
 20
303.200000
 11
268.300000
 21
303.200000
  0
ARC
  8
255
 62
     7
  6
CONTINUOUS
 10
268.300000
 20
301.700000
 40
1.500000
 50
90.000000
 51
270.000000
  0
LINE
  8
255
 62
     7
  6
CONTINUOUS
 10
268.300000
 20
300.200000
 11
272.800000
 21
300.200000
  0
LINE
  8
255
 62
     7
  6
CONTINUOUS
 10
272.800000
 20
300.200000
 11
272.800000
 21
299.300000
  0
ARC
  8
255
 62
     7
  6
CONTINUOUS
 10
275.400000
 20
299.300000
 40
2.600000
 50
180.000000
 51
270.000000
  0
LINE
  8
255
 62
     7
  6
CONTINUOUS
 10
275.400000
 20
296.700000
 11
275.800000
 21
296.700000
  0
ARC
  8
255
 62
     7
  6
CONTINUOUS
 10
275.800000
 20
293.700000
 40
3.000000
 50
0.000000
 51
90.000000
  0
LINE
  8
255
 62
     7
  6
CONTINUOUS
 10
278.800000
 20
293.700000
 11
278.800000
 21
253.700000
  0
ARC
  8
255
 62
     7
  6
CONTINUOUS
 10
275.800000
 20
253.700000
 40
3.000000
 50
270.000000
 51
0.000000
  0
LINE
  8
255
 62
     7
  6
CONTINUOUS
 10
275.800000
 20
250.700000
 11
275.400000
 21
250.700000
  0
ARC
  8
255
 62
     7
  6
CONTINUOUS
 10
275.400000
 20
248.100000
 40
2.600000
 50
90.000000
 51
180.000000
  0
LINE
  8
255
 62
     7
  6
CONTINUOUS
 10
272.800000
 20
248.100000
 11
272.800000
 21
247.200000
  0
LINE
  8
255
 62
     7
  6
CONTINUOUS
 10
272.800000
 20
247.200000
 11
268.300000
 21
247.200000
  0
ARC
  8
255
 62
     7
  6
CONTINUOUS
 10
268.300000
 20
245.700000
 40
1.500000
 50
90.000000
 51
270.000000
  0
LINE
  8
255
 62
     7
  6
CONTINUOUS
 10
268.300000
 20
244.200000
 11
272.800000
 21
244.200000
  0
LINE
  8
255
 62
     7
  6
CONTINUOUS
 10
272.800000
 20
244.200000
 11
272.800000
 21
237.800000
  0
ARC
  8
255
 62
     7
  6
CONTINUOUS
 10
269.813453
 20
237.818962
 40
2.986607
 50
289.288417
 51
359.636228
  0
LINE
  8
255
 62
     7
  6
CONTINUOUS
 10
270.800000
 20
235.000000
 11
249.600000
 21
227.400000
  0
ARC
  8
255
 62
     7
  6
CONTINUOUS
 10
247.519290
 20
232.992894
 40
5.967396
 50
208.998275
 51
290.406585
  0
LINE
  8
255
 62
     7
  6
CONTINUOUS
 10
242.300000
 20
230.100000
 11
232.400000
 21
248.000000
  0
ARC
  8
255
 62
     7
  6
CONTINUOUS
 10
278.796767
 20
273.612594
 40
52.996839
 50
179.905504
 51
208.900192
  0
ARC
  8
255
 62
     7
  6
CONTINUOUS
 10
278.796767
 20
273.787406
 40
52.996839
 50
151.099808
 51
180.094496
  0
LINE
  8
255
 62
     7
  6
CONTINUOUS
 10
232.400000
 20
299.400000
 11
242.300000
 21
317.200000
  0
ARC
  8
255
 62
     7
  6
CONTINUOUS
 10
247.599403
 20
314.299771
 40
6.041109
 50
70.660567
 51
151.309228
  0
LINE
  8
255
 62
     7
  6
CONTINUOUS
 10
249.600000
 20
320.000000
 11
270.800000
 21
312.400000
  0
ARC
  8
255
 62
     7
  6
CONTINUOUS
 10
269.813453
 20
309.581038
 40
2.986607
 50
0.363772
 51
70.711583
  0
LINE
  8
255
 62
     7
  6
CONTINUOUS
 10
272.800000
 20
309.600000
 11
272.800000
 21
303.200000
  0
LINE
  8
255
 62
     7
  6
CONTINUOUS
 10
249.800000
 20
330.200000
 11
249.800000
 21
361.300000
  0
ARC
  8
255
 62
     7
  6
CONTINUOUS
 10
248.300000
 20
361.300000
 40
1.500000
 50
0.000000
 51
180.000000
  0
LINE
  8
255
 62
     7
  6
CONTINUOUS
 10
246.800000
 20
361.300000
 11
246.800000
 21
330.200000
  0
LINE
  8
255
 62
     7
  6
CONTINUOUS
 10
246.800000
 20
330.200000
 11
231.700000
 21
330.200000
  0
ARC
  8
255
 62
     7
  6
CONTINUOUS
 10
231.703603
 20
333.576304
 40
3.376305
 50
107.292445
 51
269.938851
  0
LINE
  8
255
 62
     7
  6
CONTINUOUS
 10
230.700000
 20
336.800000
 11
233.200000
 21
337.500000
  0
ARC
  8
255
 62
     7
  6
CONTINUOUS
 10
232.281879
 20
340.375191
 40
3.018223
 50
287.709589
 51
0.470965
  0
LINE
  8
255
 62
     7
  6
CONTINUOUS
 10
235.300000
 20
340.400000
 11
235.300000
 21
375.400000
  0
ARC
  8
255
 62
     7
  6
CONTINUOUS
 10
233.269760
 20
375.446691
 40
2.030776
 50
358.682563
 51
65.868726
  0
LINE
  8
255
 62
     7
  6
CONTINUOUS
 10
234.100000
 20
377.300000
 11
231.200000
 21
378.400000
  0
ARC
  8
255
 62
     7
  6
CONTINUOUS
 10
232.296187
 20
381.219237
 40
3.024852
 50
133.867144
 51
248.752720
  0
LINE
  8
255
 62
     7
  6
CONTINUOUS
 10
230.200000
 20
383.400000
 11
234.400000
 21
387.400000
  0
ARC
  8
255
 62
     7
  6
CONTINUOUS
 10
236.435426
 20
385.213258
 40
2.987440
 50
88.761437
 51
132.947479
  0
LINE
  8
255
 62
     7
  6
CONTINUOUS
 10
236.500000
 20
388.200000
 11
260.100000
 21
388.200000
  0
ARC
  8
255
 62
     7
  6
CONTINUOUS
 10
260.164574
 20
385.213258
 40
2.987440
 50
47.052521
 51
91.238563
  0
LINE
  8
255
 62
     7
  6
CONTINUOUS
 10
262.200000
 20
387.400000
 11
266.400000
 21
383.400000
  0
ARC
  8
255
 62
     7
  6
CONTINUOUS
 10
264.303813
 20
381.219237
 40
3.024852
 50
291.247280
 51
46.132856
  0
LINE
  8
255
 62
     7
  6
CONTINUOUS
 10
265.400000
 20
378.400000
 11
262.500000
 21
377.300000
  0
ARC
  8
255
 62
     7
  6
CONTINUOUS
 10
263.284701
 20
375.475452
 40
1.986135
 50
113.271563
 51
182.177148
  0
LINE
  8
255
 62
     7
  6
CONTINUOUS
 10
261.300000
 20
375.400000
 11
261.300000
 21
340.400000
  0
ARC
  8
255
 62
     7
  6
CONTINUOUS
 10
264.318121
 20
340.375191
 40
3.018223
 50
179.529035
 51
252.290411
  0
LINE
  8
255
 62
     7
  6
CONTINUOUS
 10
263.400000
 20
337.500000
 11
265.900000
 21
336.800000
  0
ARC
  8
255
 62
     7
  6
CONTINUOUS
 10
264.896397
 20
333.576304
 40
3.376305
 50
270.061149
 51
72.707555
  0
LINE
  8
255
 62
     7
  6
CONTINUOUS
 10
264.900000
 20
330.200000
 11
249.800000
 21
330.200000
  0
ARC
  8
255
 62
     7
  6
CONTINUOUS
 10
219.300000
 20
397.100000
 40
1.500000
 50
0.000000
 51
180.000000
  0
LINE
  8
255
 62
     7
  6
CONTINUOUS
 10
217.800000
 20
397.100000
 11
217.800000
 21
390.600000
  0
LINE
  8
255
 62
     7
  6
CONTINUOUS
 10
217.800000
 20
390.600000
 11
215.300000
 21
390.600000
  0
ARC
  8
255
 62
     7
  6
CONTINUOUS
 10
215.300000
 20
393.600000
 40
3.000000
 50
180.000000
 51
270.000000
  0
LINE
  8
255
 62
     7
  6
CONTINUOUS
 10
212.300000
 20
393.600000
 11
212.300000
 21
404.600000
  0
LINE
  8
255
 62
     7
  6
CONTINUOUS
 10
212.300000
 20
404.600000
 11
176.300000
 21
404.600000
  0
LINE
  8
255
 62
     7
  6
CONTINUOUS
 10
176.300000
 20
404.600000
 11
176.300000
 21
393.600000
  0
ARC
  8
255
 62
     7
  6
CONTINUOUS
 10
173.300000
 20
393.600000
 40
3.000000
 50
270.000000
 51
0.000000
  0
LINE
  8
255
 62
     7
  6
CONTINUOUS
 10
173.300000
 20
390.600000
 11
170.800000
 21
390.600000
  0
LINE
  8
255
 62
     7
  6
CONTINUOUS
 10
170.800000
 20
390.600000
 11
170.800000
 21
397.100000
  0
ARC
  8
255
 62
     7
  6
CONTINUOUS
 10
169.300000
 20
397.100000
 40
1.500000
 50
0.000000
 51
180.000000
  0
LINE
  8
255
 62
     7
  6
CONTINUOUS
 10
167.800000
 20
397.100000
 11
167.800000
 21
390.600000
  0
LINE
  8
255
 62
     7
  6
CONTINUOUS
 10
167.800000
 20
390.600000
 11
163.300000
 21
390.600000
  0
ARC
  8
255
 62
     7
  6
CONTINUOUS
 10
163.300000
 20
393.600000
 40
3.000000
 50
180.000000
 51
270.000000
  0
LINE
  8
255
 62
     7
  6
CONTINUOUS
 10
160.300000
 20
393.600000
 11
160.300000
 21
404.000000
  0
ARC
  8
255
 62
     7
  6
CONTINUOUS
 10
158.300000
 20
404.000000
 40
2.000000
 50
0.000000
 51
90.000000
  0
LINE
  8
255
 62
     7
  6
CONTINUOUS
 10
158.300000
 20
406.000000
 11
152.300000
 21
406.000000
  0
ARC
  8
255
 62
     7
  6
CONTINUOUS
 10
152.300000
 20
408.000000
 40
2.000000
 50
180.000000
 51
270.000000
  0
LINE
  8
255
 62
     7
  6
CONTINUOUS
 10
150.300000
 20
408.000000
 11
150.300000
 21
423.000000
  0
ARC
  8
255
 62
     7
  6
CONTINUOUS
 10
152.300000
 20
423.000000
 40
2.000000
 50
0.000000
 51
180.000000
  0
LINE
  8
255
 62
     7
  6
CONTINUOUS
 10
154.300000
 20
423.000000
 11
154.300000
 21
413.000000
  0
LINE
  8
255
 62
     7
  6
CONTINUOUS
 10
154.300000
 20
413.000000
 11
161.800000
 21
413.000000
  0
LINE
  8
255
 62
     7
  6
CONTINUOUS
 10
161.800000
 20
413.000000
 11
161.800000
 21
423.000000
  0
ARC
  8
255
 62
     7
  6
CONTINUOUS
 10
163.800000
 20
423.000000
 40
2.000000
 50
90.000000
 51
180.000000
  0
LINE
  8
255
 62
     7
  6
CONTINUOUS
 10
163.800000
 20
425.000000
 11
165.300000
 21
425.000000
  0
ARC
  8
255
 62
     7
  6
CONTINUOUS
 10
165.300000
 20
423.000000
 40
2.000000
 50
0.000000
 51
90.000000
  0
LINE
  8
255
 62
     7
  6
CONTINUOUS
 10
167.300000
 20
423.000000
 11
167.300000
 21
414.600000
  0
LINE
  8
255
 62
     7
  6
CONTINUOUS
 10
167.300000
 20
414.600000
 11
221.300000
 21
414.600000
  0
LINE
  8
255
 62
     7
  6
CONTINUOUS
 10
221.300000
 20
414.600000
 11
221.300000
 21
423.000000
  0
ARC
  8
255
 62
     7
  6
CONTINUOUS
 10
223.300000
 20
423.000000
 40
2.000000
 50
90.000000
 51
180.000000
  0
LINE
  8
255
 62
     7
  6
CONTINUOUS
 10
223.300000
 20
425.000000
 11
224.800000
 21
425.000000
  0
ARC
  8
255
 62
     7
  6
CONTINUOUS
 10
224.800000
 20
423.000000
 40
2.000000
 50
0.000000
 51
90.000000
  0
LINE
  8
255
 62
     7
  6
CONTINUOUS
 10
226.800000
 20
423.000000
 11
226.800000
 21
413.000000
  0
LINE
  8
255
 62
     7
  6
CONTINUOUS
 10
226.800000
 20
413.000000
 11
234.300000
 21
413.000000
  0
LINE
  8
255
 62
     7
  6
CONTINUOUS
 10
234.300000
 20
413.000000
 11
234.300000
 21
423.000000
  0
ARC
  8
255
 62
     7
  6
CONTINUOUS
 10
236.300000
 20
423.000000
 40
2.000000
 50
0.000000
 51
180.000000
  0
LINE
  8
255
 62
     7
  6
CONTINUOUS
 10
238.300000
 20
423.000000
 11
238.300000
 21
408.000000
  0
ARC
  8
255
 62
     7
  6
CONTINUOUS
 10
236.300000
 20
408.000000
 40
2.000000
 50
270.000000
 51
0.000000
  0
LINE
  8
255
 62
     7
  6
CONTINUOUS
 10
236.300000
 20
406.000000
 11
230.300000
 21
406.000000
  0
ARC
  8
255
 62
     7
  6
CONTINUOUS
 10
230.300000
 20
404.000000
 40
2.000000
 50
90.000000
 51
180.000000
  0
LINE
  8
255
 62
     7
  6
CONTINUOUS
 10
228.300000
 20
404.000000
 11
228.300000
 21
393.600000
  0
ARC
  8
255
 62
     7
  6
CONTINUOUS
 10
225.300000
 20
393.600000
 40
3.000000
 50
270.000000
 51
0.000000
  0
LINE
  8
255
 62
     7
  6
CONTINUOUS
 10
225.300000
 20
390.600000
 11
220.800000
 21
390.600000
  0
LINE
  8
255
 62
     7
  6
CONTINUOUS
 10
220.800000
 20
390.600000
 11
220.800000
 21
397.100000
  0
LINE
  8
255
 62
     7
  6
CONTINUOUS
 10
215.200000
 20
449.900000
 11
225.600000
 21
449.900000
  0
ARC
  8
255
 62
     7
  6
CONTINUOUS
 10
225.600000
 20
451.400000
 40
1.500000
 50
270.000000
 51
90.000000
  0
LINE
  8
255
 62
     7
  6
CONTINUOUS
 10
225.600000
 20
452.900000
 11
215.200000
 21
452.900000
  0
LINE
  8
255
 62
     7
  6
CONTINUOUS
 10
215.200000
 20
452.900000
 11
215.400000
 21
453.700000
  0
LINE
  8
255
 62
     7
  6
CONTINUOUS
 10
215.400000
 20
453.700000
 11
225.000000
 21
497.300000
  0
ARC
  8
255
 62
     7
  6
CONTINUOUS
 10
223.572751
 20
497.634362
 40
1.465891
 50
346.815066
 51
88.934902
  0
ARC
  8
255
 62
     7
  6
CONTINUOUS
 10
223.595602
 20
509.603807
 40
10.503808
 50
188.231196
 51
270.023988
  0
LINE
  8
255
 62
     7
  6
CONTINUOUS
 10
213.200000
 20
508.100000
 11
223.600000
 21
508.100000
  0
ARC
  8
255
 62
     7
  6
CONTINUOUS
 10
223.600000
 20
509.600000
 40
1.500000
 50
270.000000
 51
90.000000
  0
LINE
  8
255
 62
     7
  6
CONTINUOUS
 10
223.600000
 20
511.100000
 11
212.800000
 21
511.100000
  0
LINE
  8
255
 62
     7
  6
CONTINUOUS
 10
212.800000
 20
511.100000
 11
225.100000
 21
554.100000
  0
ARC
  8
255
 62
     7
  6
CONTINUOUS
 10
223.608271
 20
554.486803
 40
1.541062
 50
345.463442
 51
79.087847
  0
ARC
  8
255
 62
     7
  6
CONTINUOUS
 10
225.617991
 20
566.381632
 40
10.522821
 50
188.094243
 51
260.603637
  0
LINE
  8
255
 62
     7
  6
CONTINUOUS
 10
215.200000
 20
564.900000
 11
225.600000
 21
564.900000
  0
ARC
  8
255
 62
     7
  6
CONTINUOUS
 10
225.600000
 20
566.400000
 40
1.500000
 50
270.000000
 51
90.000000
  0
LINE
  8
255
 62
     7
  6
CONTINUOUS
 10
225.600000
 20
567.900000
 11
215.200000
 21
567.900000
  0
ARC
  8
255
 62
     7
  6
CONTINUOUS
 10
225.605387
 20
566.306921
 40
10.526632
 50
112.954503
 51
171.295529
  0
ARC
  8
255
 62
     7
  6
CONTINUOUS
 10
220.891108
 20
577.385335
 40
1.513242
 50
293.726766
 51
4.345722
  0
LINE
  8
255
 62
     7
  6
CONTINUOUS
 10
222.400000
 20
577.500000
 11
221.000000
 21
615.000000
  0
ARC
  8
255
 62
     7
  6
CONTINUOUS
 10
219.509242
 20
614.887879
 40
1.494968
 50
4.301175
 51
70.836008
  0
ARC
  8
255
 62
     7
  6
CONTINUOUS
 10
223.134795
 20
626.359187
 40
10.536326
 50
187.960537
 51
252.691135
  0
LINE
  8
255
 62
     7
  6
CONTINUOUS
 10
212.700000
 20
624.900000
 11
223.100000
 21
624.900000
  0
ARC
  8
255
 62
     7
  6
CONTINUOUS
 10
223.100000
 20
626.400000
 40
1.500000
 50
270.000000
 51
90.000000
  0
LINE
  8
255
 62
     7
  6
CONTINUOUS
 10
223.100000
 20
627.900000
 11
212.700000
 21
627.900000
  0
ARC
  8
255
 62
     7
  6
CONTINUOUS
 10
223.100871
 20
626.399371
 40
10.508568
 50
296.562337
 51
171.790069
  0
ARC
  8
255
 62
     7
  6
CONTINUOUS
 10
228.487843
 20
615.678375
 40
1.489906
 50
117.494845
 51
183.015393
  0
LINE
  8
255
 62
     7
  6
CONTINUOUS
 10
227.000000
 20
615.600000
 11
228.400000
 21
577.500000
  0
ARC
  8
255
 62
     7
  6
CONTINUOUS
 10
229.910883
 20
577.584458
 40
1.513242
 50
183.199480
 51
246.190827
  0
ARC
  8
255
 62
     7
  6
CONTINUOUS
 10
225.608498
 20
566.354127
 40
10.515151
 50
311.674492
 51
69.447530
  0
LINE
  8
255
 62
     7
  6
CONTINUOUS
 10
232.600000
 20
558.500000
 11
222.100000
 21
522.000000
  0
ARC
  8
255
 62
     7
  6
CONTINUOUS
 10
223.579693
 20
521.626074
 40
1.526209
 50
165.817964
 51
270.762362
  0
ARC
  8
255
 62
     7
  6
CONTINUOUS
 10
223.591357
 20
509.614548
 40
10.485456
 50
331.429589
 51
89.952773
  0
LINE
  8
255
 62
     7
  6
CONTINUOUS
 10
232.800000
 20
504.600000
 11
223.700000
 21
463.700000
  0
ARC
  8
255
 62
     7
  6
CONTINUOUS
 10
225.187764
 20
463.414804
 40
1.514853
 50
169.148347
 51
270.462795
  0
ARC
  8
255
 62
     7
  6
CONTINUOUS
 10
225.600000
 20
451.400000
 40
10.507616
 50
188.207216
 51
92.181641
  0
ARC
  8
255
 62
     7
  6
CONTINUOUS
 10
258.259943
 20
475.471284
 40
10.463895
 50
188.082901
 51
63.064210
  0
ARC
  8
255
 62
     7
  6
CONTINUOUS
 10
263.687843
 20
486.121625
 40
1.489906
 50
176.984607
 51
242.505155
  0
LINE
  8
255
 62
     7
  6
CONTINUOUS
 10
263.600000
 20
524.300000
 11
262.200000
 21
486.200000
  0
ARC
  8
255
 62
     7
  6
CONTINUOUS
 10
265.093273
 20
524.290519
 40
1.493303
 50
109.288417
 51
179.636228
  0
ARC
  8
255
 62
     7
  6
CONTINUOUS
 10
260.804583
 20
535.525443
 40
10.533020
 50
291.120778
 51
48.383494
  0
LINE
  8
255
 62
     7
  6
CONTINUOUS
 10
257.400000
 20
579.800000
 11
267.800000
 21
543.400000
  0
ARC
  8
255
 62
     7
  6
CONTINUOUS
 10
258.816462
 20
580.222081
 40
1.478011
 50
90.638167
 51
196.593129
  0
ARC
  8
255
 62
     7
  6
CONTINUOUS
 10
258.805607
 20
592.209514
 40
10.509515
 50
269.969431
 51
28.971158
  0
LINE
  8
255
 62
     7
  6
CONTINUOUS
 10
258.900000
 20
638.200000
 11
268.000000
 21
597.300000
  0
ARC
  8
255
 62
     7
  6
CONTINUOUS
 10
260.389007
 20
638.487549
 40
1.516518
 50
85.802798
 51
190.930123
  0
ARC
  8
255
 62
     7
  6
CONTINUOUS
 10
260.798563
 20
650.501707
 40
10.505951
 50
268.371522
 51
171.800881
  0
LINE
  8
255
 62
     7
  6
CONTINUOUS
 10
260.800000
 20
652.000000
 11
250.400000
 21
652.000000
  0
ARC
  8
255
 62
     7
  6
CONTINUOUS
 10
260.800000
 20
650.500000
 40
1.500000
 50
270.000000
 51
90.000000
  0
LINE
  8
255
 62
     7
  6
CONTINUOUS
 10
250.400000
 20
649.000000
 11
260.800000
 21
649.000000
  0
LINE
  8
255
 62
     7
  6
CONTINUOUS
 10
250.600000
 20
648.200000
 11
250.400000
 21
649.000000
  0
LINE
  8
255
 62
     7
  6
CONTINUOUS
 10
260.300000
 20
604.600000
 11
250.600000
 21
648.200000
  0
ARC
  8
255
 62
     7
  6
CONTINUOUS
 10
258.820307
 20
604.226074
 40
1.526209
 50
269.237638
 51
14.182036
  0
ARC
  8
255
 62
     7
  6
CONTINUOUS
 10
258.795602
 20
592.196193
 40
10.503808
 50
89.976012
 51
171.768804
  0
LINE
  8
255
 62
     7
  6
CONTINUOUS
 10
258.800000
 20
593.700000
 11
248.400000
 21
593.700000
  0
ARC
  8
255
 62
     7
  6
CONTINUOUS
 10
258.800000
 20
592.200000
 40
1.500000
 50
270.000000
 51
90.000000
  0
LINE
  8
255
 62
     7
  6
CONTINUOUS
 10
248.000000
 20
590.700000
 11
258.800000
 21
590.700000
  0
LINE
  8
255
 62
     7
  6
CONTINUOUS
 10
260.300000
 20
547.700000
 11
248.000000
 21
590.700000
  0
ARC
  8
255
 62
     7
  6
CONTINUOUS
 10
258.808271
 20
547.313197
 40
1.541062
 50
280.912153
 51
14.536558
  0
ARC
  8
255
 62
     7
  6
CONTINUOUS
 10
260.759469
 20
535.458820
 40
10.473482
 50
99.116640
 51
171.538162
  0
LINE
  8
255
 62
     7
  6
CONTINUOUS
 10
260.800000
 20
537.000000
 11
250.400000
 21
537.000000
  0
ARC
  8
255
 62
     7
  6
CONTINUOUS
 10
260.800000
 20
535.500000
 40
1.500000
 50
270.000000
 51
90.000000
  0
LINE
  8
255
 62
     7
  6
CONTINUOUS
 10
250.400000
 20
534.000000
 11
260.800000
 21
534.000000
  0
ARC
  8
255
 62
     7
  6
CONTINUOUS
 10
260.814453
 20
535.481226
 40
10.519262
 50
188.094769
 51
246.974849
  0
ARC
  8
255
 62
     7
  6
CONTINUOUS
 10
256.088525
 20
524.417623
 40
1.511577
 50
359.331973
 51
66.138480
  0
LINE
  8
255
 62
     7
  6
CONTINUOUS
 10
256.200000
 20
486.900000
 11
257.600000
 21
524.400000
  0
ARC
  8
255
 62
     7
  6
CONTINUOUS
 10
254.706727
 20
486.909481
 40
1.493303
 50
289.288417
 51
359.636228
  0
ARC
  8
255
 62
     7
  6
CONTINUOUS
 10
258.276779
 20
475.472884
 40
10.488548
 50
107.058416
 51
171.628063
  0
LINE
  8
255
 62
     7
  6
CONTINUOUS
 10
258.300000
 20
477.000000
 11
247.900000
 21
477.000000
  0
ARC
  8
255
 62
     7
  6
CONTINUOUS
 10
258.300000
 20
475.500000
 40
1.500000
 50
270.000000
 51
90.000000
  0
LINE
  8
255
 62
     7
  6
CONTINUOUS
 10
247.900000
 20
474.000000
 11
258.300000
 21
474.000000
  0
ARC
  8
255
 62
     7
  6
CONTINUOUS
 10
173.812704
 20
602.667491
 40
9.507101
 50
12.344464
 51
30.551009
  0
ARC
  8
255
 62
     7
  6
CONTINUOUS
 10
173.671425
 20
602.836333
 40
9.545415
 50
29.247073
 51
46.847011
  0
LINE
  8
255
 62
     7
  6
CONTINUOUS
 10
185.300000
 20
618.700000
 11
180.200000
 21
609.800000
  0
ARC
  8
255
 62
     7
  6
CONTINUOUS
 10
187.050369
 20
617.707715
 40
2.012068
 50
47.873617
 51
150.451076
  0
ARC
  8
255
 62
     7
  6
CONTINUOUS
 10
173.700000
 20
602.800000
 40
22.023851
 50
11.258912
 51
48.128810
  0
ARC
  8
255
 62
     7
  6
CONTINUOUS
 10
193.376504
 20
606.670684
 40
1.970824
 50
270.683091
 51
12.581937
  0
LINE
  8
255
 62
     7
  6
CONTINUOUS
 10
183.100000
 20
604.700000
 11
193.400000
 21
604.700000
  0
ARC
  8
255
 62
     7
  6
CONTINUOUS
 10
173.967845
 20
602.704380
 40
9.497104
 50
73.280713
 51
91.012660
  0
LINE
  8
255
 62
     7
  6
CONTINUOUS
 10
176.700000
 20
611.800000
 11
181.900000
 21
620.700000
  0
ARC
  8
255
 62
     7
  6
CONTINUOUS
 10
180.107928
 20
621.678869
 40
2.041986
 50
331.355653
 51
70.188856
  0
ARC
  8
255
 62
     7
  6
CONTINUOUS
 10
173.800000
 20
602.700000
 40
22.041098
 50
71.482848
 51
108.517152
  0
ARC
  8
255
 62
     7
  6
CONTINUOUS
 10
167.404598
 20
621.712049
 40
1.982397
 50
107.757166
 51
210.698324
  0
LINE
  8
255
 62
     7
  6
CONTINUOUS
 10
165.700000
 20
620.700000
 11
170.900000
 21
611.800000
  0
ARC
  8
255
 62
     7
  6
CONTINUOUS
 10
173.632155
 20
602.704380
 40
9.497104
 50
88.987340
 51
106.719287
  0
ARC
  8
255
 62
     7
  6
CONTINUOUS
 10
173.879997
 20
602.874351
 40
9.484460
 50
133.095979
 51
150.809936
  0
LINE
  8
255
 62
     7
  6
CONTINUOUS
 10
167.400000
 20
609.800000
 11
162.300000
 21
618.700000
  0
ARC
  8
255
 62
     7
  6
CONTINUOUS
 10
160.547104
 20
617.692042
 40
2.022035
 50
29.899938
 51
131.775369
  0
ARC
  8
255
 62
     7
  6
CONTINUOUS
 10
173.790872
 20
602.684207
 40
22.037808
 50
131.458976
 51
168.441197
  0
ARC
  8
255
 62
     7
  6
CONTINUOUS
 10
154.183686
 20
606.719738
 40
2.019804
 50
169.148347
 51
270.462795
  0
LINE
  8
255
 62
     7
  6
CONTINUOUS
 10
154.200000
 20
604.700000
 11
164.500000
 21
604.700000
  0
ARC
  8
255
 62
     7
  6
CONTINUOUS
 10
173.787296
 20
602.667491
 40
9.507101
 50
149.448991
 51
167.655536
  0
ARC
  8
255
 62
     7
  6
CONTINUOUS
 10
173.709087
 20
602.877776
 40
9.463085
 50
193.304951
 51
211.027741
  0
LINE
  8
255
 62
     7
  6
CONTINUOUS
 10
164.500000
 20
600.700000
 11
154.200000
 21
600.700000
  0
ARC
  8
255
 62
     7
  6
CONTINUOUS
 10
154.183686
 20
598.680262
 40
2.019804
 50
89.537205
 51
190.851653
  0
ARC
  8
255
 62
     7
  6
CONTINUOUS
 10
173.790872
 20
602.715793
 40
22.037808
 50
191.558803
 51
228.541024
  0
ARC
  8
255
 62
     7
  6
CONTINUOUS
 10
160.549631
 20
587.692285
 40
2.012068
 50
227.873617
 51
330.451076
  0
LINE
  8
255
 62
     7
  6
CONTINUOUS
 10
162.300000
 20
586.700000
 11
167.400000
 21
595.700000
  0
ARC
  8
255
 62
     7
  6
CONTINUOUS
 10
173.879997
 20
602.625649
 40
9.484460
 50
209.190064
 51
226.904021
  0
ARC
  8
255
 62
     7
  6
CONTINUOUS
 10
173.943551
 20
602.692594
 40
9.493680
 50
251.301569
 51
269.133617
  0
LINE
  8
255
 62
     7
  6
CONTINUOUS
 10
170.900000
 20
593.700000
 11
165.700000
 21
584.700000
  0
ARC
  8
255
 62
     7
  6
CONTINUOUS
 10
167.404598
 20
583.687951
 40
1.982397
 50
149.301676
 51
252.242834
  0
ARC
  8
255
 62
     7
  6
CONTINUOUS
 10
173.800000
 20
602.700000
 40
22.041098
 50
251.482848
 51
288.517152
  0
ARC
  8
255
 62
     7
  6
CONTINUOUS
 10
180.107928
 20
583.721131
 40
2.041986
 50
289.811144
 51
28.644347
  0
LINE
  8
255
 62
     7
  6
CONTINUOUS
 10
181.900000
 20
584.700000
 11
176.700000
 21
593.700000
  0
ARC
  8
255
 62
     7
  6
CONTINUOUS
 10
173.656449
 20
602.692594
 40
9.493680
 50
270.866383
 51
288.698431
  0
ARC
  8
255
 62
     7
  6
CONTINUOUS
 10
173.720003
 20
602.625649
 40
9.484460
 50
313.095979
 51
330.809936
  0
LINE
  8
255
 62
     7
  6
CONTINUOUS
 10
180.200000
 20
595.700000
 11
185.300000
 21
586.700000
  0
ARC
  8
255
 62
     7
  6
CONTINUOUS
 10
187.052896
 20
587.707958
 40
2.022035
 50
209.899938
 51
311.775369
  0
ARC
  8
255
 62
     7
  6
CONTINUOUS
 10
173.700000
 20
602.600000
 40
22.023851
 50
311.871190
 51
348.741088
  0
ARC
  8
255
 62
     7
  6
CONTINUOUS
 10
193.376504
 20
598.729316
 40
1.970824
 50
347.418062
 51
89.316908
  0
LINE
  8
255
 62
     7
  6
CONTINUOUS
 10
193.400000
 20
600.700000
 11
183.100000
 21
600.700000
  0
ARC
  8
255
 62
     7
  6
CONTINUOUS
 10
173.890913
 20
602.877776
 40
9.463085
 50
328.972259
 51
346.695049
  0
CIRCLE
  8
255
 62
     7
  6
CONTINUOUS
 10
173.800000
 20
602.700000
 40
5.500000
  0
CIRCLE
  8
255
 62
     7
  6
CONTINUOUS
 10
173.800000
 20
602.700000
 40
28.500000
  0
ARC
  8
255
 62
     7
  6
CONTINUOUS
 10
182.012704
 20
666.367491
 40
9.507101
 50
12.344464
 51
30.551009
  0
LINE
  8
255
 62
     7
  6
CONTINUOUS
 10
191.300000
 20
668.400000
 11
198.500000
 21
668.400000
  0
ARC
  8
255
 62
     7
  6
CONTINUOUS
 10
198.524210
 20
670.430632
 40
2.030776
 50
269.316933
 51
13.363451
  0
ARC
  8
255
 62
     7
  6
CONTINUOUS
 10
182.010496
 20
666.381901
 40
19.033522
 50
13.731714
 51
46.551057
  0
ARC
  8
255
 62
     7
  6
CONTINUOUS
 10
193.750369
 20
678.707715
 40
2.012068
 50
47.873617
 51
150.451076
  0
LINE
  8
255
 62
     7
  6
CONTINUOUS
 10
192.000000
 20
679.700000
 11
188.400000
 21
673.500000
  0
ARC
  8
255
 62
     7
  6
CONTINUOUS
 10
181.871425
 20
666.536333
 40
9.545415
 50
29.247073
 51
46.847011
  0
ARC
  8
255
 62
     7
  6
CONTINUOUS
 10
182.167845
 20
666.404380
 40
9.497104
 50
73.280713
 51
91.012660
  0
LINE
  8
255
 62
     7
  6
CONTINUOUS
 10
184.900000
 20
675.500000
 11
188.500000
 21
681.700000
  0
ARC
  8
255
 62
     7
  6
CONTINUOUS
 10
186.801824
 20
682.695582
 40
1.968498
 50
329.618362
 51
75.340507
  0
ARC
  8
255
 62
     7
  6
CONTINUOUS
 10
181.950000
 20
666.399937
 40
18.970103
 50
73.619036
 51
106.380964
  0
ARC
  8
255
 62
     7
  6
CONTINUOUS
 10
177.204598
 20
682.712049
 40
1.982397
 50
107.757166
 51
210.698324
  0
LINE
  8
255
 62
     7
  6
CONTINUOUS
 10
175.500000
 20
681.700000
 11
179.100000
 21
675.500000
  0
ARC
  8
255
 62
     7
  6
CONTINUOUS
 10
181.832155
 20
666.404380
 40
9.497104
 50
88.987340
 51
106.719287
  0
ARC
  8
255
 62
     7
  6
CONTINUOUS
 10
182.079997
 20
666.574351
 40
9.484460
 50
133.095979
 51
150.809936
  0
LINE
  8
255
 62
     7
  6
CONTINUOUS
 10
175.600000
 20
673.500000
 11
172.000000
 21
679.700000
  0
ARC
  8
255
 62
     7
  6
CONTINUOUS
 10
170.247104
 20
678.692042
 40
2.022035
 50
29.899938
 51
131.775369
  0
ARC
  8
255
 62
     7
  6
CONTINUOUS
 10
181.989504
 20
666.381901
 40
19.033522
 50
133.448943
 51
166.268286
  0
ARC
  8
255
 62
     7
  6
CONTINUOUS
 10
165.475790
 20
670.430632
 40
2.030776
 50
166.636549
 51
270.683067
  0
LINE
  8
255
 62
     7
  6
CONTINUOUS
 10
165.500000
 20
668.400000
 11
172.700000
 21
668.400000
  0
ARC
  8
255
 62
     7
  6
CONTINUOUS
 10
181.987296
 20
666.367491
 40
9.507101
 50
149.448991
 51
167.655536
  0
ARC
  8
255
 62
     7
  6
CONTINUOUS
 10
181.909087
 20
666.577776
 40
9.463085
 50
193.304951
 51
211.027741
  0
LINE
  8
255
 62
     7
  6
CONTINUOUS
 10
172.700000
 20
664.400000
 11
165.500000
 21
664.400000
  0
ARC
  8
255
 62
     7
  6
CONTINUOUS
 10
165.475790
 20
662.369368
 40
2.030776
 50
89.316933
 51
193.363451
  0
ARC
  8
255
 62
     7
  6
CONTINUOUS
 10
181.893361
 20
666.511320
 40
18.962594
 50
194.074292
 51
226.747870
  0
ARC
  8
255
 62
     7
  6
CONTINUOUS
 10
170.295240
 20
654.099389
 40
1.976104
 50
225.085070
 51
329.619689
  0
LINE
  8
255
 62
     7
  6
CONTINUOUS
 10
172.000000
 20
653.100000
 11
175.600000
 21
659.400000
  0
ARC
  8
255
 62
     7
  6
CONTINUOUS
 10
182.079997
 20
666.325649
 40
9.484460
 50
209.190064
 51
226.904021
  0
ARC
  8
255
 62
     7
  6
CONTINUOUS
 10
182.143551
 20
666.392594
 40
9.493680
 50
251.301569
 51
269.133617
  0
LINE
  8
255
 62
     7
  6
CONTINUOUS
 10
179.100000
 20
657.400000
 11
175.500000
 21
651.100000
  0
ARC
  8
255
 62
     7
  6
CONTINUOUS
 10
177.204598
 20
650.087951
 40
1.982397
 50
149.301676
 51
252.242834
  0
ARC
  8
255
 62
     7
  6
CONTINUOUS
 10
181.950000
 20
666.400063
 40
18.970103
 50
253.619036
 51
286.380964
  0
ARC
  8
255
 62
     7
  6
CONTINUOUS
 10
186.801824
 20
650.104418
 40
1.968498
 50
284.659493
 51
30.381638
  0
LINE
  8
255
 62
     7
  6
CONTINUOUS
 10
188.500000
 20
651.100000
 11
184.900000
 21
657.400000
  0
ARC
  8
255
 62
     7
  6
CONTINUOUS
 10
181.856449
 20
666.392594
 40
9.493680
 50
270.866383
 51
288.698431
  0
ARC
  8
255
 62
     7
  6
CONTINUOUS
 10
181.920003
 20
666.325649
 40
9.484460
 50
313.095979
 51
330.809936
  0
LINE
  8
255
 62
     7
  6
CONTINUOUS
 10
188.400000
 20
659.400000
 11
192.000000
 21
653.100000
  0
ARC
  8
255
 62
     7
  6
CONTINUOUS
 10
193.704760
 20
654.099389
 40
1.976104
 50
210.380311
 51
314.914930
  0
ARC
  8
255
 62
     7
  6
CONTINUOUS
 10
182.106639
 20
666.511320
 40
18.962594
 50
313.252130
 51
345.925708
  0
ARC
  8
255
 62
     7
  6
CONTINUOUS
 10
198.524210
 20
662.369368
 40
2.030776
 50
346.636549
 51
90.683067
  0
LINE
  8
255
 62
     7
  6
CONTINUOUS
 10
198.500000
 20
664.400000
 11
191.300000
 21
664.400000
  0
ARC
  8
255
 62
     7
  6
CONTINUOUS
 10
182.090913
 20
666.577776
 40
9.463085
 50
328.972259
 51
346.695049
  0
CIRCLE
  8
255
 62
     7
  6
CONTINUOUS
 10
182.000000
 20
666.400000
 40
5.500000
  0
ARC
  8
255
 62
     7
  6
CONTINUOUS
 10
182.000000
 20
666.400000
 40
25.500000
 50
270.000000
 51
180.000000
  0
ARC
  8
255
 62
     7
  6
CONTINUOUS
 10
182.068056
 20
666.413334
 40
25.513424
 50
224.913103
 51
269.847166
  0
ARC
  8
255
 62
     7
  6
CONTINUOUS
 10
182.013334
 20
666.468056
 40
25.513424
 50
180.152833
 51
225.086896
  0
ENDSEC
  0
EOF
