  0
SECTION
  2
HEADER
  9
$ACADVER
  1
AC1015
  9
$ACADMAINTVER
 70
     6
  9
$DWGCODEPAGE
  3
DOS850
  9
$INSBASE
 10
0.0
 20
0.0
 30
0.0
  9
$EXTMIN
 10
-176.9978
 20
-215.3257
 30
1.000000E+20
  9
$EXTMAX
 10
176.9986
 20
215.3257
 30
-1.000000E+20
  9
$LIMMIN
 10
0.0
 20
0.0
  9
$LIMMAX
 10
0.0
 20
0.0
  9
$ORTHOMODE
 70
     0
  9
$REGENMODE
 70
     1
  9
$FILLMODE
 70
     1
  9
$QTEXTMODE
 70
     0
  9
$MIRRTEXT
 70
     1
  9
$LTSCALE
 40
1.0
  9
$ATTMODE
 70
     1
  9
$TEXTSIZE
 40
0.2
  9
$TRACEWID
 40
0.05
  9
$TEXTSTYLE
  7
Standard
  9
$CLAYER
  8
0
  9
$CELTYPE
  6
Continuous
  9
$CECOLOR
 62
   256
  9
$CELTSCALE
 40
1.0
  9
$DISPSILH
 70
     0
  9
$DIMSCALE
 40
1.0
  9
$DIMASZ
 40
0.18
  9
$DIMEXO
 40
0.0625
  9
$DIMDLI
 40
0.38
  9
$DIMRND
 40
0.0
  9
$DIMDLE
 40
0.0
  9
$DIMEXE
 40
0.18
  9
$DIMTP
 40
0.0
  9
$DIMTM
 40
0.0
  9
$DIMTXT
 40
0.18
  9
$DIMCEN
 40
0.09
  9
$DIMTSZ
 40
0.0
  9
$DIMTOL
 70
     0
  9
$DIMLIM
 70
     0
  9
$DIMTIH
 70
     1
  9
$DIMTOH
 70
     1
  9
$DIMSE1
 70
     0
  9
$DIMSE2
 70
     0
  9
$DIMTAD
 70
     0
  9
$DIMZIN
 70
     0
  9
$DIMBLK
  1

  9
$DIMASO
 70
     1
  9
$DIMSHO
 70
     1
  9
$DIMPOST
  1

  9
$DIMAPOST
  1

  9
$DIMALT
 70
     0
  9
$DIMALTD
 70
     2
  9
$DIMALTF
 40
25.4
  9
$DIMLFAC
 40
1.0
  9
$DIMTOFL
 70
     0
  9
$DIMTVP
 40
0.0
  9
$DIMTIX
 70
     0
  9
$DIMSOXD
 70
     0
  9
$DIMSAH
 70
     0
  9
$DIMBLK1
  1

  9
$DIMBLK2
  1

  9
$DIMSTYLE
  2
Standard
  9
$DIMCLRD
 70
     0
  9
$DIMCLRE
 70
     0
  9
$DIMCLRT
 70
     0
  9
$DIMTFAC
 40
1.0
  9
$DIMGAP
 40
0.09
  9
$DIMJUST
 70
     0
  9
$DIMSD1
 70
     0
  9
$DIMSD2
 70
     0
  9
$DIMTOLJ
 70
     1
  9
$DIMTZIN
 70
     0
  9
$DIMALTZ
 70
     0
  9
$DIMALTTZ
 70
     0
  9
$DIMUPT
 70
     0
  9
$DIMDEC
 70
     4
  9
$DIMTDEC
 70
     4
  9
$DIMALTU
 70
     2
  9
$DIMALTTD
 70
     2
  9
$DIMTXSTY
  7
Standard
  9
$DIMAUNIT
 70
     0
  9
$DIMADEC
 70
     0
  9
$DIMALTRND
 40
0.0
  9
$DIMAZIN
 70
     0
  9
$DIMDSEP
 70
     0
  9
$DIMATFIT
 70
     3
  9
$DIMFRAC
 70
     0
  9
$DIMLDRBLK
  1

  9
$DIMLUNIT
 70
     2
  9
$DIMLWD
 70
     0
  9
$DIMLWE
 70
     0
  9
$DIMTMOVE
 70
     0
  9
$LUNITS
 70
     2
  9
$LUPREC
 70
     4
  9
$SKETCHINC
 40
0.1
  9
$FILLETRAD
 40
0.0
  9
$AUNITS
 70
     0
  9
$AUPREC
 70
     0
  9
$MENU
  1
acad
  9
$ELEVATION
 40
0.0
  9
$PELEVATION
 40
0.0
  9
$THICKNESS
 40
0.0
  9
$LIMCHECK
 70
     0
  9
$CHAMFERA
 40
0.0
  9
$CHAMFERB
 40
0.0
  9
$CHAMFERC
 40
0.0
  9
$CHAMFERD
 40
0.0
  9
$SKPOLY
 70
     0
  9
$TDCREATE
 40
0.000000000
  9
$TDUCREATE
 40
0.000000000
  9
$TDUPDATE
 40
0.000000000
  9
$TDUUPDATE
 40
0.000000000
  9
$TDINDWG
 40
0.0000000000
  9
$TDUSRTIMER
 40
0.0000000000
  9
$USRTIMER
 70
     1
  9
$ANGBASE
 50
0.0
  9
$ANGDIR
 70
     0
  9
$PDMODE
 70
     0
  9
$PDSIZE
 40
0.0
  9
$PLINEWID
 40
0.0
  9
$SPLFRAME
 70
     0
  9
$SPLINETYPE
 70
     6
  9
$SPLINESEGS
 70
     8
  9
$HANDSEED
  5
1F8
  9
$SURFTAB1
 70
     6
  9
$SURFTAB2
 70
     6
  9
$SURFTYPE
 70
     6
  9
$SURFU
 70
     6
  9
$SURFV
 70
     6
  9
$UCSBASE
  2

  9
$UCSNAME
  2

  9
$UCSORG
 10
0.0
 20
0.0
 30
0.0
  9
$UCSXDIR
 10
1.0
 20
0.0
 30
0.0
  9
$UCSYDIR
 10
0.0
 20
1.0
 30
0.0
  9
$UCSORTHOREF
  2

  9
$UCSORTHOVIEW
 70
     0
  9
$UCSORGTOP
 10
0.0
 20
0.0
 30
0.0
  9
$UCSORGBOTTOM
 10
0.0
 20
0.0
 30
0.0
  9
$UCSORGLEFT
 10
0.0
 20
0.0
 30
0.0
  9
$UCSORGRIGHT
 10
0.0
 20
0.0
 30
0.0
  9
$UCSORGFRONT
 10
0.0
 20
0.0
 30
0.0
  9
$UCSORGBACK
 10
0.0
 20
0.0
 30
0.0
  9
$PUCSBASE
  2

  9
$PUCSNAME
  2

  9
$PUCSORG
 10
0.0
 20
0.0
 30
0.0
  9
$PUCSXDIR
 10
1.0
 20
0.0
 30
0.0
  9
$PUCSYDIR
 10
0.0
 20
1.0
 30
0.0
  9
$PUCSORTHOREF
  2

  9
$PUCSORTHOVIEW
 70
     0
  9
$PUCSORGTOP
 10
0.0
 20
0.0
 30
0.0
  9
$PUCSORGBOTTOM
 10
0.0
 20
0.0
 30
0.0
  9
$PUCSORGLEFT
 10
0.0
 20
0.0
 30
0.0
  9
$PUCSORGRIGHT
 10
0.0
 20
0.0
 30
0.0
  9
$PUCSORGFRONT
 10
0.0
 20
0.0
 30
0.0
  9
$PUCSORGBACK
 10
0.0
 20
0.0
 30
0.0
  9
$USERI1
 70
     0
  9
$USERI2
 70
     0
  9
$USERI3
 70
     0
  9
$USERI4
 70
     0
  9
$USERI5
 70
     0
  9
$USERR1
 40
0.0
  9
$USERR2
 40
0.0
  9
$USERR3
 40
0.0
  9
$USERR4
 40
0.0
  9
$USERR5
 40
0.0
  9
$WORLDVIEW
 70
     1
  9
$SHADEDGE
 70
     3
  9
$SHADEDIF
 70
    70
  9
$TILEMODE
 70
     1
  9
$MAXACTVP
 70
    16
  9
$PINSBASE
 10
0.0
 20
0.0
 30
0.0
  9
$PLIMCHECK
 70
     0
  9
$PEXTMIN
 10
1.000000E+20
 20
1.000000E+20
 30
1.000000E+20
  9
$PEXTMAX
 10
-1.000000E+20
 20
-1.000000E+20
 30
-1.000000E+20
  9
$PLIMMIN
 10
0.0
 20
0.0
  9
$PLIMMAX
 10
12.0
 20
9.0
  9
$UNITMODE
 70
     0
  9
$VISRETAIN
 70
     0
  9
$PLINEGEN
 70
     1
  9
$PSLTSCALE
 70
     0
  9
$TREEDEPTH
 70
  3020
  9
$CMLSTYLE
  2
Standard
  9
$CMLJUST
 70
     0
  9
$CMLSCALE
 40
1.0
  9
$PROXYGRAPHICS
 70
     0
  9
$MEASUREMENT
 70
     0
  9
$CELWEIGHT
370
     0
  9
$ENDCAPS
280
     0
  9
$JOINSTYLE
280
     0
  9
$LWDISPLAY
290
     0
  9
$INSUNITS
 70
     4
  9
$HYPERLINKBASE
  1

  9
$XEDIT
290
     1
  9
$CEPSNTYPE
380
     0
  9
$PSTYLEMODE
290
     1
  9
$FINGERPRINTGUID
  2

  9
$VERSIONGUID
  2

  9
$EXTNAMES
290
     1
  9
$PSVPSCALE
 40
0.0
  0
ENDSEC
  0
SECTION
  2
CLASSES
  0
CLASS
  1
LWPOLYLINE
  2
AcDbPolyline
  3
AutoCAD 2000
 90
    32768
280
     0
281
     1
  0
CLASS
  1
IMAGE
  2
AcDbRasterImage
  3
ISM
 90
    32895
280
     0
281
     1
  0
CLASS
  1
OLE2FRAME
  2
AcDbOle2Frame
  3
AutoCAD 2000
 90
    32768
280
     0
281
     1
  0
CLASS
  1
HATCH
  2
AcDbHatch
  3
AutoCAD 2000
 90
    32768
280
     0
281
     1
  0
CLASS
  1
DICTIONARYVAR
  2
AcDbDictionaryVar
  3
AutoCAD 2000
 90
    32768
280
     0
281
     0
  0
CLASS
  1
RASTERVARIABLES
  2
AcDbRasterVariables
  3
ISM
 90
    32768
280
     0
281
     0
  0
CLASS
  1
IMAGEDEF
  2
AcDbRasterImageDef
  3
ISM
 90
    32768
280
     0
281
     0
  0
CLASS
  1
IMAGEDEF_REACTOR
  2
AcDbRasterImageDefReactor
  3
ISM
 90
    32769
280
     0
281
     0
  0
CLASS
  1
IDBUFFER
  2
AcDbIdBuffer
  3
AutoCAD 2000
 90
    32768
280
     0
281
     0
  0
CLASS
  1
SPATIAL_FILTER
  2
AcDbSpatialFilter
  3
AutoCAD 2000
 90
    32768
280
     0
281
     0
  0
CLASS
  1
XRECORD
  2
AcDbXrecord
  3
AutoCAD 2000
 90
    32768
280
     0
281
     0
  0
CLASS
  1
SORTENTSTABLE
  2
AcDbSortentsTable
  3
AutoCAD 2000
 90
    32768
280
     0
281
     0
  0
CLASS
  1
LAYER_INDEX
  2
AcDbLayerIndex
  3
AutoCAD 2000
 90
    32768
280
     0
281
     0
  0
CLASS
  1
SPATIAL_INDEX
  2
AcDbSpatialIndex
  3
AutoCAD 2000
 90
    32768
280
     0
281
     0
  0
CLASS
  1
OBJECT_PTR
  2
CAseDLPNTableRecord
  3
"ASE-LPNTableRecord"
 90
    32769
280
     0
281
     0
  0
CLASS
  1
LAYOUT
  2
AcDbLayout
  3
AutoCAD 2000
 90
        0
280
     0
281
     0
  0
CLASS
  1
PLOTSETTINGS
  2
AcDbPlotSettings
  3
AutoCAD 2000
 90
    32768
280
     0
281
     0
  0
CLASS
  1
ACDBDICTIONARYWDFLT
  2
AcDbDictionaryWithDefault
  3
AutoCAD 2000
 90
        0
280
     0
281
     0
  0
CLASS
  1
ACDBPLACEHOLDER
  2
AcDbPlaceHolder
  3
AutoCAD 2000
 90
        0
280
     0
281
     0
  0
CLASS
  1
VBA_PROJECT
  2
AcDbVbaProject
  3
acadvba
 90
    32768
280
     0
281
     0
  0
CLASS
  1
WIPEOUT
  2
AcDbWipeout
  3
WipeOut|AutoCAD Express Tool|expresstools@autodesk.com
 90
    32895
280
     0
281
     1
  0
CLASS
  1
WIPEOUTVARIABLES
  2
AcDbWipeoutVariables
  3
WipeOut|AutoCAD Express Tool|expresstools@autodesk.com
 90
        0
280
     0
281
     0
  0
CLASS
  1
RTEXT
  2
RText
  3
RText|AutoCAD Express Tool|expresstools@autodesk.com
 90
    32768
280
     0
281
     1
  0
CLASS
  1
ARCALIGNEDTEXT
  2
AcDbArcAlignedText
  3
ATEXT|AutoCAD Express Tool|expresstools@autodesk.com
 90
    32768
280
     0
281
     1
  0
ENDSEC
  0
SECTION
  2
TABLES
  0
TABLE
  2
VPORT
  5
7
100
AcDbSymbolTable
 70
     1
  0
VPORT
  5
15
100
AcDbSymbolTableRecord
100
AcDbViewportTableRecord
  2
*ACTIVE
 70
     0
 10
0.0
 20
0.0
 11
1.0
 21
1.0
 12
6.591288
 22
4.579184
 13
0.0
 23
0.0
 14
1.0
 24
1.0
 15
0.0
 25
0.0
 16
0.0
 26
0.0
 36
1.0
 17
0.0
 27
0.0
 37
0.0
 40
9.158369
 41
0.688564
 42
50.0
 43
0.0
 44
0.0
 50
0.0
 51
0.0
 71
     0
 72
   100
 73
     1
 74
     1
 75
     0
 76
     0
 77
     0
 78
     0
281
     0
 65
     0
110
0.0
120
0.0
130
0.0
111
1.0
121
0.0
131
0.0
112
0.0
122
1.0
132
0.0
345
0
346
0
 79
     0
146
0.0
  0
ENDTAB
  0
TABLE
  2
LTYPE
  5
4
100
AcDbSymbolTable
 70
     3
  0
LTYPE
  5
11
100
AcDbSymbolTableRecord
100
AcDbLinetypeTableRecord
  2
ByBlock
 70
    64
  3

 72
    65
 73
     0
 40
0.0
  0
LTYPE
  5
12
100
AcDbSymbolTableRecord
100
AcDbLinetypeTableRecord
  2
ByLayer
 70
    64
  3

 72
    65
 73
     0
 40
0.0
  0
LTYPE
  5
13
100
AcDbSymbolTableRecord
100
AcDbLinetypeTableRecord
  2
Continuous
 70
    64
  3
Solid line
 72
    65
 73
     0
 40
0.0
  0
ENDTAB
  0
TABLE
  2
LAYER
  5
2
100
AcDbSymbolTable
 70
     2
  0
LAYER
  5
14
100
AcDbSymbolTableRecord
100
AcDbLayerTableRecord
  2
0
 70
     0
 62
     7
  6
Continuous
290
     1
370
    -3
390
1D
  0
LAYER
  5
24
100
AcDbSymbolTableRecord
100
AcDbLayerTableRecord
  2
0
 70
     0
 62
     7
  6
Continuous
290
     1
370
    -3
390
1F
  0
ENDTAB
  0
TABLE
  2
STYLE
  5
3
100
AcDbSymbolTable
 70
     1
  0
STYLE
  5
17
100
AcDbSymbolTableRecord
100
AcDbTextStyleTableRecord
  2
Standard
 70
     0
 40
0.0
 41
1.0
 50
0.0
 71
     0
 42
0.0
  3
txt
  4

  0
ENDTAB
  0
TABLE
  2
VIEW
  5
5
100
AcDbSymbolTable
 70
     0
  0
ENDTAB
  0
TABLE
  2
UCS
  5
6
100
AcDbSymbolTable
 70
     0
  0
ENDTAB
  0
TABLE
  2
APPID
  5
8
100
AcDbSymbolTable
 70
     1
  0
APPID
  5
16
100
AcDbSymbolTableRecord
100
AcDbRegAppTableRecord
  2
ACAD
 70
     0
  0
ENDTAB
  0
TABLE
  2
DIMSTYLE
  5
9
100
AcDbSymbolTable
 70
     1
100
AcDbDimStyleTable
 71
     0
  0
DIMSTYLE
105
18
100
AcDbSymbolTableRecord
100
AcDbDimStyleTableRecord
  2
Standard
 70
     0
  3

  4

 40
1.0
 41
0.18
 42
0.0625
 43
0.38
 44
0.18
 45
0.0
 46
0.0
 47
0.0
 48
0.0
 71
     0
 72
     0
 73
     1
 74
     1
 75
     0
 76
     0
 77
     0
 78
     0
 79
     0
140
0.18
141
0.09
142
0.0
143
25.4
144
1.0
145
0.0
146
1.0
147
0.09
148
0.0
170
     0
171
     2
172
     0
173
     0
174
     0
175
     0
176
     0
177
     0
178
     0
179
     0
271
     4
272
     4
273
     2
274
     2
275
     0
276
     0
277
     2
278
    46
279
     0
280
     0
281
     0
282
     0
283
     1
284
     0
285
     0
286
     0
288
     0
340
17
341
0
342
0
343
0
344
0
371
    -2
372
    -2
  0
ENDTAB
  0
TABLE
  2
BLOCK_RECORD
  5
1
100
AcDbSymbolTable
 70
     0
  0
BLOCK_RECORD
  5
A
100
AcDbSymbolTableRecord
100
AcDbBlockTableRecord
  2
*MODEL_SPACE
340
20
  0
BLOCK_RECORD
  5
B
100
AcDbSymbolTableRecord
100
AcDbBlockTableRecord
  2
*PAPER_SPACE
340
21
  0
ENDTAB
  0
ENDSEC
  0
SECTION
  2
BLOCKS
  0
BLOCK
  5
D
100
AcDbEntity
  8
0
100
AcDbBlockBegin
  2
*MODEL_SPACE
 70
     0
 10
0.0
 20
0.0
 30
0.0
  3
*MODEL_SPACE
  1

  0
ENDBLK
  5
E
100
AcDbEntity
  8
0
100
AcDbBlockEnd
  0
BLOCK
  5
F
100
AcDbEntity
 67
     1
  8
0
100
AcDbBlockBegin
  2
*PAPER_SPACE
 70
     0
 10
0.0
 20
0.0
 30
0.0
  3
*PAPER_SPACE
  1

  0
ENDBLK
  5
10
100
AcDbEntity
 67
     1
  8
0
100
AcDbBlockEnd
  0
ENDSEC
  0
SECTION
  2
ENTITIES
  0
SPLINE
  5
25
100
AcDbEntity
  8
0
370
     5
100
AcDbSpline
210
0.0
220
0.0
230
1.0
 70
     0
 71
     3
 72
     8
 73
     4
 74
     0
 42
0.0000000001
 43
0.0000000001
 40
0.0
 40
0.0
 40
0.0
 40
0.0
 40
1.0
 40
1.0
 40
1.0
 40
1.0
 10
-147.9803
 20
-179.59280000000001
 30
0.0
 10
-148.98660000000001
 20
-180.4716
 30
0.0
 10
-149.22210000000001
 20
-181.9434
 30
0.0
 10
-148.5403
 20
-183.09230000000002
 30
0.0
  0
SPLINE
  5
26
100
AcDbEntity
  8
0
370
     5
100
AcDbSpline
210
0.0
220
0.0
230
1.0
 70
     0
 71
     3
 72
    12
 73
     8
 74
     0
 42
0.0000000001
 43
0.0000000001
 40
0.0
 40
0.0
 40
0.0
 40
0.0
 40
0.5
 40
0.5
 40
0.5
 40
0.5
 40
1.0
 40
1.0
 40
1.0
 40
1.0
 10
-133.28050000000002
 20
-170.35420000000002
 30
0.0
 10
-133.7021
 20
-169.61070000000001
 30
0.0
 10
-134.43860000000001
 20
-169.09880000000001
 30
0.0
 10
-135.2825
 20
-168.96270000000001
 30
0.0
 10
-135.2825
 20
-168.96270000000001
 30
0.0
 10
-136.12640000000002
 20
-168.82660000000001
 30
0.0
 10
-136.98650000000001
 20
-169.08100000000002
 30
0.0
 10
-137.62049999999999
 20
-169.65430000000001
 30
0.0
  0
SPLINE
  5
27
100
AcDbEntity
  8
0
370
     5
100
AcDbSpline
210
0.0
220
0.0
230
1.0
 70
     0
 71
     3
 72
    12
 73
     8
 74
     0
 42
0.0000000001
 43
0.0000000001
 40
0.0
 40
0.0
 40
0.0
 40
0.0
 40
0.5
 40
0.5
 40
0.5
 40
0.5
 40
1.0
 40
1.0
 40
1.0
 40
1.0
 10
-117.60080000000001
 20
-205.4889
 30
0.0
 10
-116.59410000000001
 20
-205.49760000000001
 30
0.0
 10
-115.65790000000001
 20
-204.97300000000001
 30
0.0
 10
-115.13990000000001
 20
-204.1097
 30
0.0
 10
-115.13990000000001
 20
-204.1097
 30
0.0
 10
-114.62190000000001
 20
-203.2465
 30
0.0
 10
-114.59950000000001
 20
-202.1737
 30
0.0
 10
-115.0809
 20
-201.28960000000001
 30
0.0
  0
SPLINE
  5
28
100
AcDbEntity
  8
0
370
     5
100
AcDbSpline
210
0.0
220
0.0
230
1.0
 70
     0
 71
     3
 72
     8
 73
     4
 74
     0
 42
0.0000000001
 43
0.0000000001
 40
0.0
 40
0.0
 40
0.0
 40
0.0
 40
1.0
 40
1.0
 40
1.0
 40
1.0
 10
-136.22050000000002
 20
-204.0891
 30
0.0
 10
-135.7313
 20
-204.9444
 30
0.0
 10
-134.82590000000002
 20
-205.477
 30
0.0
 10
-133.84050000000002
 20
-205.4889
 30
0.0
  0
SPLINE
  5
29
100
AcDbEntity
  8
0
370
     5
100
AcDbSpline
210
0.0
220
0.0
230
1.0
 70
     0
 71
     3
 72
    12
 73
     8
 74
     0
 42
0.0000000001
 43
0.0000000001
 40
0.0
 40
0.0
 40
0.0
 40
0.0
 40
0.5
 40
0.5
 40
0.5
 40
0.5
 40
1.0
 40
1.0
 40
1.0
 40
1.0
 10
-166.4599
 20
-143.8982
 30
0.0
 10
-167.45740000000001
 20
-143.90219999999999
 30
0.0
 10
-168.37630000000001
 20
-144.44
 30
0.0
 10
-168.86799999999999
 20
-145.30770000000001
 30
0.0
 10
-168.86799999999999
 20
-145.30770000000001
 30
0.0
 10
-169.35980000000001
 20
-146.1754
 30
0.0
 10
-169.34900000000002
 20
-147.24000000000001
 30
0.0
 10
-168.8399
 20
-148.0976
 30
0.0
  0
SPLINE
  5
2A
100
AcDbEntity
  8
0
370
     5
100
AcDbSpline
210
0.0
220
0.0
230
1.0
 70
     0
 71
     3
 72
     8
 73
     4
 74
     0
 42
0.0000000001
 43
0.0000000001
 40
0.0
 40
0.0
 40
0.0
 40
0.0
 40
1.0
 40
1.0
 40
1.0
 40
1.0
 10
-147.84030000000001
 20
-145.298
 30
0.0
 10
-148.3295
 20
-144.4427
 30
0.0
 10
-149.23490000000001
 20
-143.9102
 30
0.0
 10
-150.22020000000001
 20
-143.8982
 30
0.0
  0
SPLINE
  5
2B
100
AcDbEntity
  8
0
370
     5
100
AcDbSpline
210
0.0
220
0.0
230
1.0
 70
     0
 71
     3
 72
     8
 73
     4
 74
     0
 42
0.0000000001
 43
0.0000000001
 40
0.0
 40
0.0
 40
0.0
 40
0.0
 40
1.0
 40
1.0
 40
1.0
 40
1.0
 10
-140.28040000000001
 20
-162.65540000000001
 30
0.0
 10
-139.31210000000002
 20
-161.7559
 30
0.0
 10
-139.0812
 20
-160.3126
 30
0.0
 10
-139.72040000000001
 20
-159.1559
 30
0.0
  0
SPLINE
  5
2C
100
AcDbEntity
  8
0
370
     5
100
AcDbSpline
210
0.0
220
0.0
230
1.0
 70
     0
 71
     3
 72
    12
 73
     8
 74
     0
 42
0.0000000001
 43
0.0000000001
 40
0.0
 40
0.0
 40
0.0
 40
0.0
 40
0.5
 40
0.5
 40
0.5
 40
0.5
 40
1.0
 40
1.0
 40
1.0
 40
1.0
 10
-154.98010000000002
 20
-171.89400000000001
 30
0.0
 10
-154.5472
 20
-172.63250000000002
 30
0.0
 10
-153.79660000000001
 20
-173.12890000000002
 30
0.0
 10
-152.94750000000002
 20
-173.23840000000001
 30
0.0
 10
-152.94750000000002
 20
-173.23840000000001
 30
0.0
 10
-152.0985
 20
-173.34800000000001
 30
0.0
 10
-151.2465
 20
-173.0583
 30
0.0
 10
-150.64020000000002
 20
-172.4539
 30
0.0
  0
SPLINE
  5
2D
100
AcDbEntity
  8
0
370
     5
100
AcDbSpline
210
0.0
220
0.0
230
1.0
 70
     0
 71
     3
 72
    12
 73
     8
 74
     0
 42
0.0000000001
 43
0.0000000001
 40
0.0
 40
0.0
 40
0.0
 40
0.0
 40
0.5
 40
0.5
 40
0.5
 40
0.5
 40
1.0
 40
1.0
 40
1.0
 40
1.0
 10
-11.7628
 20
-180.2927
 30
0.0
 10
-11.7628
 20
-179.55020000000002
 30
0.0
 10
-12.0578
 20
-178.8382
 30
0.0
 10
-12.5829
 20
-178.31310000000002
 30
0.0
 10
-12.5829
 20
-178.31310000000002
 30
0.0
 10
-13.108000000000001
 20
-177.78810000000001
 30
0.0
 10
-13.8202
 20
-177.4932
 30
0.0
 10
-14.562800000000001
 20
-177.4932
 30
0.0
  0
SPLINE
  5
2E
100
AcDbEntity
  8
0
370
     5
100
AcDbSpline
210
0.0
220
0.0
230
1.0
 70
     0
 71
     3
 72
    12
 73
     8
 74
     0
 42
0.0000000001
 43
0.0000000001
 40
0.0
 40
0.0
 40
0.0
 40
0.0
 40
0.5
 40
0.5
 40
0.5
 40
0.5
 40
1.0
 40
1.0
 40
1.0
 40
1.0
 10
-18.762700000000002
 20
-215.28750000000002
 30
0.0
 10
-16.906200000000002
 20
-215.28750000000002
 30
0.0
 10
-15.1258
 20
-214.55010000000001
 30
0.0
 10
-13.8131
 20
-213.23750000000001
 30
0.0
 10
-13.8131
 20
-213.23750000000001
 30
0.0
 10
-12.500300000000001
 20
-211.92500000000001
 30
0.0
 10
-11.7628
 20
-210.1447
 30
0.0
 10
-11.7628
 20
-208.2885
 30
0.0
  0
SPLINE
  5
2F
100
AcDbEntity
  8
0
370
     5
100
AcDbSpline
210
0.0
220
0.0
230
1.0
 70
     0
 71
     3
 72
     8
 73
     4
 74
     0
 42
0.0000000001
 43
0.0000000001
 40
0.0
 40
0.0
 40
0.0
 40
0.0
 40
1.0
 40
1.0
 40
1.0
 40
1.0
 10
-141.82040000000001
 20
-208.42850000000001
 30
0.0
 10
-139.2997
 20
-212.6798
 30
0.0
 10
-134.7235
 20
-215.2868
 30
0.0
 10
-129.78059999999999
 20
-215.28750000000002
 30
0.0
  0
SPLINE
  5
30
100
AcDbEntity
  8
0
370
     5
100
AcDbSpline
210
0.0
220
0.0
230
1.0
 70
     0
 71
     3
 72
     8
 73
     4
 74
     0
 42
0.0000000001
 43
0.0000000001
 40
0.0
 40
0.0
 40
0.0
 40
0.0
 40
1.0
 40
1.0
 40
1.0
 40
1.0
 10
-176.9597
 20
-146.27790000000002
 30
0.0
 10
-176.9461
 20
-147.5102
 30
0.0
 10
-176.60810000000001
 20
-148.71710000000002
 30
0.0
 10
-175.97970000000001
 20
-149.7773
 30
0.0
  0
SPLINE
  5
31
100
AcDbEntity
  8
0
370
     5
100
AcDbSpline
210
0.0
220
0.0
230
1.0
 70
     0
 71
     3
 72
    12
 73
     8
 74
     0
 42
0.0000000001
 43
0.0000000001
 40
0.0
 40
0.0
 40
0.0
 40
0.0
 40
0.5
 40
0.5
 40
0.5
 40
0.5
 40
1.0
 40
1.0
 40
1.0
 40
1.0
 10
-176.25970000000001
 20
-139.69890000000001
 30
0.0
 10
-176.44540000000001
 20
-139.69890000000001
 30
0.0
 10
-176.6234
 20
-139.77260000000001
 30
0.0
 10
-176.75470000000001
 20
-139.90380000000002
 30
0.0
 10
-176.75470000000001
 20
-139.90380000000002
 30
0.0
 10
-176.886
 20
-140.0351
 30
0.0
 10
-176.9597
 20
-140.2131
 30
0.0
 10
-176.9597
 20
-140.39870000000002
 30
0.0
  0
SPLINE
  5
32
100
AcDbEntity
  8
0
370
     5
100
AcDbSpline
210
0.0
220
0.0
230
1.0
 70
     0
 71
     3
 72
    16
 73
    12
 74
     0
 42
0.0000000001
 43
0.0000000001
 40
0.0
 40
0.0
 40
0.0
 40
0.0
 40
0.3333333333333333
 40
0.3333333333333333
 40
0.3333333333333333
 40
0.3333333333333333
 40
0.6666666666666666
 40
0.6666666666666666
 40
0.6666666666666666
 40
0.6666666666666666
 40
1.0
 40
1.0
 40
1.0
 40
1.0
 10
-165.0599
 20
-139.69890000000001
 30
0.0
 10
-164.30970000000002
 20
-139.69890000000001
 30
0.0
 10
-163.6164
 20
-139.2987
 30
0.0
 10
-163.2413
 20
-138.649
 30
0.0
 10
-163.2413
 20
-138.649
 30
0.0
 10
-162.86620000000002
 20
-137.99940000000001
 30
0.0
 10
-162.86620000000002
 20
-137.19900000000001
 30
0.0
 10
-163.2413
 20
-136.54930000000002
 30
0.0
 10
-163.2413
 20
-136.54930000000002
 30
0.0
 10
-163.6164
 20
-135.8997
 30
0.0
 10
-164.30970000000002
 20
-135.49950000000001
 30
0.0
 10
-165.0599
 20
-135.49950000000001
 30
0.0
  0
SPLINE
  5
33
100
AcDbEntity
  8
0
370
     5
100
AcDbSpline
210
0.0
220
0.0
230
1.0
 70
     0
 71
     3
 72
    12
 73
     8
 74
     0
 42
0.0000000001
 43
0.0000000001
 40
0.0
 40
0.0
 40
0.0
 40
0.0
 40
0.5
 40
0.5
 40
0.5
 40
0.5
 40
1.0
 40
1.0
 40
1.0
 40
1.0
 10
-176.9597
 20
-134.7996
 30
0.0
 10
-176.9597
 20
-134.98520000000002
 30
0.0
 10
-176.886
 20
-135.16320000000002
 30
0.0
 10
-176.75470000000001
 20
-135.2945
 30
0.0
 10
-176.75470000000001
 20
-135.2945
 30
0.0
 10
-176.6234
 20
-135.42570000000001
 30
0.0
 10
-176.44540000000001
 20
-135.49950000000001
 30
0.0
 10
-176.25970000000001
 20
-135.49950000000001
 30
0.0
  0
SPLINE
  5
34
100
AcDbEntity
  8
0
370
     5
100
AcDbSpline
210
0.0
220
0.0
230
1.0
 70
     0
 71
     3
 72
    12
 73
     8
 74
     0
 42
0.0000000001
 43
0.0000000001
 40
0.0
 40
0.0
 40
0.0
 40
0.0
 40
0.5
 40
0.5
 40
0.5
 40
0.5
 40
1.0
 40
1.0
 40
1.0
 40
1.0
 10
-169.9598
 20
-125.70100000000001
 30
0.0
 10
-171.81630000000001
 20
-125.70100000000001
 30
0.0
 10
-173.5968
 20
-126.4384
 30
0.0
 10
-174.90950000000001
 20
-127.7509
 30
0.0
 10
-174.90950000000001
 20
-127.7509
 30
0.0
 10
-176.22220000000002
 20
-129.0635
 30
0.0
 10
-176.9597
 20
-130.84370000000001
 30
0.0
 10
-176.9597
 20
-132.69990000000001
 30
0.0
  0
SPLINE
  5
35
100
AcDbEntity
  8
0
370
     5
100
AcDbSpline
210
0.0
220
0.0
230
1.0
 70
     0
 71
     3
 72
     8
 73
     4
 74
     0
 42
0.0000000001
 43
0.0000000001
 40
0.0
 40
0.0
 40
0.0
 40
0.0
 40
1.0
 40
1.0
 40
1.0
 40
1.0
 10
-149.1002
 20
-129.2004
 30
0.0
 10
-150.34040000000002
 20
-127.04520000000001
 30
0.0
 10
-152.63339999999999
 20
-125.71220000000001
 30
0.0
 10
-155.12010000000001
 20
-125.70100000000001
 30
0.0
  0
SPLINE
  5
36
100
AcDbEntity
  8
0
370
     5
100
AcDbSpline
210
0.0
220
0.0
230
1.0
 70
     0
 71
     3
 72
     8
 73
     4
 74
     0
 42
0.0000000001
 43
0.0000000001
 40
0.0
 40
0.0
 40
0.0
 40
0.0
 40
1.0
 40
1.0
 40
1.0
 40
1.0
 10
-121.66080000000001
 20
-176.23330000000001
 30
0.0
 10
-119.1401
 20
-180.4846
 30
0.0
 10
-114.5639
 20
-183.0917
 30
0.0
 10
-109.62100000000001
 20
-183.09230000000002
 30
0.0
  0
SPLINE
  5
37
100
AcDbEntity
  8
0
370
     5
100
AcDbSpline
210
0.0
220
0.0
230
1.0
 70
     0
 71
     3
 72
     8
 73
     4
 74
     0
 42
0.0000000001
 43
0.0000000001
 40
0.0
 40
0.0
 40
0.0
 40
0.0
 40
1.0
 40
1.0
 40
1.0
 40
1.0
 10
-85.961399999999998
 20
-183.09230000000002
 30
0.0
 10
-85.2423
 20
-183.12040000000002
 30
0.0
 10
-84.54010000000001
 20
-182.86960000000002
 30
0.0
 10
-84.001500000000007
 20
-182.39240000000001
 30
0.0
  0
SPLINE
  5
38
100
AcDbEntity
  8
0
370
     5
100
AcDbSpline
210
0.0
220
0.0
230
1.0
 70
     0
 71
     3
 72
     8
 73
     4
 74
     0
 42
0.0000000001
 43
0.0000000001
 40
0.0
 40
0.0
 40
0.0
 40
0.0
 40
1.0
 40
1.0
 40
1.0
 40
1.0
 10
-77.8416
 20
-177.4932
 30
0.0
 10
-78.580500000000001
 20
-177.50210000000001
 30
0.0
 10
-79.285499999999999
 20
-177.80430000000001
 30
0.0
 10
-79.801600000000008
 20
-178.333
 30
0.0
  0
SPLINE
  5
39
100
AcDbEntity
  8
0
370
     5
100
AcDbSpline
210
0.0
220
0.0
230
1.0
 70
     0
 71
     3
 72
    12
 73
     8
 74
     0
 42
0.0000000001
 43
0.0000000001
 40
0.0
 40
0.0
 40
0.0
 40
0.0
 40
0.5
 40
0.5
 40
0.5
 40
0.5
 40
1.0
 40
1.0
 40
1.0
 40
1.0
 10
-70.561700000000002
 20
-178.19310000000002
 30
0.0
 10
-70.561700000000002
 20
-178.00740000000002
 30
0.0
 10
-70.635500000000008
 20
-177.82940000000002
 30
0.0
 10
-70.766800000000003
 20
-177.69810000000001
 30
0.0
 10
-70.766800000000003
 20
-177.69810000000001
 30
0.0
 10
-70.89800000000001
 20
-177.5669
 30
0.0
 10
-71.076099999999997
 20
-177.4932
 30
0.0
 10
-71.261700000000005
 20
-177.4932
 30
0.0
  0
SPLINE
  5
3A
100
AcDbEntity
  8
0
370
     5
100
AcDbSpline
210
0.0
220
0.0
230
1.0
 70
     0
 71
     3
 72
    16
 73
    12
 74
     0
 42
0.0000000001
 43
0.0000000001
 40
0.0
 40
0.0
 40
0.0
 40
0.0
 40
0.3333333333333333
 40
0.3333333333333333
 40
0.3333333333333333
 40
0.3333333333333333
 40
0.6666666666666666
 40
0.6666666666666666
 40
0.6666666666666666
 40
0.6666666666666666
 40
1.0
 40
1.0
 40
1.0
 40
1.0
 10
-70.561700000000002
 20
-190.7912
 30
0.0
 10
-70.561700000000002
 20
-191.54130000000001
 30
0.0
 10
-70.161500000000004
 20
-192.2345
 30
0.0
 10
-69.511800000000008
 20
-192.6095
 30
0.0
 10
-69.511800000000008
 20
-192.6095
 30
0.0
 10
-68.862000000000009
 20
-192.9846
 30
0.0
 10
-68.061500000000009
 20
-192.9846
 30
0.0
 10
-67.411799999999999
 20
-192.6095
 30
0.0
 10
-67.411799999999999
 20
-192.6095
 30
0.0
 10
-66.762100000000004
 20
-192.2345
 30
0.0
 10
-66.361800000000002
 20
-191.54130000000001
 30
0.0
 10
-66.361800000000002
 20
-190.7912
 30
0.0
  0
SPLINE
  5
3B
100
AcDbEntity
  8
0
370
     5
100
AcDbSpline
210
0.0
220
0.0
230
1.0
 70
     0
 71
     3
 72
    12
 73
     8
 74
     0
 42
0.0000000001
 43
0.0000000001
 40
0.0
 40
0.0
 40
0.0
 40
0.0
 40
0.5
 40
0.5
 40
0.5
 40
0.5
 40
1.0
 40
1.0
 40
1.0
 40
1.0
 10
-65.661799999999999
 20
-177.4932
 30
0.0
 10
-65.847499999999997
 20
-177.4932
 30
0.0
 10
-66.025500000000008
 20
-177.5669
 30
0.0
 10
-66.156800000000004
 20
-177.69810000000001
 30
0.0
 10
-66.156800000000004
 20
-177.69810000000001
 30
0.0
 10
-66.2881
 20
-177.82940000000002
 30
0.0
 10
-66.361800000000002
 20
-178.00740000000002
 30
0.0
 10
-66.361800000000002
 20
-178.19310000000002
 30
0.0
  0
SPLINE
  5
3C
100
AcDbEntity
  8
0
370
     5
100
AcDbSpline
210
0.0
220
0.0
230
1.0
 70
     0
 71
     3
 72
    12
 73
     8
 74
     0
 42
0.0000000001
 43
0.0000000001
 40
0.0
 40
0.0
 40
0.0
 40
0.0
 40
0.5
 40
0.5
 40
0.5
 40
0.5
 40
1.0
 40
1.0
 40
1.0
 40
1.0
 10
-27.162600000000001
 20
-178.19310000000002
 30
0.0
 10
-27.162600000000001
 20
-178.00740000000002
 30
0.0
 10
-27.2363
 20
-177.82940000000002
 30
0.0
 10
-27.367600000000003
 20
-177.69810000000001
 30
0.0
 10
-27.367600000000003
 20
-177.69810000000001
 30
0.0
 10
-27.498900000000003
 20
-177.5669
 30
0.0
 10
-27.6769
 20
-177.4932
 30
0.0
 10
-27.862500000000001
 20
-177.4932
 30
0.0
  0
SPLINE
  5
3D
100
AcDbEntity
  8
0
370
     5
100
AcDbSpline
210
0.0
220
0.0
230
1.0
 70
     0
 71
     3
 72
    16
 73
    12
 74
     0
 42
0.0000000001
 43
0.0000000001
 40
0.0
 40
0.0
 40
0.0
 40
0.0
 40
0.3333333333333333
 40
0.3333333333333333
 40
0.3333333333333333
 40
0.3333333333333333
 40
0.6666666666666666
 40
0.6666666666666666
 40
0.6666666666666666
 40
0.6666666666666666
 40
1.0
 40
1.0
 40
1.0
 40
1.0
 10
-27.162600000000001
 20
-190.7912
 30
0.0
 10
-27.162600000000001
 20
-191.54130000000001
 30
0.0
 10
-26.7623
 20
-192.2345
 30
0.0
 10
-26.1126
 20
-192.6095
 30
0.0
 10
-26.1126
 20
-192.6095
 30
0.0
 10
-25.462900000000001
 20
-192.9846
 30
0.0
 10
-24.662300000000002
 20
-192.9846
 30
0.0
 10
-24.012600000000003
 20
-192.6095
 30
0.0
 10
-24.012600000000003
 20
-192.6095
 30
0.0
 10
-23.3629
 20
-192.2345
 30
0.0
 10
-22.962600000000002
 20
-191.54130000000001
 30
0.0
 10
-22.962600000000002
 20
-190.7912
 30
0.0
  0
SPLINE
  5
3E
100
AcDbEntity
  8
0
370
     5
100
AcDbSpline
210
0.0
220
0.0
230
1.0
 70
     0
 71
     3
 72
    12
 73
     8
 74
     0
 42
0.0000000001
 43
0.0000000001
 40
0.0
 40
0.0
 40
0.0
 40
0.0
 40
0.5
 40
0.5
 40
0.5
 40
0.5
 40
1.0
 40
1.0
 40
1.0
 40
1.0
 10
-22.262600000000003
 20
-177.4932
 30
0.0
 10
-22.4483
 20
-177.4932
 30
0.0
 10
-22.626300000000001
 20
-177.5669
 30
0.0
 10
-22.7576
 20
-177.69810000000001
 30
0.0
 10
-22.7576
 20
-177.69810000000001
 30
0.0
 10
-22.8889
 20
-177.82940000000002
 30
0.0
 10
-22.962600000000002
 20
-178.00740000000002
 30
0.0
 10
-22.962600000000002
 20
-178.19310000000002
 30
0.0
  0
SPLINE
  5
3F
100
AcDbEntity
  8
0
370
     5
100
AcDbSpline
210
0.0
220
0.0
230
1.0
 70
     0
 71
     3
 72
    12
 73
     8
 74
     0
 42
0.0000000001
 43
0.0000000001
 40
0.0
 40
0.0
 40
0.0
 40
0.0
 40
0.5
 40
0.5
 40
0.5
 40
0.5
 40
1.0
 40
1.0
 40
1.0
 40
1.0
 10
-72.801699999999997
 20
-168.53450000000001
 30
0.0
 10
-71.639300000000006
 20
-168.30790000000002
 30
0.0
 10
-70.626800000000003
 20
-167.6009
 30
0.0
 10
-70.013500000000008
 20
-166.58790000000002
 30
0.0
 10
-70.013500000000008
 20
-166.58790000000002
 30
0.0
 10
-69.400300000000001
 20
-165.57490000000001
 30
0.0
 10
-69.243499999999997
 20
-164.3501
 30
0.0
 10
-69.581800000000001
 20
-163.21530000000001
 30
0.0
  0
SPLINE
  5
40
100
AcDbEntity
  8
0
370
     5
100
AcDbSpline
210
0.0
220
0.0
230
1.0
 70
     0
 71
     3
 72
     8
 73
     4
 74
     0
 42
0.0000000001
 43
0.0000000001
 40
0.0
 40
0.0
 40
0.0
 40
0.0
 40
1.0
 40
1.0
 40
1.0
 40
1.0
 10
-76.721600000000009
 20
-168.53450000000001
 30
0.0
 10
-76.651600000000002
 20
-168.86410000000001
 30
0.0
 10
-76.35860000000001
 20
-169.0985
 30
0.0
 10
-76.021600000000007
 20
-169.09440000000001
 30
0.0
  0
SPLINE
  5
41
100
AcDbEntity
  8
0
370
     5
100
AcDbSpline
210
0.0
220
0.0
230
1.0
 70
     0
 71
     3
 72
    12
 73
     8
 74
     0
 42
0.0000000001
 43
0.0000000001
 40
0.0
 40
0.0
 40
0.0
 40
0.0
 40
0.5
 40
0.5
 40
0.5
 40
0.5
 40
1.0
 40
1.0
 40
1.0
 40
1.0
 10
-86.5214
 20
-135.21950000000001
 30
0.0
 10
-86.8386
 20
-134.10830000000001
 30
0.0
 10
-87.9923
 20
-133.46030000000002
 30
0.0
 10
-89.106500000000011
 20
-133.76760000000002
 30
0.0
 10
-89.106500000000011
 20
-133.76760000000002
 30
0.0
 10
-90.220600000000005
 20
-134.07490000000001
 30
0.0
 10
-90.878799999999998
 20
-135.2227
 30
0.0
 10
-90.581400000000002
 20
-136.33940000000001
 30
0.0
  0
SPLINE
  5
42
100
AcDbEntity
  8
0
370
     5
100
AcDbSpline
210
0.0
220
0.0
230
1.0
 70
     0
 71
     3
 72
    12
 73
     8
 74
     0
 42
0.0000000001
 43
0.0000000001
 40
0.0
 40
0.0
 40
0.0
 40
0.0
 40
0.5
 40
0.5
 40
0.5
 40
0.5
 40
1.0
 40
1.0
 40
1.0
 40
1.0
 10
-81.761499999999998
 20
-169.51439999999999
 30
0.0
 10
-81.549700000000001
 20
-169.51609999999999
 30
0.0
 10
-81.348300000000009
 20
-169.42270000000002
 30
0.0
 10
-81.212699999999998
 20
-169.26000000000002
 30
0.0
 10
-81.212699999999998
 20
-169.26000000000002
 30
0.0
 10
-81.077200000000005
 20
-169.09740000000002
 30
0.0
 10
-81.02170000000001
 20
-168.88250000000002
 30
0.0
 10
-81.061500000000009
 20
-168.67449999999999
 30
0.0
  0
SPLINE
  5
43
100
AcDbEntity
  8
0
370
     5
100
AcDbSpline
210
0.0
220
0.0
230
1.0
 70
     0
 71
     3
 72
     8
 73
     4
 74
     0
 42
0.0000000001
 43
0.0000000001
 40
0.0
 40
0.0
 40
0.0
 40
0.0
 40
1.0
 40
1.0
 40
1.0
 40
1.0
 10
-123.6207
 20
-149.91730000000001
 30
0.0
 10
-113.5158
 20
-162.65479999999999
 30
0.0
 10
-98.01700000000001
 20
-169.91079999999999
 30
0.0
 10
-81.761499999999998
 20
-169.51439999999999
 30
0.0
  0
SPLINE
  5
44
100
AcDbEntity
  8
0
370
     5
100
AcDbSpline
210
0.0
220
0.0
230
1.0
 70
     0
 71
     3
 72
    12
 73
     8
 74
     0
 42
0.0000000001
 43
0.0000000001
 40
0.0
 40
0.0
 40
0.0
 40
0.0
 40
0.5
 40
0.5
 40
0.5
 40
0.5
 40
1.0
 40
1.0
 40
1.0
 40
1.0
 10
-169.81980000000001
 20
-79.088000000000008
 30
0.0
 10
-171.57210000000001
 20
-78.520800000000008
 30
0.0
 10
-173.48850000000002
 20
-79.17710000000001
 30
0.0
 10
-174.52500000000001
 20
-80.699300000000008
 30
0.0
 10
-174.52500000000001
 20
-80.699300000000008
 30
0.0
 10
-175.5615
 20
-82.221500000000006
 30
0.0
 10
-175.46980000000002
 20
-84.244799999999998
 30
0.0
 10
-174.2998
 20
-85.667000000000002
 30
0.0
  0
SPLINE
  5
45
100
AcDbEntity
  8
0
370
     5
100
AcDbSpline
210
0.0
220
0.0
230
1.0
 70
     0
 71
     3
 72
     8
 73
     4
 74
     0
 42
0.0000000001
 43
0.0000000001
 40
0.0
 40
0.0
 40
0.0
 40
0.0
 40
1.0
 40
1.0
 40
1.0
 40
1.0
 10
-169.81980000000001
 20
-79.088000000000008
 30
0.0
 10
-147.94900000000001
 20
-85.933700000000002
 30
0.0
 10
-125.11420000000001
 20
-89.195400000000006
 30
0.0
 10
-102.20110000000001
 20
-88.746499999999997
 30
0.0
  0
SPLINE
  5
46
100
AcDbEntity
  8
0
370
     5
100
AcDbSpline
210
0.0
220
0.0
230
1.0
 70
     0
 71
     3
 72
     8
 73
     4
 74
     0
 42
0.0000000001
 43
0.0000000001
 40
0.0
 40
0.0
 40
0.0
 40
0.0
 40
1.0
 40
1.0
 40
1.0
 40
1.0
 10
-88.481400000000008
 20
-98.685000000000002
 30
0.0
 10
-90.309600000000003
 20
-92.671800000000005
 30
0.0
 10
-95.916800000000009
 20
-88.60990000000001
 30
0.0
 10
-102.20110000000001
 20
-88.746499999999997
 30
0.0
  0
SPLINE
  5
47
100
AcDbEntity
  8
0
370
     5
100
AcDbSpline
210
0.0
220
0.0
230
1.0
 70
     0
 71
     3
 72
    12
 73
     8
 74
     0
 42
0.0000000001
 43
0.0000000001
 40
0.0
 40
0.0
 40
0.0
 40
0.0
 40
0.5
 40
0.5
 40
0.5
 40
0.5
 40
1.0
 40
1.0
 40
1.0
 40
1.0
 10
-14.002800000000001
 20
-109.04350000000001
 30
0.0
 10
-13.8543
 20
-109.15480000000001
 30
0.0
 10
-13.6676
 20
-109.20270000000001
 30
0.0
 10
-13.4838
 20
-109.1764
 30
0.0
 10
-13.4838
 20
-109.1764
 30
0.0
 10
-13.300000000000001
 20
-109.15020000000001
 30
0.0
 10
-13.1342
 20
-109.05200000000001
 30
0.0
 10
-13.0228
 20
-108.90350000000001
 30
0.0
  0
SPLINE
  5
48
100
AcDbEntity
  8
0
370
     5
100
AcDbSpline
210
0.0
220
0.0
230
1.0
 70
     0
 71
     3
 72
    12
 73
     8
 74
     0
 42
0.0000000001
 43
0.0000000001
 40
0.0
 40
0.0
 40
0.0
 40
0.0
 40
0.5
 40
0.5
 40
0.5
 40
0.5
 40
1.0
 40
1.0
 40
1.0
 40
1.0
 10
-28.982500000000002
 20
-94.205700000000007
 30
0.0
 10
-29.837700000000002
 20
-93.427500000000009
 30
0.0
 10
-31.157800000000002
 20
-93.4739
 30
0.0
 10
-31.956300000000002
 20
-94.310299999999998
 30
0.0
 10
-31.956300000000002
 20
-94.310299999999998
 30
0.0
 10
-32.7547
 20
-95.146600000000007
 30
0.0
 10
-32.739699999999999
 20
-96.467200000000005
 30
0.0
 10
-31.922500000000003
 20
-97.285200000000003
 30
0.0
  0
SPLINE
  5
49
100
AcDbEntity
  8
0
370
     5
100
AcDbSpline
210
0.0
220
0.0
230
1.0
 70
     0
 71
     3
 72
    12
 73
     8
 74
     0
 42
0.0000000001
 43
0.0000000001
 40
0.0
 40
0.0
 40
0.0
 40
0.0
 40
0.5
 40
0.5
 40
0.5
 40
0.5
 40
1.0
 40
1.0
 40
1.0
 40
1.0
 10
-16.942700000000002
 20
-112.9629
 30
0.0
 10
-16.8002
 20
-112.84
 30
0.0
 10
-16.718299999999999
 20
-112.6611
 30
0.0
 10
-16.718299999999999
 20
-112.473
 30
0.0
 10
-16.718299999999999
 20
-112.473
 30
0.0
 10
-16.718299999999999
 20
-112.2848
 30
0.0
 10
-16.8002
 20
-112.10590000000001
 30
0.0
 10
-16.942700000000002
 20
-111.983
 30
0.0
  0
SPLINE
  5
4A
100
AcDbEntity
  8
0
370
     5
100
AcDbSpline
210
0.0
220
0.0
230
1.0
 70
     0
 71
     3
 72
     8
 73
     4
 74
     0
 42
0.0000000001
 43
0.0000000001
 40
0.0
 40
0.0
 40
0.0
 40
0.0
 40
1.0
 40
1.0
 40
1.0
 40
1.0
 10
-16.942800000000002
 20
-112.9629
 30
0.0
 10
-31.1157
 20
-127.5445
 30
0.0
 10
-44.393000000000001
 20
-142.97040000000001
 30
0.0
 10
-56.702000000000005
 20
-159.1559
 30
0.0
  0
SPLINE
  5
4B
100
AcDbEntity
  8
0
370
     5
100
AcDbSpline
210
0.0
220
0.0
230
1.0
 70
     0
 71
     3
 72
    12
 73
     8
 74
     0
 42
0.0000000001
 43
0.0000000001
 40
0.0
 40
0.0
 40
0.0
 40
0.0
 40
0.5
 40
0.5
 40
0.5
 40
0.5
 40
1.0
 40
1.0
 40
1.0
 40
1.0
 10
-64.121899999999997
 20
-157.1962
 30
0.0
 10
-63.8431
 20
-158.82429999999999
 30
0.0
 10
-62.639400000000002
 20
-160.13980000000001
 30
0.0
 10
-61.042200000000001
 20
-160.5616
 30
0.0
 10
-61.042200000000001
 20
-160.5616
 30
0.0
 10
-59.445
 20
-160.98350000000002
 30
0.0
 10
-57.7485
 20
-160.434
 30
0.0
 10
-56.702000000000005
 20
-159.1559
 30
0.0
  0
SPLINE
  5
4C
100
AcDbEntity
  8
0
370
     5
100
AcDbSpline
210
0.0
220
0.0
230
1.0
 70
     0
 71
     3
 72
     8
 73
     4
 74
     0
 42
0.0000000001
 43
0.0000000001
 40
0.0
 40
0.0
 40
0.0
 40
0.0
 40
1.0
 40
1.0
 40
1.0
 40
1.0
 10
-72.941699999999997
 20
-91.826100000000011
 30
0.0
 10
-73.209500000000006
 20
-94.999300000000005
 30
0.0
 10
-73.115600000000001
 20
-98.192700000000002
 30
0.0
 10
-72.66170000000001
 20
-101.3446
 30
0.0
  0
SPLINE
  5
4D
100
AcDbEntity
  8
0
370
     5
100
AcDbSpline
210
0.0
220
0.0
230
1.0
 70
     0
 71
     3
 72
    12
 73
     8
 74
     0
 42
0.0000000001
 43
0.0000000001
 40
0.0
 40
0.0
 40
0.0
 40
0.0
 40
0.5
 40
0.5
 40
0.5
 40
0.5
 40
1.0
 40
1.0
 40
1.0
 40
1.0
 10
-71.821700000000007
 20
-91.406100000000009
 30
0.0
 10
-72.015000000000001
 20
-91.25930000000001
 30
0.0
 10
-72.270200000000003
 20
-91.221900000000005
 30
0.0
 10
-72.497600000000006
 20
-91.307100000000005
 30
0.0
 10
-72.497600000000006
 20
-91.307100000000005
 30
0.0
 10
-72.724900000000005
 20
-91.392400000000009
 30
0.0
 10
-72.892600000000002
 20
-91.588300000000004
 30
0.0
 10
-72.941699999999997
 20
-91.826100000000011
 30
0.0
  0
SPLINE
  5
4E
100
AcDbEntity
  8
0
370
     5
100
AcDbSpline
210
0.0
220
0.0
230
1.0
 70
     0
 71
     3
 72
    16
 73
    12
 74
     0
 42
0.0000000001
 43
0.0000000001
 40
0.0
 40
0.0
 40
0.0
 40
0.0
 40
0.3333333333333333
 40
0.3333333333333333
 40
0.3333333333333333
 40
0.3333333333333333
 40
0.6666666666666666
 40
0.6666666666666666
 40
0.6666666666666666
 40
0.6666666666666666
 40
1.0
 40
1.0
 40
1.0
 40
1.0
 10
-62.301900000000003
 20
-100.6447
 30
0.0
 10
-61.776700000000005
 20
-101.16980000000001
 30
0.0
 10
-61.011300000000006
 20
-101.37490000000001
 30
0.0
 10
-60.293900000000001
 20
-101.18270000000001
 30
0.0
 10
-60.293900000000001
 20
-101.18270000000001
 30
0.0
 10
-59.576500000000003
 20
-100.99050000000001
 30
0.0
 10
-59.016100000000002
 20
-100.4302
 30
0.0
 10
-58.823900000000002
 20
-99.712900000000005
 30
0.0
 10
-58.823900000000002
 20
-99.712900000000005
 30
0.0
 10
-58.631700000000002
 20
-98.99560000000001
 30
0.0
 10
-58.836800000000004
 20
-98.2303
 30
0.0
 10
-59.362000000000002
 20
-97.705200000000005
 30
0.0
  0
SPLINE
  5
4F
100
AcDbEntity
  8
0
370
     5
100
AcDbSpline
210
0.0
220
0.0
230
1.0
 70
     0
 71
     3
 72
     8
 73
     4
 74
     0
 42
0.0000000001
 43
0.0000000001
 40
0.0
 40
0.0
 40
0.0
 40
0.0
 40
1.0
 40
1.0
 40
1.0
 40
1.0
 10
-71.821700000000007
 20
-84.967100000000002
 30
0.0
 10
-71.900700000000001
 20
-85.208800000000011
 30
0.0
 10
-71.8476
 20
-85.474299999999999
 30
0.0
 10
-71.681700000000006
 20
-85.667000000000002
 30
0.0
  0
SPLINE
  5
50
100
AcDbEntity
  8
0
370
     5
100
AcDbSpline
210
0.0
220
0.0
230
1.0
 70
     0
 71
     3
 72
     8
 73
     4
 74
     0
 42
0.0000000001
 43
0.0000000001
 40
0.0
 40
0.0
 40
0.0
 40
0.0
 40
1.0
 40
1.0
 40
1.0
 40
1.0
 10
-41.862300000000005
 20
-54.591700000000003
 30
0.0
 10
-56.650500000000001
 20
-58.481100000000005
 30
0.0
 10
-68.138000000000005
 20
-70.128200000000007
 30
0.0
 10
-71.821700000000007
 20
-84.967100000000002
 30
0.0
  0
SPLINE
  5
51
100
AcDbEntity
  8
0
370
     5
100
AcDbSpline
210
0.0
220
0.0
230
1.0
 70
     0
 71
     3
 72
     8
 73
     4
 74
     0
 42
0.0000000001
 43
0.0000000001
 40
0.0
 40
0.0
 40
0.0
 40
0.0
 40
1.0
 40
1.0
 40
1.0
 40
1.0
 10
-41.162300000000002
 20
-54.731700000000004
 30
0.0
 10
-41.341100000000004
 20
-54.539100000000005
 30
0.0
 10
-41.623200000000004
 20
-54.482700000000001
 30
0.0
 10
-41.862300000000005
 20
-54.591700000000003
 30
0.0
  0
SPLINE
  5
52
100
AcDbEntity
  8
0
370
     5
100
AcDbSpline
210
0.0
220
0.0
230
1.0
 70
     0
 71
     3
 72
    16
 73
    12
 74
     0
 42
0.0000000001
 43
0.0000000001
 40
0.0
 40
0.0
 40
0.0
 40
0.0
 40
0.3333333333333333
 40
0.3333333333333333
 40
0.3333333333333333
 40
0.3333333333333333
 40
0.6666666666666666
 40
0.6666666666666666
 40
0.6666666666666666
 40
0.6666666666666666
 40
1.0
 40
1.0
 40
1.0
 40
1.0
 10
-28.982500000000002
 20
-66.769800000000004
 30
0.0
 10
-28.4574
 20
-67.295000000000002
 30
0.0
 10
-27.6919
 20
-67.5
 30
0.0
 10
-26.974500000000003
 20
-67.3078
 30
0.0
 10
-26.974500000000003
 20
-67.3078
 30
0.0
 10
-26.257100000000001
 20
-67.115600000000001
 30
0.0
 10
-25.6968
 20
-66.555300000000003
 30
0.0
 10
-25.5045
 20
-65.838000000000008
 30
0.0
 10
-25.5045
 20
-65.838000000000008
 30
0.0
 10
-25.3123
 20
-65.120699999999999
 30
0.0
 10
-25.517400000000002
 20
-64.355400000000003
 30
0.0
 10
-26.0426
 20
-63.830300000000001
 30
0.0
  0
SPLINE
  5
53
100
AcDbEntity
  8
0
370
     5
100
AcDbSpline
210
0.0
220
0.0
230
1.0
 70
     0
 71
     3
 72
    12
 73
     8
 74
     0
 42
0.0000000001
 43
0.0000000001
 40
0.0
 40
0.0
 40
0.0
 40
0.0
 40
0.5
 40
0.5
 40
0.5
 40
0.5
 40
1.0
 40
1.0
 40
1.0
 40
1.0
 10
-35.002400000000002
 20
-53.331900000000005
 30
0.0
 10
-35.264299999999999
 20
-53.340400000000002
 30
0.0
 10
-35.495100000000001
 20
-53.506
 30
0.0
 10
-35.5871
 20
-53.751300000000001
 30
0.0
 10
-35.5871
 20
-53.751300000000001
 30
0.0
 10
-35.679099999999998
 20
-53.996600000000001
 30
0.0
 10
-35.614100000000001
 20
-54.273099999999999
 30
0.0
 10
-35.422400000000003
 20
-54.451700000000002
 30
0.0
  0
SPLINE
  5
54
100
AcDbEntity
  8
0
370
     5
100
AcDbSpline
210
0.0
220
0.0
230
1.0
 70
     0
 71
     3
 72
     8
 73
     4
 74
     0
 42
0.0000000001
 43
0.0000000001
 40
0.0
 40
0.0
 40
0.0
 40
0.0
 40
1.0
 40
1.0
 40
1.0
 40
1.0
 10
-25.482600000000001
 20
-53.471900000000005
 30
0.0
 10
-28.6402
 20
-53.063900000000004
 30
0.0
 10
-31.834100000000003
 20
-53.0169
 30
0.0
 10
-35.002400000000002
 20
-53.331900000000005
 30
0.0
  0
SPLINE
  5
55
100
AcDbEntity
  8
0
370
     5
100
AcDbSpline
210
0.0
220
0.0
230
1.0
 70
     0
 71
     3
 72
    12
 73
     8
 74
     0
 42
0.0000000001
 43
0.0000000001
 40
0.0
 40
0.0
 40
0.0
 40
0.0
 40
0.5
 40
0.5
 40
0.5
 40
0.5
 40
1.0
 40
1.0
 40
1.0
 40
1.0
 10
32.476300000000002
 20
-68.449600000000004
 30
0.0
 10
33.769300000000001
 20
-67.388500000000008
 30
0.0
 10
34.310700000000004
 20
-65.662199999999999
 30
0.0
 10
33.8551
 20
-64.052900000000008
 30
0.0
 10
33.8551
 20
-64.052900000000008
 30
0.0
 10
33.3996
 20
-62.4435
 30
0.0
 10
32.033700000000003
 20
-61.257000000000005
 30
0.0
 10
30.376300000000001
 20
-61.030700000000003
 30
0.0
  0
SPLINE
  5
56
100
AcDbEntity
  8
0
370
     5
100
AcDbSpline
210
0.0
220
0.0
230
1.0
 70
     0
 71
     3
 72
     8
 73
     4
 74
     0
 42
0.0000000001
 43
0.0000000001
 40
0.0
 40
0.0
 40
0.0
 40
0.0
 40
1.0
 40
1.0
 40
1.0
 40
1.0
 10
32.476300000000002
 20
-68.449600000000004
 30
0.0
 10
16.508500000000002
 20
-81.005200000000002
 30
0.0
 10
1.3144
 20
-94.514499999999998
 30
0.0
 10
-13.0228
 20
-108.90350000000001
 30
0.0
  0
SPLINE
  5
57
100
AcDbEntity
  8
0
370
     5
100
AcDbSpline
210
0.0
220
0.0
230
1.0
 70
     0
 71
     3
 72
     8
 73
     4
 74
     0
 42
0.0000000001
 43
0.0000000001
 40
0.0
 40
0.0
 40
0.0
 40
0.0
 40
1.0
 40
1.0
 40
1.0
 40
1.0
 10
75.1755
 20
-47.032800000000002
 30
0.0
 10
74.653599999999997
 20
-45.834800000000001
 30
0.0
 10
73.385500000000008
 20
-45.1432
 30
0.0
 10
72.095600000000005
 20
-45.353100000000005
 30
0.0
  0
SPLINE
  5
58
100
AcDbEntity
  8
0
370
     5
100
AcDbSpline
210
0.0
220
0.0
230
1.0
 70
     0
 71
     3
 72
    12
 73
     8
 74
     0
 42
0.0000000001
 43
0.0000000001
 40
0.0
 40
0.0
 40
0.0
 40
0.0
 40
0.5
 40
0.5
 40
0.5
 40
0.5
 40
1.0
 40
1.0
 40
1.0
 40
1.0
 10
57.955800000000004
 20
-47.312800000000003
 30
0.0
 10
57.0991
 20
-47.411500000000004
 30
0.0
 10
56.337800000000001
 20
-47.905000000000001
 30
0.0
 10
55.898099999999999
 20
-48.646900000000002
 30
0.0
 10
55.898099999999999
 20
-48.646900000000002
 30
0.0
 10
55.458400000000005
 20
-49.3887
 30
0.0
 10
55.391000000000005
 20
-50.293400000000005
 30
0.0
 10
55.715900000000005
 20
-51.092200000000005
 30
0.0
  0
SPLINE
  5
59
100
AcDbEntity
  8
0
370
     5
100
AcDbSpline
210
0.0
220
0.0
230
1.0
 70
     0
 71
     3
 72
    12
 73
     8
 74
     0
 42
0.0000000001
 43
0.0000000001
 40
0.0
 40
0.0
 40
0.0
 40
0.0
 40
0.5
 40
0.5
 40
0.5
 40
0.5
 40
1.0
 40
1.0
 40
1.0
 40
1.0
 10
68.595600000000005
 20
-84.547200000000004
 30
0.0
 10
68.955700000000007
 20
-85.514300000000006
 30
0.0
 10
69.81580000000001
 20
-86.2072
 30
0.0
 10
70.837500000000006
 20
-86.353099999999998
 30
0.0
 10
70.837500000000006
 20
-86.353099999999998
 30
0.0
 10
71.859300000000005
 20
-86.499099999999999
 30
0.0
 10
72.879000000000005
 20
-86.074700000000007
 30
0.0
 10
73.495500000000007
 20
-85.247100000000003
 30
0.0
  0
SPLINE
  5
5A
100
AcDbEntity
  8
0
370
     5
100
AcDbSpline
210
0.0
220
0.0
230
1.0
 70
     0
 71
     3
 72
     8
 73
     4
 74
     0
 42
0.0000000001
 43
0.0000000001
 40
0.0
 40
0.0
 40
0.0
 40
0.0
 40
1.0
 40
1.0
 40
1.0
 40
1.0
 10
83.575299999999999
 20
-72.649000000000001
 30
0.0
 10
84.19980000000001
 20
-71.8553
 30
0.0
 10
84.359400000000008
 20
-70.791300000000007
 30
0.0
 10
83.9953
 20
-69.849400000000003
 30
0.0
  0
SPLINE
  5
5B
100
AcDbEntity
  8
0
370
     5
100
AcDbSpline
210
0.0
220
0.0
230
1.0
 70
     0
 71
     3
 72
    12
 73
     8
 74
     0
 42
0.0000000001
 43
0.0000000001
 40
0.0
 40
0.0
 40
0.0
 40
0.0
 40
0.5
 40
0.5
 40
0.5
 40
0.5
 40
1.0
 40
1.0
 40
1.0
 40
1.0
 10
60.4758
 20
-9.3785000000000007
 30
0.0
 10
60.0854
 20
-8.4808000000000003
 30
0.0
 10
59.259
 20
-7.8483000000000001
 30
0.0
 10
58.290400000000005
 20
-7.7059000000000006
 30
0.0
 10
58.290400000000005
 20
-7.7059000000000006
 30
0.0
 10
57.3217
 20
-7.5635000000000003
 30
0.0
 10
56.348200000000006
 20
-7.9313000000000002
 30
0.0
 10
55.715900000000005
 20
-8.6786000000000012
 30
0.0
  0
SPLINE
  5
5C
100
AcDbEntity
  8
0
370
     5
100
AcDbSpline
210
0.0
220
0.0
230
1.0
 70
     0
 71
     3
 72
     8
 73
     4
 74
     0
 42
0.0000000001
 43
0.0000000001
 40
0.0
 40
0.0
 40
0.0
 40
0.0
 40
1.0
 40
1.0
 40
1.0
 40
1.0
 10
45.636099999999999
 20
-21.416700000000002
 30
0.0
 10
45.011600000000001
 20
-22.2103
 30
0.0
 10
44.852000000000004
 20
-23.2744
 30
0.0
 10
45.216100000000004
 20
-24.2163
 30
0.0
  0
SPLINE
  5
5D
100
AcDbEntity
  8
0
370
     5
100
AcDbSpline
210
0.0
220
0.0
230
1.0
 70
     0
 71
     3
 72
     8
 73
     4
 74
     0
 42
0.0000000001
 43
0.0000000001
 40
0.0
 40
0.0
 40
0.0
 40
0.0
 40
1.0
 40
1.0
 40
1.0
 40
1.0
 10
50.956000000000003
 20
-39.054000000000002
 30
0.0
 10
51.421300000000002
 20
-40.314
 30
0.0
 10
52.707599999999999
 20
-41.074000000000005
 30
0.0
 10
54.035900000000005
 20
-40.873800000000003
 30
0.0
  0
SPLINE
  5
5E
100
AcDbEntity
  8
0
370
     5
100
AcDbSpline
210
0.0
220
0.0
230
1.0
 70
     0
 71
     3
 72
    12
 73
     8
 74
     0
 42
0.0000000001
 43
0.0000000001
 40
0.0
 40
0.0
 40
0.0
 40
0.0
 40
0.5
 40
0.5
 40
0.5
 40
0.5
 40
1.0
 40
1.0
 40
1.0
 40
1.0
 10
68.175600000000003
 20
-38.774100000000004
 30
0.0
 10
69.040999999999997
 20
-38.692799999999998
 30
0.0
 10
69.815100000000001
 20
-38.202300000000001
 30
0.0
 10
70.258200000000002
 20
-37.454700000000003
 30
0.0
 10
70.258200000000002
 20
-37.454700000000003
 30
0.0
 10
70.701300000000003
 20
-36.707100000000004
 30
0.0
 10
70.759799999999998
 20
-35.7926
 30
0.0
 10
70.415599999999998
 20
-34.994599999999998
 30
0.0
  0
SPLINE
  5
5F
100
AcDbEntity
  8
0
370
     5
100
AcDbSpline
210
0.0
220
0.0
230
1.0
 70
     0
 71
     3
 72
    12
 73
     8
 74
     0
 42
0.0000000001
 43
0.0000000001
 40
0.0
 40
0.0
 40
0.0
 40
0.0
 40
0.5
 40
0.5
 40
0.5
 40
0.5
 40
1.0
 40
1.0
 40
1.0
 40
1.0
 10
-6.8629000000000007
 20
-142.35840000000002
 30
0.0
 10
-6.9858000000000002
 20
-142.2159
 30
0.0
 10
-7.1647000000000007
 20
-142.13400000000001
 30
0.0
 10
-7.3529
 20
-142.13400000000001
 30
0.0
 10
-7.3529
 20
-142.13400000000001
 30
0.0
 10
-7.5411000000000001
 20
-142.13400000000001
 30
0.0
 10
-7.7200000000000006
 20
-142.2159
 30
0.0
 10
-7.8429000000000002
 20
-142.35840000000002
 30
0.0
  0
SPLINE
  5
60
100
AcDbEntity
  8
0
370
     5
100
AcDbSpline
210
0.0
220
0.0
230
1.0
 70
     0
 71
     3
 72
    16
 73
    12
 74
     0
 42
0.0000000001
 43
0.0000000001
 40
0.0
 40
0.0
 40
0.0
 40
0.0
 40
0.3333333333333333
 40
0.3333333333333333
 40
0.3333333333333333
 40
0.3333333333333333
 40
0.6666666666666666
 40
0.6666666666666666
 40
0.6666666666666666
 40
0.6666666666666666
 40
1.0
 40
1.0
 40
1.0
 40
1.0
 10
3.0769000000000002
 20
-150.19730000000001
 30
0.0
 10
3.6771000000000003
 20
-150.6474
 30
0.0
 10
4.4718
 20
-150.7431
 30
0.0
 10
5.1618000000000004
 20
-150.44840000000002
 30
0.0
 10
5.1618000000000004
 20
-150.44840000000002
 30
0.0
 10
5.8517000000000001
 20
-150.15380000000002
 30
0.0
 10
6.3320000000000007
 20
-149.51340000000002
 30
0.0
 10
6.4217000000000004
 20
-148.7687
 30
0.0
 10
6.4217000000000004
 20
-148.7687
 30
0.0
 10
6.5115000000000007
 20
-148.0239
 30
0.0
 10
6.1970000000000001
 20
-147.28790000000001
 30
0.0
 10
5.5968
 20
-146.83780000000002
 30
0.0
  0
SPLINE
  5
61
100
AcDbEntity
  8
0
370
     5
100
AcDbSpline
210
0.0
220
0.0
230
1.0
 70
     0
 71
     3
 72
    12
 73
     8
 74
     0
 42
0.0000000001
 43
0.0000000001
 40
0.0
 40
0.0
 40
0.0
 40
0.0
 40
0.5
 40
0.5
 40
0.5
 40
0.5
 40
1.0
 40
1.0
 40
1.0
 40
1.0
 10
-4.343
 20
-138.01910000000001
 30
0.0
 10
-4.4544000000000006
 20
-138.16759999999999
 30
0.0
 10
-4.5022000000000002
 20
-138.35429999999999
 30
0.0
 10
-4.476
 20
-138.53800000000001
 30
0.0
 10
-4.476
 20
-138.53800000000001
 30
0.0
 10
-4.4497
 20
-138.7218
 30
0.0
 10
-4.3515000000000006
 20
-138.88760000000002
 30
0.0
 10
-4.2030000000000003
 20
-138.999
 30
0.0
  0
SPLINE
  5
62
100
AcDbEntity
  8
0
370
     5
100
AcDbSpline
210
0.0
220
0.0
230
1.0
 70
     0
 71
     3
 72
    12
 73
     8
 74
     0
 42
0.0000000001
 43
0.0000000001
 40
0.0
 40
0.0
 40
0.0
 40
0.0
 40
0.5
 40
0.5
 40
0.5
 40
0.5
 40
1.0
 40
1.0
 40
1.0
 40
1.0
 10
20.156500000000001
 20
-108.34360000000001
 30
0.0
 10
20.008000000000003
 20
-108.23220000000001
 30
0.0
 10
19.821300000000001
 20
-108.18440000000001
 30
0.0
 10
19.637600000000003
 20
-108.2106
 30
0.0
 10
19.637600000000003
 20
-108.2106
 30
0.0
 10
19.453800000000001
 20
-108.23690000000001
 30
0.0
 10
19.288
 20
-108.33510000000001
 30
0.0
 10
19.176600000000001
 20
-108.48360000000001
 30
0.0
  0
SPLINE
  5
63
100
AcDbEntity
  8
0
370
     5
100
AcDbSpline
210
0.0
220
0.0
230
1.0
 70
     0
 71
     3
 72
    12
 73
     8
 74
     0
 42
0.0000000001
 43
0.0000000001
 40
0.0
 40
0.0
 40
0.0
 40
0.0
 40
0.5
 40
0.5
 40
0.5
 40
0.5
 40
1.0
 40
1.0
 40
1.0
 40
1.0
 10
30.096400000000003
 20
-116.1824
 30
0.0
 10
30.989500000000003
 20
-116.8519
 30
0.0
 10
32.251200000000004
 20
-116.7017
 30
0.0
 10
32.9621
 20
-115.8412
 30
0.0
 10
32.9621
 20
-115.8412
 30
0.0
 10
33.673100000000005
 20
-114.9807
 30
0.0
 10
33.5824
 20
-113.71350000000001
 30
0.0
 10
32.756300000000003
 20
-112.9629
 30
0.0
  0
SPLINE
  5
64
100
AcDbEntity
  8
0
370
     5
100
AcDbSpline
210
0.0
220
0.0
230
1.0
 70
     0
 71
     3
 72
    12
 73
     8
 74
     0
 42
0.0000000001
 43
0.0000000001
 40
0.0
 40
0.0
 40
0.0
 40
0.0
 40
0.5
 40
0.5
 40
0.5
 40
0.5
 40
1.0
 40
1.0
 40
1.0
 40
1.0
 10
22.676500000000001
 20
-104.1442
 30
0.0
 10
22.565100000000001
 20
-104.29270000000001
 30
0.0
 10
22.517300000000002
 20
-104.4794
 30
0.0
 10
22.543500000000002
 20
-104.6631
 30
0.0
 10
22.543500000000002
 20
-104.6631
 30
0.0
 10
22.569800000000001
 20
-104.84690000000001
 30
0.0
 10
22.668000000000003
 20
-105.01270000000001
 30
0.0
 10
22.816500000000001
 20
-105.1241
 30
0.0
  0
SPLINE
  5
65
100
AcDbEntity
  8
0
370
     5
100
AcDbSpline
210
0.0
220
0.0
230
1.0
 70
     0
 71
     3
 72
     8
 73
     4
 74
     0
 42
0.0000000001
 43
0.0000000001
 40
0.0
 40
0.0
 40
0.0
 40
0.0
 40
1.0
 40
1.0
 40
1.0
 40
1.0
 10
28.696400000000001
 20
-97.845200000000006
 30
0.0
 10
27.9617
 20
-97.9529
 30
0.0
 10
27.303700000000003
 20
-98.357800000000012
 30
0.0
 10
26.8764
 20
-98.965000000000003
 30
0.0
  0
SPLINE
  5
66
100
AcDbEntity
  8
0
370
     5
100
AcDbSpline
210
0.0
220
0.0
230
1.0
 70
     0
 71
     3
 72
     8
 73
     4
 74
     0
 42
0.0000000001
 43
0.0000000001
 40
0.0
 40
0.0
 40
0.0
 40
0.0
 40
1.0
 40
1.0
 40
1.0
 40
1.0
 10
34.436300000000003
 20
-97.145300000000006
 30
0.0
 10
35.166499999999999
 20
-97.025600000000011
 30
0.0
 10
35.820300000000003
 20
-96.6233
 30
0.0
 10
36.2562
 20
-96.025400000000005
 30
0.0
  0
SPLINE
  5
67
100
AcDbEntity
  8
0
370
     5
100
AcDbSpline
210
0.0
220
0.0
230
1.0
 70
     0
 71
     3
 72
     8
 73
     4
 74
     0
 42
0.0000000001
 43
0.0000000001
 40
0.0
 40
0.0
 40
0.0
 40
0.0
 40
1.0
 40
1.0
 40
1.0
 40
1.0
 10
50.956000000000003
 20
-77.548200000000008
 30
0.0
 10
54.041800000000002
 20
-73.672499999999999
 30
0.0
 10
54.841000000000001
 20
-68.45150000000001
 30
0.0
 10
53.055900000000001
 20
-63.830300000000001
 30
0.0
  0
SPLINE
  5
68
100
AcDbEntity
  8
0
370
     5
100
AcDbSpline
210
0.0
220
0.0
230
1.0
 70
     0
 71
     3
 72
     8
 73
     4
 74
     0
 42
0.0000000001
 43
0.0000000001
 40
0.0
 40
0.0
 40
0.0
 40
0.0
 40
1.0
 40
1.0
 40
1.0
 40
1.0
 10
34.436300000000003
 20
-6.1590000000000007
 30
0.0
 10
32.863300000000002
 20
-8.1411999999999995
 30
0.0
 10
32.488199999999999
 20
-10.82
 30
0.0
 10
33.456299999999999
 20
-13.157900000000001
 30
0.0
  0
SPLINE
  5
69
100
AcDbEntity
  8
0
370
     5
100
AcDbSpline
210
0.0
220
0.0
230
1.0
 70
     0
 71
     3
 72
    12
 73
     8
 74
     0
 42
0.0000000001
 43
0.0000000001
 40
0.0
 40
0.0
 40
0.0
 40
0.0
 40
0.5
 40
0.5
 40
0.5
 40
0.5
 40
1.0
 40
1.0
 40
1.0
 40
1.0
 10
53.475900000000003
 20
6.4391000000000007
 30
0.0
 10
52.027900000000002
 20
7.5900000000000007
 30
0.0
 10
50.181900000000006
 20
8.1185000000000009
 30
0.0
 10
48.344000000000001
 20
7.9085000000000001
 30
0.0
 10
48.344000000000001
 20
7.9085000000000001
 30
0.0
 10
46.5062
 20
7.6985000000000001
 30
0.0
 10
44.827100000000002
 20
6.7671000000000001
 30
0.0
 10
43.676100000000005
 20
5.3193000000000001
 30
0.0
  0
SPLINE
  5
6A
100
AcDbEntity
  8
0
370
     5
100
AcDbSpline
210
0.0
220
0.0
230
1.0
 70
     0
 71
     3
 72
    12
 73
     8
 74
     0
 42
0.0000000001
 43
0.0000000001
 40
0.0
 40
0.0
 40
0.0
 40
0.0
 40
0.5
 40
0.5
 40
0.5
 40
0.5
 40
1.0
 40
1.0
 40
1.0
 40
1.0
 10
55.295900000000003
 20
4.1993999999999998
 30
0.0
 10
55.407299999999999
 20
4.3479000000000001
 30
0.0
 10
55.455100000000002
 20
4.5346000000000002
 30
0.0
 10
55.428800000000003
 20
4.7183999999999999
 30
0.0
 10
55.428800000000003
 20
4.7183999999999999
 30
0.0
 10
55.4026
 20
4.9020999999999999
 30
0.0
 10
55.304400000000001
 20
5.0678999999999998
 30
0.0
 10
55.155900000000003
 20
5.1793000000000005
 30
0.0
  0
SPLINE
  5
6B
100
AcDbEntity
  8
0
370
     5
100
AcDbSpline
210
0.0
220
0.0
230
1.0
 70
     0
 71
     3
 72
    12
 73
     8
 74
     0
 42
0.0000000001
 43
0.0000000001
 40
0.0
 40
0.0
 40
0.0
 40
0.0
 40
0.5
 40
0.5
 40
0.5
 40
0.5
 40
1.0
 40
1.0
 40
1.0
 40
1.0
 10
48.295999999999999
 20
-4.6192000000000002
 30
0.0
 10
47.629000000000005
 20
-5.5095000000000001
 30
0.0
 10
47.796199999999999
 20
-6.7696000000000005
 30
0.0
 10
48.6723
 20
-7.4552000000000005
 30
0.0
 10
48.6723
 20
-7.4552000000000005
 30
0.0
 10
49.548400000000001
 20
-8.1407000000000007
 30
0.0
 10
50.812000000000005
 20
-8.0001999999999995
 30
0.0
 10
51.516000000000005
 20
-7.1388000000000007
 30
0.0
  0
SPLINE
  5
6C
100
AcDbEntity
  8
0
370
     5
100
AcDbSpline
210
0.0
220
0.0
230
1.0
 70
     0
 71
     3
 72
    12
 73
     8
 74
     0
 42
0.0000000001
 43
0.0000000001
 40
0.0
 40
0.0
 40
0.0
 40
0.0
 40
0.5
 40
0.5
 40
0.5
 40
0.5
 40
1.0
 40
1.0
 40
1.0
 40
1.0
 10
59.495800000000003
 20
1.6798000000000002
 30
0.0
 10
59.347300000000004
 20
1.7912000000000001
 30
0.0
 10
59.160600000000002
 20
1.8390000000000002
 30
0.0
 10
58.976800000000004
 20
1.8128000000000002
 30
0.0
 10
58.976800000000004
 20
1.8128000000000002
 30
0.0
 10
58.793000000000006
 20
1.7865
 30
0.0
 10
58.627200000000002
 20
1.6883000000000001
 30
0.0
 10
58.515800000000006
 20
1.5399
 30
0.0
  0
SPLINE
  5
6D
100
AcDbEntity
  8
0
370
     5
100
AcDbSpline
210
0.0
220
0.0
230
1.0
 70
     0
 71
     3
 72
     8
 73
     4
 74
     0
 42
0.0000000001
 43
0.0000000001
 40
0.0
 40
0.0
 40
0.0
 40
0.0
 40
1.0
 40
1.0
 40
1.0
 40
1.0
 10
66.215699999999998
 20
-4.8992000000000004
 30
0.0
 10
65.786000000000001
 20
-3.7519
 30
0.0
 10
65.061700000000002
 20
-2.7381000000000002
 30
0.0
 10
64.115700000000004
 20
-1.9596
 30
0.0
  0
SPLINE
  5
6E
100
AcDbEntity
  8
0
370
     5
100
AcDbSpline
210
0.0
220
0.0
230
1.0
 70
     0
 71
     3
 72
     8
 73
     4
 74
     0
 42
0.0000000001
 43
0.0000000001
 40
0.0
 40
0.0
 40
0.0
 40
0.0
 40
1.0
 40
1.0
 40
1.0
 40
1.0
 10
88.755200000000002
 20
-81.887600000000006
 30
0.0
 10
91.818100000000001
 20
-78.001900000000006
 30
0.0
 10
92.615400000000008
 20
-72.793500000000009
 30
0.0
 10
90.855200000000011
 20
-68.169600000000003
 30
0.0
  0
SPLINE
  5
6F
100
AcDbEntity
  8
0
370
     5
100
AcDbSpline
210
0.0
220
0.0
230
1.0
 70
     0
 71
     3
 72
    12
 73
     8
 74
     0
 42
0.0000000001
 43
0.0000000001
 40
0.0
 40
0.0
 40
0.0
 40
0.0
 40
0.5
 40
0.5
 40
0.5
 40
0.5
 40
1.0
 40
1.0
 40
1.0
 40
1.0
 10
9.7967000000000013
 20
-169.79430000000002
 30
0.0
 10
11.2448
 20
-170.9452
 30
0.0
 10
13.0908
 20
-171.47370000000001
 30
0.0
 10
14.928600000000001
 20
-171.2637
 30
0.0
 10
14.928600000000001
 20
-171.2637
 30
0.0
 10
16.766400000000001
 20
-171.05370000000002
 30
0.0
 10
18.445499999999999
 20
-170.1223
 30
0.0
 10
19.596600000000002
 20
-168.67449999999999
 30
0.0
  0
SPLINE
  5
70
100
AcDbEntity
  8
0
370
     5
100
AcDbSpline
210
0.0
220
0.0
230
1.0
 70
     0
 71
     3
 72
     8
 73
     4
 74
     0
 42
0.0000000001
 43
0.0000000001
 40
0.0
 40
0.0
 40
0.0
 40
0.0
 40
1.0
 40
1.0
 40
1.0
 40
1.0
 10
-12.6028
 20
-148.3775
 30
0.0
 10
-13.538600000000001
 20
-149.5847
 30
0.0
 10
-13.353200000000001
 20
-151.31540000000001
 30
0.0
 10
-12.1828
 20
-152.297
 30
0.0
  0
SPLINE
  5
71
100
AcDbEntity
  8
0
370
     5
100
AcDbSpline
210
0.0
220
0.0
230
1.0
 70
     0
 71
     3
 72
     8
 73
     4
 74
     0
 42
0.0000000001
 43
0.0000000001
 40
0.0
 40
0.0
 40
0.0
 40
0.0
 40
1.0
 40
1.0
 40
1.0
 40
1.0
 10
147.83410000000001
 20
-113.9427
 30
0.0
 10
148.16380000000001
 20
-113.87270000000001
 30
0.0
 10
148.3982
 20
-113.57980000000001
 30
0.0
 10
148.39410000000001
 20
-113.2428
 30
0.0
  0
SPLINE
  5
72
100
AcDbEntity
  8
0
370
     5
100
AcDbSpline
210
0.0
220
0.0
230
1.0
 70
     0
 71
     3
 72
    16
 73
    12
 74
     0
 42
0.0000000001
 43
0.0000000001
 40
0.0
 40
0.0
 40
0.0
 40
0.0
 40
0.3333333333333333
 40
0.3333333333333333
 40
0.3333333333333333
 40
0.3333333333333333
 40
0.6666666666666666
 40
0.6666666666666666
 40
0.6666666666666666
 40
0.6666666666666666
 40
1.0
 40
1.0
 40
1.0
 40
1.0
 10
133.83440000000002
 20
-114.5027
 30
0.0
 10
133.06659999999999
 20
-114.5027
 30
0.0
 10
132.35990000000001
 20
-114.9212
 30
0.0
 10
131.99090000000001
 20
-115.59440000000001
 30
0.0
 10
131.99090000000001
 20
-115.59440000000001
 30
0.0
 10
131.62190000000001
 20
-116.2676
 30
0.0
 10
131.64930000000001
 20
-117.0883
 30
0.0
 10
132.06229999999999
 20
-117.7355
 30
0.0
 10
132.06229999999999
 20
-117.7355
 30
0.0
 10
132.4753
 20
-118.38260000000001
 30
0.0
 10
133.20830000000001
 20
-118.7531
 30
0.0
 10
133.9744
 20
-118.70200000000001
 30
0.0
  0
SPLINE
  5
73
100
AcDbEntity
  8
0
370
     5
100
AcDbSpline
210
0.0
220
0.0
230
1.0
 70
     0
 71
     3
 72
    12
 73
     8
 74
     0
 42
0.0000000001
 43
0.0000000001
 40
0.0
 40
0.0
 40
0.0
 40
0.0
 40
0.5
 40
0.5
 40
0.5
 40
0.5
 40
1.0
 40
1.0
 40
1.0
 40
1.0
 10
148.67410000000001
 20
-118.842
 30
0.0
 10
148.67410000000001
 20
-118.6564
 30
0.0
 10
148.60040000000001
 20
-118.47840000000001
 30
0.0
 10
148.4691
 20
-118.34710000000001
 30
0.0
 10
148.4691
 20
-118.34710000000001
 30
0.0
 10
148.33780000000002
 20
-118.2158
 30
0.0
 10
148.15980000000002
 20
-118.1421
 30
0.0
 10
147.97410000000002
 20
-118.1421
 30
0.0
  0
SPLINE
  5
74
100
AcDbEntity
  8
0
370
     5
100
AcDbSpline
210
0.0
220
0.0
230
1.0
 70
     0
 71
     3
 72
     8
 73
     4
 74
     0
 42
0.0000000001
 43
0.0000000001
 40
0.0
 40
0.0
 40
0.0
 40
0.0
 40
1.0
 40
1.0
 40
1.0
 40
1.0
 10
160.7139
 20
-170.91410000000002
 30
0.0
 10
161.47450000000001
 20
-172.63220000000001
 30
0.0
 10
163.05700000000002
 20
-173.84520000000001
 30
0.0
 10
164.91380000000001
 20
-174.1337
 30
0.0
  0
SPLINE
  5
75
100
AcDbEntity
  8
0
370
     5
100
AcDbSpline
210
0.0
220
0.0
230
1.0
 70
     0
 71
     3
 72
     8
 73
     4
 74
     0
 42
0.0000000001
 43
0.0000000001
 40
0.0
 40
0.0
 40
0.0
 40
0.0
 40
1.0
 40
1.0
 40
1.0
 40
1.0
 10
176.11360000000002
 20
-180.5727
 30
0.0
 10
175.9958
 20
-177.89270000000002
 30
0.0
 10
174.00450000000001
 20
-175.66740000000001
 30
0.0
 10
171.3537
 20
-175.2535
 30
0.0
  0
SPLINE
  5
76
100
AcDbEntity
  8
0
370
     5
100
AcDbSpline
210
0.0
220
0.0
230
1.0
 70
     0
 71
     3
 72
    12
 73
     8
 74
     0
 42
0.0000000001
 43
0.0000000001
 40
0.0
 40
0.0
 40
0.0
 40
0.0
 40
0.5
 40
0.5
 40
0.5
 40
0.5
 40
1.0
 40
1.0
 40
1.0
 40
1.0
 10
171.6337
 20
-211.22810000000001
 30
0.0
 10
173.1189
 20
-211.15380000000002
 30
0.0
 10
174.5137
 20
-210.49270000000001
 30
0.0
 10
175.51140000000001
 20
-209.39020000000002
 30
0.0
 10
175.51140000000001
 20
-209.39020000000002
 30
0.0
 10
176.50910000000002
 20
-208.2876
 30
0.0
 10
177.02780000000001
 20
-206.8339
 30
0.0
 10
176.95359999999999
 20
-205.34900000000002
 30
0.0
  0
SPLINE
  5
77
100
AcDbEntity
  8
0
370
     5
100
AcDbSpline
210
0.0
220
0.0
230
1.0
 70
     0
 71
     3
 72
    12
 73
     8
 74
     0
 42
0.0000000001
 43
0.0000000001
 40
0.0
 40
0.0
 40
0.0
 40
0.0
 40
0.5
 40
0.5
 40
0.5
 40
0.5
 40
1.0
 40
1.0
 40
1.0
 40
1.0
 10
166.7338
 20
-210.66820000000001
 30
0.0
 10
166.7338
 20
-210.85380000000001
 30
0.0
 10
166.8075
 20
-211.0318
 30
0.0
 10
166.93880000000001
 20
-211.16300000000001
 30
0.0
 10
166.93880000000001
 20
-211.16300000000001
 30
0.0
 10
167.0701
 20
-211.29430000000002
 30
0.0
 10
167.24810000000002
 20
-211.36800000000002
 30
0.0
 10
167.43380000000002
 20
-211.36800000000002
 30
0.0
  0
SPLINE
  5
78
100
AcDbEntity
  8
0
370
     5
100
AcDbSpline
210
0.0
220
0.0
230
1.0
 70
     0
 71
     3
 72
    16
 73
    12
 74
     0
 42
0.0000000001
 43
0.0000000001
 40
0.0
 40
0.0
 40
0.0
 40
0.0
 40
0.3333333333333333
 40
0.3333333333333333
 40
0.3333333333333333
 40
0.3333333333333333
 40
0.6666666666666666
 40
0.6666666666666666
 40
0.6666666666666666
 40
0.6666666666666666
 40
1.0
 40
1.0
 40
1.0
 40
1.0
 10
166.31380000000001
 20
-199.4699
 30
0.0
 10
166.31380000000001
 20
-198.7022
 30
0.0
 10
165.89520000000002
 20
-197.9956
 30
0.0
 10
165.22190000000001
 20
-197.6266
 30
0.0
 10
165.22190000000001
 20
-197.6266
 30
0.0
 10
164.5487
 20
-197.2577
 30
0.0
 10
163.7278
 20
-197.285
 30
0.0
 10
163.0806
 20
-197.69800000000001
 30
0.0
 10
163.0806
 20
-197.69800000000001
 30
0.0
 10
162.4333
 20
-198.11090000000002
 30
0.0
 10
162.06270000000001
 20
-198.84380000000002
 30
0.0
 10
162.1138
 20
-199.60980000000001
 30
0.0
  0
SPLINE
  5
79
100
AcDbEntity
  8
0
370
     5
100
AcDbSpline
210
0.0
220
0.0
230
1.0
 70
     0
 71
     3
 72
    12
 73
     8
 74
     0
 42
0.0000000001
 43
0.0000000001
 40
0.0
 40
0.0
 40
0.0
 40
0.0
 40
0.5
 40
0.5
 40
0.5
 40
0.5
 40
1.0
 40
1.0
 40
1.0
 40
1.0
 10
161.8339
 20
-211.50800000000001
 30
0.0
 10
162.01949999999999
 20
-211.50800000000001
 30
0.0
 10
162.19750000000002
 20
-211.43430000000001
 30
0.0
 10
162.3288
 20
-211.303
 30
0.0
 10
162.3288
 20
-211.303
 30
0.0
 10
162.46010000000001
 20
-211.17180000000002
 30
0.0
 10
162.53380000000001
 20
-210.99380000000002
 30
0.0
 10
162.53380000000001
 20
-210.8081
 30
0.0
  0
SPLINE
  5
7A
100
AcDbEntity
  8
0
370
     5
100
AcDbSpline
210
0.0
220
0.0
230
1.0
 70
     0
 71
     3
 72
     8
 73
     4
 74
     0
 42
0.0000000001
 43
0.0000000001
 40
0.0
 40
0.0
 40
0.0
 40
0.0
 40
1.0
 40
1.0
 40
1.0
 40
1.0
 10
151.89400000000001
 20
-206.3288
 30
0.0
 10
152.04730000000001
 20
-209.36520000000002
 30
0.0
 10
154.5943
 20
-211.72540000000001
 30
0.0
 10
157.63390000000001
 20
-211.648
 30
0.0
  0
SPLINE
  5
7B
100
AcDbEntity
  8
0
370
     5
100
AcDbSpline
210
0.0
220
0.0
230
1.0
 70
     0
 71
     3
 72
     8
 73
     4
 74
     0
 42
0.0000000001
 43
0.0000000001
 40
0.0
 40
0.0
 40
0.0
 40
0.0
 40
1.0
 40
1.0
 40
1.0
 40
1.0
 10
151.47400000000002
 20
-194.4306
 30
0.0
 10
151.39940000000001
 20
-192.7433
 30
0.0
 10
151.01990000000001
 20
-191.08350000000002
 30
0.0
 10
150.35410000000002
 20
-189.53130000000002
 30
0.0
  0
SPLINE
  5
7C
100
AcDbEntity
  8
0
370
     5
100
AcDbSpline
210
0.0
220
0.0
230
1.0
 70
     0
 71
     3
 72
    12
 73
     8
 74
     0
 42
0.0000000001
 43
0.0000000001
 40
0.0
 40
0.0
 40
0.0
 40
0.0
 40
0.5
 40
0.5
 40
0.5
 40
0.5
 40
1.0
 40
1.0
 40
1.0
 40
1.0
 10
136.77430000000001
 20
-138.85900000000001
 30
0.0
 10
136.69890000000001
 20
-137.7278
 30
0.0
 10
135.73990000000001
 20
-136.8603
 30
0.0
 10
134.60670000000002
 20
-136.898
 30
0.0
 10
134.60670000000002
 20
-136.898
 30
0.0
 10
133.4735
 20
-136.9358
 30
0.0
 10
132.5744
 20
-137.86530000000002
 30
0.0
 10
132.5744
 20
-138.999
 30
0.0
  0
SPLINE
  5
7D
100
AcDbEntity
  8
0
370
     5
100
AcDbSpline
210
0.0
220
0.0
230
1.0
 70
     0
 71
     3
 72
     8
 73
     4
 74
     0
 42
0.0000000001
 43
0.0000000001
 40
0.0
 40
0.0
 40
0.0
 40
0.0
 40
1.0
 40
1.0
 40
1.0
 40
1.0
 10
119.83470000000001
 20
-172.17400000000001
 30
0.0
 10
127.83800000000001
 20
-170.48320000000001
 30
0.0
 10
133.4563
 20
-163.26920000000001
 30
0.0
 10
133.1344
 20
-155.09650000000002
 30
0.0
  0
SPLINE
  5
7E
100
AcDbEntity
  8
0
370
     5
100
AcDbSpline
210
0.0
220
0.0
230
1.0
 70
     0
 71
     3
 72
     8
 73
     4
 74
     0
 42
0.0000000001
 43
0.0000000001
 40
0.0
 40
0.0
 40
0.0
 40
0.0
 40
1.0
 40
1.0
 40
1.0
 40
1.0
 10
105.8349
 20
-172.73390000000001
 30
0.0
 10
110.5
 20
-173.3312
 30
0.0
 10
115.23220000000001
 20
-173.14190000000002
 30
0.0
 10
119.83470000000001
 20
-172.17400000000001
 30
0.0
  0
SPLINE
  5
7F
100
AcDbEntity
  8
0
370
     5
100
AcDbSpline
210
0.0
220
0.0
230
1.0
 70
     0
 71
     3
 72
     8
 73
     4
 74
     0
 42
0.0000000001
 43
0.0000000001
 40
0.0
 40
0.0
 40
0.0
 40
0.0
 40
1.0
 40
1.0
 40
1.0
 40
1.0
 10
91.135199999999998
 20
-156.63630000000001
 30
0.0
 10
91.415199999999999
 20
-164.88400000000001
 30
0.0
 10
97.645499999999998
 20
-171.70680000000002
 30
0.0
 10
105.8349
 20
-172.73390000000001
 30
0.0
  0
SPLINE
  5
80
100
AcDbEntity
  8
0
370
     5
100
AcDbSpline
210
0.0
220
0.0
230
1.0
 70
     0
 71
     3
 72
    12
 73
     8
 74
     0
 42
0.0000000001
 43
0.0000000001
 40
0.0
 40
0.0
 40
0.0
 40
0.0
 40
0.5
 40
0.5
 40
0.5
 40
0.5
 40
1.0
 40
1.0
 40
1.0
 40
1.0
 10
90.575200000000009
 20
-140.53870000000001
 30
0.0
 10
90.499700000000004
 20
-139.4076
 30
0.0
 10
89.540700000000001
 20
-138.54000000000002
 30
0.0
 10
88.407499999999999
 20
-138.5778
 30
0.0
 10
88.407499999999999
 20
-138.5778
 30
0.0
 10
87.274300000000011
 20
-138.6156
 30
0.0
 10
86.375200000000007
 20
-139.54500000000002
 30
0.0
 10
86.37530000000001
 20
-140.67870000000002
 30
0.0
  0
SPLINE
  5
81
100
AcDbEntity
  8
0
370
     5
100
AcDbSpline
210
0.0
220
0.0
230
1.0
 70
     0
 71
     3
 72
     8
 73
     4
 74
     0
 42
0.0000000001
 43
0.0000000001
 40
0.0
 40
0.0
 40
0.0
 40
0.0
 40
1.0
 40
1.0
 40
1.0
 40
1.0
 10
76.575500000000005
 20
-192.1909
 30
0.0
 10
76.03670000000001
 20
-193.81390000000002
 30
0.0
 10
75.799500000000009
 20
-195.52180000000001
 30
0.0
 10
75.875500000000002
 20
-197.2302
 30
0.0
  0
SPLINE
  5
82
100
AcDbEntity
  8
0
370
     5
100
AcDbSpline
210
0.0
220
0.0
230
1.0
 70
     0
 71
     3
 72
    12
 73
     8
 74
     0
 42
0.0000000001
 43
0.0000000001
 40
0.0
 40
0.0
 40
0.0
 40
0.0
 40
0.5
 40
0.5
 40
0.5
 40
0.5
 40
1.0
 40
1.0
 40
1.0
 40
1.0
 10
70.835599999999999
 20
-214.86750000000001
 30
0.0
 10
72.345700000000008
 20
-214.8305
 30
0.0
 10
73.777000000000001
 20
-214.18540000000002
 30
0.0
 10
74.8048
 20
-213.07860000000002
 30
0.0
 10
74.8048
 20
-213.07860000000002
 30
0.0
 10
75.832700000000003
 20
-211.9718
 30
0.0
 10
76.370199999999997
 20
-210.49700000000001
 30
0.0
 10
76.295500000000004
 20
-208.98840000000001
 30
0.0
  0
SPLINE
  5
83
100
AcDbEntity
  8
0
370
     5
100
AcDbSpline
210
0.0
220
0.0
230
1.0
 70
     0
 71
     3
 72
    12
 73
     8
 74
     0
 42
0.0000000001
 43
0.0000000001
 40
0.0
 40
0.0
 40
0.0
 40
0.0
 40
0.5
 40
0.5
 40
0.5
 40
0.5
 40
1.0
 40
1.0
 40
1.0
 40
1.0
 10
65.935699999999997
 20
-214.30760000000001
 30
0.0
 10
65.935699999999997
 20
-214.4932
 30
0.0
 10
66.009399999999999
 20
-214.6712
 30
0.0
 10
66.14070000000001
 20
-214.80250000000001
 30
0.0
 10
66.14070000000001
 20
-214.80250000000001
 30
0.0
 10
66.272000000000006
 20
-214.93380000000002
 30
0.0
 10
66.450000000000003
 20
-215.00750000000002
 30
0.0
 10
66.6357
 20
-215.00750000000002
 30
0.0
  0
SPLINE
  5
84
100
AcDbEntity
  8
0
370
     5
100
AcDbSpline
210
0.0
220
0.0
230
1.0
 70
     0
 71
     3
 72
    12
 73
     8
 74
     0
 42
0.0000000001
 43
0.0000000001
 40
0.0
 40
0.0
 40
0.0
 40
0.0
 40
0.5
 40
0.5
 40
0.5
 40
0.5
 40
1.0
 40
1.0
 40
1.0
 40
1.0
 10
65.51570000000001
 20
-203.10930000000002
 30
0.0
 10
65.440200000000004
 20
-201.97810000000001
 30
0.0
 10
64.481200000000001
 20
-201.11060000000001
 30
0.0
 10
63.348000000000006
 20
-201.14830000000001
 30
0.0
 10
63.348000000000006
 20
-201.14830000000001
 30
0.0
 10
62.214800000000004
 20
-201.18610000000001
 30
0.0
 10
61.3157
 20
-202.1156
 30
0.0
 10
61.315800000000003
 20
-203.24930000000001
 30
0.0
  0
SPLINE
  5
85
100
AcDbEntity
  8
0
370
     5
100
AcDbSpline
210
0.0
220
0.0
230
1.0
 70
     0
 71
     3
 72
    12
 73
     8
 74
     0
 42
0.0000000001
 43
0.0000000001
 40
0.0
 40
0.0
 40
0.0
 40
0.0
 40
0.5
 40
0.5
 40
0.5
 40
0.5
 40
1.0
 40
1.0
 40
1.0
 40
1.0
 10
61.035800000000002
 20
-215.14750000000001
 30
0.0
 10
61.221400000000003
 20
-215.14750000000001
 30
0.0
 10
61.399500000000003
 20
-215.0737
 30
0.0
 10
61.530700000000003
 20
-214.94250000000002
 30
0.0
 10
61.530700000000003
 20
-214.94250000000002
 30
0.0
 10
61.662000000000006
 20
-214.81120000000001
 30
0.0
 10
61.735800000000005
 20
-214.63320000000002
 30
0.0
 10
61.735800000000005
 20
-214.44760000000002
 30
0.0
  0
SPLINE
  5
86
100
AcDbEntity
  8
0
370
     5
100
AcDbSpline
210
0.0
220
0.0
230
1.0
 70
     0
 71
     3
 72
     8
 73
     4
 74
     0
 42
0.0000000001
 43
0.0000000001
 40
0.0
 40
0.0
 40
0.0
 40
0.0
 40
1.0
 40
1.0
 40
1.0
 40
1.0
 10
51.096000000000004
 20
-209.9683
 30
0.0
 10
51.249300000000005
 20
-213.00460000000001
 30
0.0
 10
53.796200000000006
 20
-215.36490000000001
 30
0.0
 10
56.835800000000006
 20
-215.28750000000002
 30
0.0
  0
SPLINE
  5
87
100
AcDbEntity
  8
0
370
     5
100
AcDbSpline
210
0.0
220
0.0
230
1.0
 70
     0
 71
     3
 72
     8
 73
     4
 74
     0
 42
0.0000000001
 43
0.0000000001
 40
0.0
 40
0.0
 40
0.0
 40
0.0
 40
1.0
 40
1.0
 40
1.0
 40
1.0
 10
54.4559
 20
-179.4529
 30
0.0
 10
51.869700000000002
 20
-180.12480000000002
 30
0.0
 10
50.113900000000001
 20
-182.5241
 30
0.0
 10
50.256
 20
-185.19200000000001
 30
0.0
  0
SPLINE
  5
88
100
AcDbEntity
  8
0
370
     5
100
AcDbSpline
210
0.0
220
0.0
230
1.0
 70
     0
 71
     3
 72
     8
 73
     4
 74
     0
 42
0.0000000001
 43
0.0000000001
 40
0.0
 40
0.0
 40
0.0
 40
0.0
 40
1.0
 40
1.0
 40
1.0
 40
1.0
 10
60.895800000000001
 20
-177.91310000000001
 30
0.0
 10
62.759600000000006
 20
-177.5196
 30
0.0
 10
64.291899999999998
 20
-176.19890000000001
 30
0.0
 10
64.955700000000007
 20
-174.4136
 30
0.0
  0
SPLINE
  5
89
100
AcDbEntity
  8
0
370
     5
100
AcDbSpline
210
0.0
220
0.0
230
1.0
 70
     0
 71
     3
 72
    12
 73
     8
 74
     0
 42
0.0000000001
 43
0.0000000001
 40
0.0
 40
0.0
 40
0.0
 40
0.0
 40
0.5
 40
0.5
 40
0.5
 40
0.5
 40
1.0
 40
1.0
 40
1.0
 40
1.0
 10
73.775500000000008
 20
-120.94170000000001
 30
0.0
 10
73.5899
 20
-120.94170000000001
 30
0.0
 10
73.411799999999999
 20
-121.0154
 30
0.0
 10
73.280600000000007
 20
-121.14670000000001
 30
0.0
 10
73.280600000000007
 20
-121.14670000000001
 30
0.0
 10
73.149299999999997
 20
-121.2779
 30
0.0
 10
73.075500000000005
 20
-121.456
 30
0.0
 10
73.075500000000005
 20
-121.64160000000001
 30
0.0
  0
SPLINE
  5
8A
100
AcDbEntity
  8
0
370
     5
100
AcDbSpline
210
0.0
220
0.0
230
1.0
 70
     0
 71
     3
 72
    12
 73
     8
 74
     0
 42
0.0000000001
 43
0.0000000001
 40
0.0
 40
0.0
 40
0.0
 40
0.0
 40
0.5
 40
0.5
 40
0.5
 40
0.5
 40
1.0
 40
1.0
 40
1.0
 40
1.0
 10
87.775300000000001
 20
-120.38180000000001
 30
0.0
 10
88.906599999999997
 20
-120.30630000000001
 30
0.0
 10
89.774200000000008
 20
-119.34740000000001
 30
0.0
 10
89.736500000000007
 20
-118.21440000000001
 30
0.0
 10
89.736500000000007
 20
-118.21440000000001
 30
0.0
 10
89.698700000000002
 20
-117.0813
 30
0.0
 10
88.769100000000009
 20
-116.1824
 30
0.0
 10
87.635300000000001
 20
-116.1824
 30
0.0
  0
SPLINE
  5
8B
100
AcDbEntity
  8
0
370
     5
100
AcDbSpline
210
0.0
220
0.0
230
1.0
 70
     0
 71
     3
 72
    12
 73
     8
 74
     0
 42
0.0000000001
 43
0.0000000001
 40
0.0
 40
0.0
 40
0.0
 40
0.0
 40
0.5
 40
0.5
 40
0.5
 40
0.5
 40
1.0
 40
1.0
 40
1.0
 40
1.0
 10
72.935500000000005
 20
-116.0424
 30
0.0
 10
72.935500000000005
 20
-116.22800000000001
 30
0.0
 10
73.00930000000001
 20
-116.40610000000001
 30
0.0
 10
73.140600000000006
 20
-116.5373
 30
0.0
 10
73.140600000000006
 20
-116.5373
 30
0.0
 10
73.271799999999999
 20
-116.66860000000001
 30
0.0
 10
73.4499
 20
-116.7423
 30
0.0
 10
73.635500000000008
 20
-116.7423
 30
0.0
  0
SPLINE
  5
8C
100
AcDbEntity
  8
0
370
     5
100
AcDbSpline
210
0.0
220
0.0
230
1.0
 70
     0
 71
     3
 72
    12
 73
     8
 74
     0
 42
0.0000000001
 43
0.0000000001
 40
0.0
 40
0.0
 40
0.0
 40
0.0
 40
0.5
 40
0.5
 40
0.5
 40
0.5
 40
1.0
 40
1.0
 40
1.0
 40
1.0
 10
76.855500000000006
 20
-109.60340000000001
 30
0.0
 10
75.741600000000005
 20
-109.6405
 30
0.0
 10
74.688100000000006
 20
-110.1186
 30
0.0
 10
73.926699999999997
 20
-110.93230000000001
 30
0.0
 10
73.926699999999997
 20
-110.93230000000001
 30
0.0
 10
73.165300000000002
 20
-111.7461
 30
0.0
 10
72.758400000000009
 20
-112.82900000000001
 30
0.0
 10
72.795500000000004
 20
-113.9427
 30
0.0
  0
SPLINE
  5
8D
100
AcDbEntity
  8
0
370
     5
100
AcDbSpline
210
0.0
220
0.0
230
1.0
 70
     0
 71
     3
 72
    12
 73
     8
 74
     0
 42
0.0000000001
 43
0.0000000001
 40
0.0
 40
0.0
 40
0.0
 40
0.0
 40
0.5
 40
0.5
 40
0.5
 40
0.5
 40
1.0
 40
1.0
 40
1.0
 40
1.0
 10
95.05510000000001
 20
-108.90350000000001
 30
0.0
 10
96.169000000000011
 20
-108.8664
 30
0.0
 10
97.222500000000011
 20
-108.3883
 30
0.0
 10
97.983900000000006
 20
-107.5745
 30
0.0
 10
97.983900000000006
 20
-107.5745
 30
0.0
 10
98.7453
 20
-106.7608
 30
0.0
 10
99.152200000000008
 20
-105.67790000000001
 30
0.0
 10
99.115000000000009
 20
-104.5642
 30
0.0
  0
SPLINE
  5
8E
100
AcDbEntity
  8
0
370
     5
100
AcDbSpline
210
0.0
220
0.0
230
1.0
 70
     0
 71
     3
 72
    12
 73
     8
 74
     0
 42
0.0000000001
 43
0.0000000001
 40
0.0
 40
0.0
 40
0.0
 40
0.0
 40
0.5
 40
0.5
 40
0.5
 40
0.5
 40
1.0
 40
1.0
 40
1.0
 40
1.0
 10
103.03500000000001
 20
-96.025400000000005
 30
0.0
 10
101.92110000000001
 20
-96.062600000000003
 30
0.0
 10
100.86760000000001
 20
-96.540599999999998
 30
0.0
 10
100.1062
 20
-97.354399999999998
 30
0.0
 10
100.1062
 20
-97.354399999999998
 30
0.0
 10
99.344800000000006
 20
-98.168199999999999
 30
0.0
 10
98.937899999999999
 20
-99.251000000000005
 30
0.0
 10
98.975100000000012
 20
-100.3648
 30
0.0
  0
SPLINE
  5
8F
100
AcDbEntity
  8
0
370
     5
100
AcDbSpline
210
0.0
220
0.0
230
1.0
 70
     0
 71
     3
 72
    12
 73
     8
 74
     0
 42
0.0000000001
 43
0.0000000001
 40
0.0
 40
0.0
 40
0.0
 40
0.0
 40
0.5
 40
0.5
 40
0.5
 40
0.5
 40
1.0
 40
1.0
 40
1.0
 40
1.0
 10
107.9349
 20
-96.585400000000007
 30
0.0
 10
107.9349
 20
-96.39970000000001
 30
0.0
 10
107.86110000000001
 20
-96.221699999999998
 30
0.0
 10
107.7299
 20
-96.090500000000006
 30
0.0
 10
107.7299
 20
-96.090500000000006
 30
0.0
 10
107.5986
 20
-95.95920000000001
 30
0.0
 10
107.4205
 20
-95.885500000000008
 30
0.0
 10
107.23490000000001
 20
-95.885500000000008
 30
0.0
  0
SPLINE
  5
90
100
AcDbEntity
  8
0
370
     5
100
AcDbSpline
210
0.0
220
0.0
230
1.0
 70
     0
 71
     3
 72
    16
 73
    12
 74
     0
 42
0.0000000001
 43
0.0000000001
 40
0.0
 40
0.0
 40
0.0
 40
0.0
 40
0.3333333333333333
 40
0.3333333333333333
 40
0.3333333333333333
 40
0.3333333333333333
 40
0.6666666666666666
 40
0.6666666666666666
 40
0.6666666666666666
 40
0.6666666666666666
 40
1.0
 40
1.0
 40
1.0
 40
1.0
 10
108.2149
 20
-106.38390000000001
 30
0.0
 10
108.26490000000001
 20
-107.134
 30
0.0
 10
108.71140000000001
 20
-107.8005
 30
0.0
 10
109.3861
 20
-108.1323
 30
0.0
 10
109.3861
 20
-108.1323
 30
0.0
 10
110.0608
 20
-108.464
 30
0.0
 10
110.8613
 20
-108.41070000000001
 30
0.0
 10
111.48610000000001
 20
-107.9923
 30
0.0
 10
111.48610000000001
 20
-107.9923
 30
0.0
 10
112.11080000000001
 20
-107.57390000000001
 30
0.0
 10
112.46480000000001
 20
-106.8541
 30
0.0
 10
112.4148
 20
-106.10390000000001
 30
0.0
  0
SPLINE
  5
91
100
AcDbEntity
  8
0
370
     5
100
AcDbSpline
210
0.0
220
0.0
230
1.0
 70
     0
 71
     3
 72
    12
 73
     8
 74
     0
 42
0.0000000001
 43
0.0000000001
 40
0.0
 40
0.0
 40
0.0
 40
0.0
 40
0.5
 40
0.5
 40
0.5
 40
0.5
 40
1.0
 40
1.0
 40
1.0
 40
1.0
 10
112.8348
 20
-95.605500000000006
 30
0.0
 10
112.6491
 20
-95.605500000000006
 30
0.0
 10
112.47110000000001
 20
-95.679200000000009
 30
0.0
 10
112.33980000000001
 20
-95.810500000000005
 30
0.0
 10
112.33980000000001
 20
-95.810500000000005
 30
0.0
 10
112.2085
 20
-95.941800000000001
 30
0.0
 10
112.1348
 20
-96.119799999999998
 30
0.0
 10
112.1348
 20
-96.305400000000006
 30
0.0
  0
SPLINE
  5
92
100
AcDbEntity
  8
0
370
     5
100
AcDbSpline
210
0.0
220
0.0
230
1.0
 70
     0
 71
     3
 72
    12
 73
     8
 74
     0
 42
0.0000000001
 43
0.0000000001
 40
0.0
 40
0.0
 40
0.0
 40
0.0
 40
0.5
 40
0.5
 40
0.5
 40
0.5
 40
1.0
 40
1.0
 40
1.0
 40
1.0
 10
121.3746
 20
-99.524900000000002
 30
0.0
 10
121.33750000000001
 20
-98.411200000000008
 30
0.0
 10
120.85940000000001
 20
-97.357800000000012
 30
0.0
 10
120.0455
 20
-96.596500000000006
 30
0.0
 10
120.0455
 20
-96.596500000000006
 30
0.0
 10
119.2316
 20
-95.8352
 30
0.0
 10
118.1486
 20
-95.428400000000011
 30
0.0
 10
117.0347
 20
-95.465500000000006
 30
0.0
  0
SPLINE
  5
93
100
AcDbEntity
  8
0
370
     5
100
AcDbSpline
210
0.0
220
0.0
230
1.0
 70
     0
 71
     3
 72
    12
 73
     8
 74
     0
 42
0.0000000001
 43
0.0000000001
 40
0.0
 40
0.0
 40
0.0
 40
0.0
 40
0.5
 40
0.5
 40
0.5
 40
0.5
 40
1.0
 40
1.0
 40
1.0
 40
1.0
 10
121.5146
 20
-103.7243
 30
0.0
 10
121.55170000000001
 20
-104.83800000000001
 30
0.0
 10
122.02990000000001
 20
-105.8914
 30
0.0
 10
122.84370000000001
 20
-106.65270000000001
 30
0.0
 10
122.84370000000001
 20
-106.65270000000001
 30
0.0
 10
123.6576
 20
-107.414
 30
0.0
 10
124.7407
 20
-107.82080000000001
 30
0.0
 10
125.8545
 20
-107.78370000000001
 30
0.0
  0
SPLINE
  5
94
100
AcDbEntity
  8
0
370
     5
100
AcDbSpline
210
0.0
220
0.0
230
1.0
 70
     0
 71
     3
 72
    12
 73
     8
 74
     0
 42
0.0000000001
 43
0.0000000001
 40
0.0
 40
0.0
 40
0.0
 40
0.0
 40
0.5
 40
0.5
 40
0.5
 40
0.5
 40
1.0
 40
1.0
 40
1.0
 40
1.0
 10
148.39410000000001
 20
-111.14320000000001
 30
0.0
 10
148.357
 20
-110.02940000000001
 30
0.0
 10
147.87890000000002
 20
-108.976
 30
0.0
 10
147.065
 20
-108.21480000000001
 30
0.0
 10
147.065
 20
-108.21480000000001
 30
0.0
 10
146.25110000000001
 20
-107.45350000000001
 30
0.0
 10
145.16810000000001
 20
-107.04660000000001
 30
0.0
 10
144.05420000000001
 20
-107.08380000000001
 30
0.0
  0
SPLINE
  5
95
100
AcDbEntity
  8
0
370
     5
100
AcDbSpline
210
0.0
220
0.0
230
1.0
 70
     0
 71
     3
 72
    12
 73
     8
 74
     0
 42
0.0000000001
 43
0.0000000001
 40
0.0
 40
0.0
 40
0.0
 40
0.0
 40
0.5
 40
0.5
 40
0.5
 40
0.5
 40
1.0
 40
1.0
 40
1.0
 40
1.0
 10
150.91410000000002
 20
-23.3764
 30
0.0
 10
151.09970000000001
 20
-23.3764
 30
0.0
 10
151.27780000000001
 20
-23.302700000000002
 30
0.0
 10
151.40900000000002
 20
-23.171400000000002
 30
0.0
 10
151.40900000000002
 20
-23.171400000000002
 30
0.0
 10
151.5403
 20
-23.040100000000002
 30
0.0
 10
151.61410000000001
 20
-22.862100000000002
 30
0.0
 10
151.61410000000001
 20
-22.676500000000001
 30
0.0
  0
SPLINE
  5
96
100
AcDbEntity
  8
0
370
     5
100
AcDbSpline
210
0.0
220
0.0
230
1.0
 70
     0
 71
     3
 72
    16
 73
    12
 74
     0
 42
0.0000000001
 43
0.0000000001
 40
0.0
 40
0.0
 40
0.0
 40
0.0
 40
0.3333333333333333
 40
0.3333333333333333
 40
0.3333333333333333
 40
0.3333333333333333
 40
0.6666666666666666
 40
0.6666666666666666
 40
0.6666666666666666
 40
0.6666666666666666
 40
1.0
 40
1.0
 40
1.0
 40
1.0
 10
138.3143
 20
-23.3764
 30
0.0
 10
137.5641
 20
-23.3764
 30
0.0
 10
136.8708
 20
-23.776600000000002
 30
0.0
 10
136.4957
 20
-24.426200000000001
 30
0.0
 10
136.4957
 20
-24.426200000000001
 30
0.0
 10
136.1206
 20
-25.075900000000001
 30
0.0
 10
136.1206
 20
-25.876300000000001
 30
0.0
 10
136.4957
 20
-26.5259
 30
0.0
 10
136.4957
 20
-26.5259
 30
0.0
 10
136.8708
 20
-27.175600000000003
 30
0.0
 10
137.5641
 20
-27.575800000000001
 30
0.0
 10
138.3143
 20
-27.575800000000001
 30
0.0
  0
SPLINE
  5
97
100
AcDbEntity
  8
0
370
     5
100
AcDbSpline
210
0.0
220
0.0
230
1.0
 70
     0
 71
     3
 72
    12
 73
     8
 74
     0
 42
0.0000000001
 43
0.0000000001
 40
0.0
 40
0.0
 40
0.0
 40
0.0
 40
0.5
 40
0.5
 40
0.5
 40
0.5
 40
1.0
 40
1.0
 40
1.0
 40
1.0
 10
151.61410000000001
 20
-28.275700000000001
 30
0.0
 10
151.61410000000001
 20
-28.09
 30
0.0
 10
151.5403
 20
-27.912000000000003
 30
0.0
 10
151.40900000000002
 20
-27.780800000000003
 30
0.0
 10
151.40900000000002
 20
-27.780800000000003
 30
0.0
 10
151.27780000000001
 20
-27.6495
 30
0.0
 10
151.09970000000001
 20
-27.575800000000001
 30
0.0
 10
150.91410000000002
 20
-27.575800000000001
 30
0.0
  0
SPLINE
  5
98
100
AcDbEntity
  8
0
370
     5
100
AcDbSpline
210
0.0
220
0.0
230
1.0
 70
     0
 71
     3
 72
    12
 73
     8
 74
     0
 42
0.0000000001
 43
0.0000000001
 40
0.0
 40
0.0
 40
0.0
 40
0.0
 40
0.5
 40
0.5
 40
0.5
 40
0.5
 40
1.0
 40
1.0
 40
1.0
 40
1.0
 10
145.3142
 20
-52.072099999999999
 30
0.0
 10
146.98500000000001
 20
-52.072099999999999
 30
0.0
 10
148.5874
 20
-51.4084
 30
0.0
 10
149.7689
 20
-50.2271
 30
0.0
 10
149.7689
 20
-50.2271
 30
0.0
 10
150.9503
 20
-49.0458
 30
0.0
 10
151.614
 20
-47.443600000000004
 30
0.0
 10
151.614
 20
-45.773000000000003
 30
0.0
  0
SPLINE
  5
99
100
AcDbEntity
  8
0
370
     5
100
AcDbSpline
210
0.0
220
0.0
230
1.0
 70
     0
 71
     3
 72
    12
 73
     8
 74
     0
 42
0.0000000001
 43
0.0000000001
 40
0.0
 40
0.0
 40
0.0
 40
0.0
 40
0.5
 40
0.5
 40
0.5
 40
0.5
 40
1.0
 40
1.0
 40
1.0
 40
1.0
 10
139.01430000000002
 20
-52.072099999999999
 30
0.0
 10
136.78650000000002
 20
-52.072099999999999
 30
0.0
 10
134.65000000000001
 20
-52.956900000000005
 30
0.0
 10
133.07470000000001
 20
-54.532000000000004
 30
0.0
 10
133.07470000000001
 20
-54.532000000000004
 30
0.0
 10
131.49940000000001
 20
-56.107100000000003
 30
0.0
 10
130.61449999999999
 20
-58.243300000000005
 30
0.0
 10
130.61449999999999
 20
-60.470800000000004
 30
0.0
  0
SPLINE
  5
9A
100
AcDbEntity
  8
0
370
     5
100
AcDbSpline
210
0.0
220
0.0
230
1.0
 70
     0
 71
     3
 72
    12
 73
     8
 74
     0
 42
0.0000000001
 43
0.0000000001
 40
0.0
 40
0.0
 40
0.0
 40
0.0
 40
0.5
 40
0.5
 40
0.5
 40
0.5
 40
1.0
 40
1.0
 40
1.0
 40
1.0
 10
124.31460000000001
 20
-77.96820000000001
 30
0.0
 10
125.98540000000001
 20
-77.96820000000001
 30
0.0
 10
127.5878
 20
-77.304500000000004
 30
0.0
 10
128.76930000000002
 20
-76.123199999999997
 30
0.0
 10
128.76930000000002
 20
-76.123199999999997
 30
0.0
 10
129.95070000000001
 20
-74.941900000000004
 30
0.0
 10
130.61440000000002
 20
-73.339700000000008
 30
0.0
 10
130.61440000000002
 20
-71.6691
 30
0.0
  0
SPLINE
  5
9B
100
AcDbEntity
  8
0
370
     5
100
AcDbSpline
210
0.0
220
0.0
230
1.0
 70
     0
 71
     3
 72
    12
 73
     8
 74
     0
 42
0.0000000001
 43
0.0000000001
 40
0.0
 40
0.0
 40
0.0
 40
0.0
 40
0.5
 40
0.5
 40
0.5
 40
0.5
 40
1.0
 40
1.0
 40
1.0
 40
1.0
 10
101.215
 20
-71.6691
 30
0.0
 10
101.215
 20
-73.339700000000008
 30
0.0
 10
101.87870000000001
 20
-74.941900000000004
 30
0.0
 10
103.06020000000001
 20
-76.123199999999997
 30
0.0
 10
103.06020000000001
 20
-76.123199999999997
 30
0.0
 10
104.24170000000001
 20
-77.304500000000004
 30
0.0
 10
105.84410000000001
 20
-77.96820000000001
 30
0.0
 10
107.51490000000001
 20
-77.96820000000001
 30
0.0
  0
SPLINE
  5
9C
100
AcDbEntity
  8
0
370
     5
100
AcDbSpline
210
0.0
220
0.0
230
1.0
 70
     0
 71
     3
 72
    12
 73
     8
 74
     0
 42
0.0000000001
 43
0.0000000001
 40
0.0
 40
0.0
 40
0.0
 40
0.0
 40
0.5
 40
0.5
 40
0.5
 40
0.5
 40
1.0
 40
1.0
 40
1.0
 40
1.0
 10
101.91500000000001
 20
-66.769900000000007
 30
0.0
 10
101.72930000000001
 20
-66.769900000000007
 30
0.0
 10
101.55130000000001
 20
-66.843600000000009
 30
0.0
 10
101.42
 20
-66.974800000000002
 30
0.0
 10
101.42
 20
-66.974800000000002
 30
0.0
 10
101.28880000000001
 20
-67.106099999999998
 30
0.0
 10
101.215
 20
-67.284100000000009
 30
0.0
 10
101.215
 20
-67.469700000000003
 30
0.0
  0
SPLINE
  5
9D
100
AcDbEntity
  8
0
370
     5
100
AcDbSpline
210
0.0
220
0.0
230
1.0
 70
     0
 71
     3
 72
    12
 73
     8
 74
     0
 42
0.0000000001
 43
0.0000000001
 40
0.0
 40
0.0
 40
0.0
 40
0.0
 40
0.5
 40
0.5
 40
0.5
 40
0.5
 40
1.0
 40
1.0
 40
1.0
 40
1.0
 10
117.3147
 20
-66.769900000000007
 30
0.0
 10
118.405
 20
-66.770899999999997
 30
0.0
 10
119.3185
 20
-65.9452
 30
0.0
 10
119.42700000000001
 20
-64.860399999999998
 30
0.0
 10
119.42700000000001
 20
-64.860399999999998
 30
0.0
 10
119.5355
 20
-63.775600000000004
 30
0.0
 10
118.8036
 20
-62.785300000000007
 30
0.0
 10
117.7347
 20
-62.570500000000003
 30
0.0
  0
SPLINE
  5
9E
100
AcDbEntity
  8
0
370
     5
100
AcDbSpline
210
0.0
220
0.0
230
1.0
 70
     0
 71
     3
 72
    12
 73
     8
 74
     0
 42
0.0000000001
 43
0.0000000001
 40
0.0
 40
0.0
 40
0.0
 40
0.0
 40
0.5
 40
0.5
 40
0.5
 40
0.5
 40
1.0
 40
1.0
 40
1.0
 40
1.0
 10
101.215
 20
-61.870600000000003
 30
0.0
 10
101.215
 20
-62.056200000000004
 30
0.0
 10
101.28880000000001
 20
-62.234200000000001
 30
0.0
 10
101.42
 20
-62.365500000000004
 30
0.0
 10
101.42
 20
-62.365500000000004
 30
0.0
 10
101.55130000000001
 20
-62.496700000000004
 30
0.0
 10
101.72930000000001
 20
-62.570500000000003
 30
0.0
 10
101.91500000000001
 20
-62.570500000000003
 30
0.0
  0
SPLINE
  5
9F
100
AcDbEntity
  8
0
370
     5
100
AcDbSpline
210
0.0
220
0.0
230
1.0
 70
     0
 71
     3
 72
    12
 73
     8
 74
     0
 42
0.0000000001
 43
0.0000000001
 40
0.0
 40
0.0
 40
0.0
 40
0.0
 40
0.5
 40
0.5
 40
0.5
 40
0.5
 40
1.0
 40
1.0
 40
1.0
 40
1.0
 10
107.51490000000001
 20
-37.374300000000005
 30
0.0
 10
105.84410000000001
 20
-37.374300000000005
 30
0.0
 10
104.24170000000001
 20
-38.0379
 30
0.0
 10
103.06020000000001
 20
-39.219200000000001
 30
0.0
 10
103.06020000000001
 20
-39.219200000000001
 30
0.0
 10
101.87870000000001
 20
-40.400500000000001
 30
0.0
 10
101.215
 20
-42.002700000000004
 30
0.0
 10
101.215
 20
-43.673300000000005
 30
0.0
  0
SPLINE
  5
A0
100
AcDbEntity
  8
0
370
     5
100
AcDbSpline
210
0.0
220
0.0
230
1.0
 70
     0
 71
     3
 72
     8
 73
     4
 74
     0
 42
0.0000000001
 43
0.0000000001
 40
0.0
 40
0.0
 40
0.0
 40
0.0
 40
1.0
 40
1.0
 40
1.0
 40
1.0
 10
107.9349
 20
-37.374300000000005
 30
0.0
 10
110.63050000000001
 20
-37.396999999999998
 30
0.0
 10
113.0455
 20
-35.712299999999999
 30
0.0
 10
113.95480000000001
 20
-33.174900000000001
 30
0.0
  0
SPLINE
  5
A1
100
AcDbEntity
  8
0
370
     5
100
AcDbSpline
210
0.0
220
0.0
230
1.0
 70
     0
 71
     3
 72
     8
 73
     4
 74
     0
 42
0.0000000001
 43
0.0000000001
 40
0.0
 40
0.0
 40
0.0
 40
0.0
 40
1.0
 40
1.0
 40
1.0
 40
1.0
 10
131.87440000000001
 20
-6.8589000000000002
 30
0.0
 10
125.81020000000001
 20
-7.9243000000000006
 30
0.0
 10
120.81450000000001
 20
-12.221
 30
0.0
 10
118.85470000000001
 20
-18.057200000000002
 30
0.0
  0
SPLINE
  5
A2
100
AcDbEntity
  8
0
370
     5
100
AcDbSpline
210
0.0
220
0.0
230
1.0
 70
     0
 71
     3
 72
    12
 73
     8
 74
     0
 42
0.0000000001
 43
0.0000000001
 40
0.0
 40
0.0
 40
0.0
 40
0.0
 40
0.5
 40
0.5
 40
0.5
 40
0.5
 40
1.0
 40
1.0
 40
1.0
 40
1.0
 10
132.71440000000001
 20
-7.5588000000000006
 30
0.0
 10
132.71610000000001
 20
-7.3470000000000004
 30
0.0
 10
132.62280000000001
 20
-7.1456
 30
0.0
 10
132.46010000000001
 20
-7.0101000000000004
 30
0.0
 10
132.46010000000001
 20
-7.0101000000000004
 30
0.0
 10
132.29740000000001
 20
-6.8745000000000003
 30
0.0
 10
132.08240000000001
 20
-6.819
 30
0.0
 10
131.87440000000001
 20
-6.8589000000000002
 30
0.0
  0
SPLINE
  5
A3
100
AcDbEntity
  8
0
370
     5
100
AcDbSpline
210
0.0
220
0.0
230
1.0
 70
     0
 71
     3
 72
    16
 73
    12
 74
     0
 42
0.0000000001
 43
0.0000000001
 40
0.0
 40
0.0
 40
0.0
 40
0.0
 40
0.3333333333333333
 40
0.3333333333333333
 40
0.3333333333333333
 40
0.3333333333333333
 40
0.6666666666666666
 40
0.6666666666666666
 40
0.6666666666666666
 40
0.6666666666666666
 40
1.0
 40
1.0
 40
1.0
 40
1.0
 10
132.71440000000001
 20
-17.077300000000001
 30
0.0
 10
132.71440000000001
 20
-17.827500000000001
 30
0.0
 10
133.1147
 20
-18.520700000000001
 30
0.0
 10
133.76439999999999
 20
-18.895700000000001
 30
0.0
 10
133.76439999999999
 20
-18.895700000000001
 30
0.0
 10
134.41410000000002
 20
-19.270800000000001
 30
0.0
 10
135.21460000000002
 20
-19.270800000000001
 30
0.0
 10
135.86430000000001
 20
-18.895700000000001
 30
0.0
 10
135.86430000000001
 20
-18.895700000000001
 30
0.0
 10
136.51410000000001
 20
-18.520700000000001
 30
0.0
 10
136.9143
 20
-17.827500000000001
 30
0.0
 10
136.9143
 20
-17.077300000000001
 30
0.0
  0
SPLINE
  5
A4
100
AcDbEntity
  8
0
370
     5
100
AcDbSpline
210
0.0
220
0.0
230
1.0
 70
     0
 71
     3
 72
    12
 73
     8
 74
     0
 42
0.0000000001
 43
0.0000000001
 40
0.0
 40
0.0
 40
0.0
 40
0.0
 40
0.5
 40
0.5
 40
0.5
 40
0.5
 40
1.0
 40
1.0
 40
1.0
 40
1.0
 10
137.7543
 20
-6.8589000000000002
 30
0.0
 10
137.5463
 20
-6.819
 30
0.0
 10
137.3314
 20
-6.8745000000000003
 30
0.0
 10
137.1687
 20
-7.0101000000000004
 30
0.0
 10
137.1687
 20
-7.0101000000000004
 30
0.0
 10
137.006
 20
-7.1456
 30
0.0
 10
136.9126
 20
-7.3470000000000004
 30
0.0
 10
136.9143
 20
-7.5588000000000006
 30
0.0
  0
SPLINE
  5
A5
100
AcDbEntity
  8
0
370
     5
100
AcDbSpline
210
0.0
220
0.0
230
1.0
 70
     0
 71
     3
 72
     8
 73
     4
 74
     0
 42
0.0000000001
 43
0.0000000001
 40
0.0
 40
0.0
 40
0.0
 40
0.0
 40
1.0
 40
1.0
 40
1.0
 40
1.0
 10
151.614
 20
-22.676500000000001
 30
0.0
 10
151.27590000000001
 20
-14.806500000000002
 30
0.0
 10
145.51250000000002
 20
-8.229000000000001
 30
0.0
 10
137.7543
 20
-6.8589000000000002
 30
0.0
  0
SPLINE
  5
A6
100
AcDbEntity
  8
0
370
     5
100
AcDbSpline
210
0.0
220
0.0
230
1.0
 70
     0
 71
     3
 72
     8
 73
     4
 74
     0
 42
0.0000000001
 43
0.0000000001
 40
0.0
 40
0.0
 40
0.0
 40
0.0
 40
1.0
 40
1.0
 40
1.0
 40
1.0
 10
16.656600000000001
 20
-24.2163
 30
0.0
 10
16.1313
 20
-20.296500000000002
 30
0.0
 10
13.577
 20
-16.944400000000002
 30
0.0
 10
9.9367000000000001
 20
-15.397600000000001
 30
0.0
  0
SPLINE
  5
A7
100
AcDbEntity
  8
0
370
     5
100
AcDbSpline
210
0.0
220
0.0
230
1.0
 70
     0
 71
     3
 72
    12
 73
     8
 74
     0
 42
0.0000000001
 43
0.0000000001
 40
0.0
 40
0.0
 40
0.0
 40
0.0
 40
0.5
 40
0.5
 40
0.5
 40
0.5
 40
1.0
 40
1.0
 40
1.0
 40
1.0
 10
15.9566
 20
-41.0137
 30
0.0
 10
16.776299999999999
 20
-41.017700000000005
 30
0.0
 10
17.557000000000002
 20
-40.664300000000004
 30
0.0
 10
18.094799999999999
 20
-40.0458
 30
0.0
 10
18.094799999999999
 20
-40.0458
 30
0.0
 10
18.6327
 20
-39.427399999999999
 30
0.0
 10
18.874300000000002
 20
-38.6053
 30
0.0
 10
18.756600000000002
 20
-37.794200000000004
 30
0.0
  0
SPLINE
  5
A8
100
AcDbEntity
  8
0
370
     5
100
AcDbSpline
210
0.0
220
0.0
230
1.0
 70
     0
 71
     3
 72
    12
 73
     8
 74
     0
 42
0.0000000001
 43
0.0000000001
 40
0.0
 40
0.0
 40
0.0
 40
0.0
 40
0.5
 40
0.5
 40
0.5
 40
0.5
 40
1.0
 40
1.0
 40
1.0
 40
1.0
 10
6.7168000000000001
 20
-40.313800000000001
 30
0.0
 10
6.7168000000000001
 20
-40.499500000000005
 30
0.0
 10
6.7905000000000006
 20
-40.677500000000002
 30
0.0
 10
6.9218000000000002
 20
-40.808700000000002
 30
0.0
 10
6.9218000000000002
 20
-40.808700000000002
 30
0.0
 10
7.0531000000000006
 20
-40.940000000000005
 30
0.0
 10
7.2311000000000005
 20
-41.0137
 30
0.0
 10
7.4168000000000003
 20
-41.0137
 30
0.0
  0
SPLINE
  5
A9
100
AcDbEntity
  8
0
370
     5
100
AcDbSpline
210
0.0
220
0.0
230
1.0
 70
     0
 71
     3
 72
    16
 73
    12
 74
     0
 42
0.0000000001
 43
0.0000000001
 40
0.0
 40
0.0
 40
0.0
 40
0.0
 40
0.3333333333333333
 40
0.3333333333333333
 40
0.3333333333333333
 40
0.3333333333333333
 40
0.6666666666666666
 40
0.6666666666666666
 40
0.6666666666666666
 40
0.6666666666666666
 40
1.0
 40
1.0
 40
1.0
 40
1.0
 10
6.7168000000000001
 20
-31.915100000000002
 30
0.0
 10
6.7168000000000001
 20
-31.165000000000003
 30
0.0
 10
6.3165000000000004
 20
-30.471800000000002
 30
0.0
 10
5.6668000000000003
 20
-30.096700000000002
 30
0.0
 10
5.6668000000000003
 20
-30.096700000000002
 30
0.0
 10
5.0171000000000001
 20
-29.721700000000002
 30
0.0
 10
4.2166000000000006
 20
-29.721700000000002
 30
0.0
 10
3.5669
 20
-30.096700000000002
 30
0.0
 10
3.5669
 20
-30.096700000000002
 30
0.0
 10
2.9171
 20
-30.471800000000002
 30
0.0
 10
2.5169000000000001
 20
-31.165000000000003
 30
0.0
 10
2.5169000000000001
 20
-31.915100000000002
 30
0.0
  0
SPLINE
  5
AA
100
AcDbEntity
  8
0
370
     5
100
AcDbSpline
210
0.0
220
0.0
230
1.0
 70
     0
 71
     3
 72
    12
 73
     8
 74
     0
 42
0.0000000001
 43
0.0000000001
 40
0.0
 40
0.0
 40
0.0
 40
0.0
 40
0.5
 40
0.5
 40
0.5
 40
0.5
 40
1.0
 40
1.0
 40
1.0
 40
1.0
 10
1.8169000000000002
 20
-41.0137
 30
0.0
 10
2.0024999999999999
 20
-41.0137
 30
0.0
 10
2.1806000000000001
 20
-40.940000000000005
 30
0.0
 10
2.3119000000000001
 20
-40.808700000000002
 30
0.0
 10
2.3119000000000001
 20
-40.808700000000002
 30
0.0
 10
2.4431000000000003
 20
-40.677500000000002
 30
0.0
 10
2.5169000000000001
 20
-40.499500000000005
 30
0.0
 10
2.5169000000000001
 20
-40.313800000000001
 30
0.0
  0
SPLINE
  5
AB
100
AcDbEntity
  8
0
370
     5
100
AcDbSpline
210
0.0
220
0.0
230
1.0
 70
     0
 71
     3
 72
    12
 73
     8
 74
     0
 42
0.0000000001
 43
0.0000000001
 40
0.0
 40
0.0
 40
0.0
 40
0.0
 40
0.5
 40
0.5
 40
0.5
 40
0.5
 40
1.0
 40
1.0
 40
1.0
 40
1.0
 10
-9.6629000000000005
 20
-37.794200000000004
 30
0.0
 10
-9.7805999999999997
 20
-38.6053
 30
0.0
 10
-9.5389999999999997
 20
-39.427399999999999
 30
0.0
 10
-9.001100000000001
 20
-40.0458
 30
0.0
 10
-9.001100000000001
 20
-40.0458
 30
0.0
 10
-8.4633000000000003
 20
-40.664300000000004
 30
0.0
 10
-7.6826000000000008
 20
-41.017700000000005
 30
0.0
 10
-6.8629000000000007
 20
-41.0137
 30
0.0
  0
SPLINE
  5
AC
100
AcDbEntity
  8
0
370
     5
100
AcDbSpline
210
0.0
220
0.0
230
1.0
 70
     0
 71
     3
 72
     8
 73
     4
 74
     0
 42
0.0000000001
 43
0.0000000001
 40
0.0
 40
0.0
 40
0.0
 40
0.0
 40
1.0
 40
1.0
 40
1.0
 40
1.0
 10
-0.8431000000000001
 20
-15.397600000000001
 30
0.0
 10
-4.4832999999999998
 20
-16.944400000000002
 30
0.0
 10
-7.0376000000000003
 20
-20.296500000000002
 30
0.0
 10
-7.5629
 20
-24.2163
 30
0.0
  0
SPLINE
  5
AD
100
AcDbEntity
  8
0
370
     5
100
AcDbSpline
210
0.0
220
0.0
230
1.0
 70
     0
 71
     3
 72
     8
 73
     4
 74
     0
 42
0.0000000001
 43
0.0000000001
 40
0.0
 40
0.0
 40
0.0
 40
0.0
 40
1.0
 40
1.0
 40
1.0
 40
1.0
 10
-0.8431000000000001
 20
-15.397600000000001
 30
0.0
 10
0.4044
 20
-14.8711
 30
0.0
 10
1.4738
 20
-13.996400000000001
 30
0.0
 10
2.2368999999999999
 20
-12.878
 30
0.0
  0
SPLINE
  5
AE
100
AcDbEntity
  8
0
370
     5
100
AcDbSpline
210
0.0
220
0.0
230
1.0
 70
     0
 71
     3
 72
     8
 73
     4
 74
     0
 42
0.0000000001
 43
0.0000000001
 40
0.0
 40
0.0
 40
0.0
 40
0.0
 40
1.0
 40
1.0
 40
1.0
 40
1.0
 10
4.6168000000000005
 20
-11.6182
 30
0.0
 10
3.6612
 20
-11.6073
 30
0.0
 10
2.7651000000000003
 20
-12.0816
 30
0.0
 10
2.2368999999999999
 20
-12.878
 30
0.0
  0
SPLINE
  5
AF
100
AcDbEntity
  8
0
370
     5
100
AcDbSpline
210
0.0
220
0.0
230
1.0
 70
     0
 71
     3
 72
     8
 73
     4
 74
     0
 42
0.0000000001
 43
0.0000000001
 40
0.0
 40
0.0
 40
0.0
 40
0.0
 40
1.0
 40
1.0
 40
1.0
 40
1.0
 10
6.8568000000000007
 20
-12.878
 30
0.0
 10
6.3561000000000005
 20
-12.122400000000001
 30
0.0
 10
5.5226000000000006
 20
-11.653600000000001
 30
0.0
 10
4.6168000000000005
 20
-11.6182
 30
0.0
  0
SPLINE
  5
B0
100
AcDbEntity
  8
0
370
     5
100
AcDbSpline
210
0.0
220
0.0
230
1.0
 70
     0
 71
     3
 72
     8
 73
     4
 74
     0
 42
0.0000000001
 43
0.0000000001
 40
0.0
 40
0.0
 40
0.0
 40
0.0
 40
1.0
 40
1.0
 40
1.0
 40
1.0
 10
6.8568000000000007
 20
-12.878
 30
0.0
 10
7.6199000000000003
 20
-13.996400000000001
 30
0.0
 10
8.6891999999999996
 20
-14.8711
 30
0.0
 10
9.9367000000000001
 20
-15.397600000000001
 30
0.0
  0
SPLINE
  5
B1
100
AcDbEntity
  8
0
370
     5
100
AcDbSpline
210
0.0
220
0.0
230
1.0
 70
     0
 71
     3
 72
    12
 73
     8
 74
     0
 42
0.0000000001
 43
0.0000000001
 40
0.0
 40
0.0
 40
0.0
 40
0.0
 40
0.5
 40
0.5
 40
0.5
 40
0.5
 40
1.0
 40
1.0
 40
1.0
 40
1.0
 10
18.476600000000001
 20
9.2386999999999997
 30
0.0
 10
19.821400000000001
 20
8.9737000000000009
 30
0.0
 10
21.161100000000001
 20
9.7180999999999997
 30
0.0
 10
21.646100000000001
 20
10.9999
 30
0.0
 10
21.646100000000001
 20
10.9999
 30
0.0
 10
22.1312
 20
12.281700000000001
 30
0.0
 10
21.620000000000001
 20
13.7264
 30
0.0
 10
20.436500000000002
 20
14.417900000000001
 30
0.0
  0
SPLINE
  5
B2
100
AcDbEntity
  8
0
370
     5
100
AcDbSpline
210
0.0
220
0.0
230
1.0
 70
     0
 71
     3
 72
    12
 73
     8
 74
     0
 42
0.0000000001
 43
0.0000000001
 40
0.0
 40
0.0
 40
0.0
 40
0.0
 40
0.5
 40
0.5
 40
0.5
 40
0.5
 40
1.0
 40
1.0
 40
1.0
 40
1.0
 10
18.476600000000001
 20
9.2386999999999997
 30
0.0
 10
7.5271000000000008
 20
11.357200000000001
 30
0.0
 10
-3.7767000000000004
 20
8.1336000000000013
 30
0.0
 10
-11.9611
 20
0.5585
 30
0.0
 10
-11.9611
 20
0.5585
 30
0.0
 10
-20.145400000000002
 20
-7.0165000000000006
 30
0.0
 10
-24.231100000000001
 20
-18.036799999999999
 30
0.0
 10
-22.962600000000002
 20
-29.115500000000001
 30
0.0
  0
SPLINE
  5
B3
100
AcDbEntity
  8
0
370
     5
100
AcDbSpline
210
0.0
220
0.0
230
1.0
 70
     0
 71
     3
 72
    12
 73
     8
 74
     0
 42
0.0000000001
 43
0.0000000001
 40
0.0
 40
0.0
 40
0.0
 40
0.0
 40
0.5
 40
0.5
 40
0.5
 40
0.5
 40
1.0
 40
1.0
 40
1.0
 40
1.0
 10
-26.742600000000003
 20
-32.055100000000003
 30
0.0
 10
-25.828500000000002
 20
-32.389400000000002
 30
0.0
 10
-24.8066
 20
-32.229600000000005
 30
0.0
 10
-24.0383
 20
-31.632100000000001
 30
0.0
 10
-24.0383
 20
-31.632100000000001
 30
0.0
 10
-23.27
 20
-31.034600000000001
 30
0.0
 10
-22.863600000000002
 20
-30.0837
 30
0.0
 10
-22.962600000000002
 20
-29.115500000000001
 30
0.0
  0
SPLINE
  5
B4
100
AcDbEntity
  8
0
370
     5
100
AcDbSpline
210
0.0
220
0.0
230
1.0
 70
     0
 71
     3
 72
    12
 73
     8
 74
     0
 42
0.0000000001
 43
0.0000000001
 40
0.0
 40
0.0
 40
0.0
 40
0.0
 40
0.5
 40
0.5
 40
0.5
 40
0.5
 40
1.0
 40
1.0
 40
1.0
 40
1.0
 10
-26.742600000000003
 20
-32.055100000000003
 30
0.0
 10
-35.618400000000001
 20
-28.873800000000003
 30
0.0
 10
-45.462500000000006
 20
-29.9315
 30
0.0
 10
-53.459700000000005
 20
-34.925699999999999
 30
0.0
 10
-53.459700000000005
 20
-34.925699999999999
 30
0.0
 10
-61.456800000000001
 20
-39.919899999999998
 30
0.0
 10
-66.726500000000001
 20
-48.300600000000003
 30
0.0
 10
-67.761800000000008
 20
-57.671200000000006
 30
0.0
  0
SPLINE
  5
B5
100
AcDbEntity
  8
0
370
     5
100
AcDbSpline
210
0.0
220
0.0
230
1.0
 70
     0
 71
     3
 72
    12
 73
     8
 74
     0
 42
0.0000000001
 43
0.0000000001
 40
0.0
 40
0.0
 40
0.0
 40
0.0
 40
0.5
 40
0.5
 40
0.5
 40
0.5
 40
1.0
 40
1.0
 40
1.0
 40
1.0
 10
-71.821700000000007
 20
-59.910900000000005
 30
0.0
 10
-70.993200000000002
 20
-60.324600000000004
 30
0.0
 10
-70.014300000000006
 20
-60.304600000000001
 30
0.0
 10
-69.203400000000002
 20
-59.857300000000002
 30
0.0
 10
-69.203400000000002
 20
-59.857300000000002
 30
0.0
 10
-68.392600000000002
 20
-59.410000000000004
 30
0.0
 10
-67.853499999999997
 20
-58.592600000000004
 30
0.0
 10
-67.761800000000008
 20
-57.671200000000006
 30
0.0
  0
SPLINE
  5
B6
100
AcDbEntity
  8
0
370
     5
100
AcDbSpline
210
0.0
220
0.0
230
1.0
 70
     0
 71
     3
 72
    12
 73
     8
 74
     0
 42
0.0000000001
 43
0.0000000001
 40
0.0
 40
0.0
 40
0.0
 40
0.0
 40
0.5
 40
0.5
 40
0.5
 40
0.5
 40
1.0
 40
1.0
 40
1.0
 40
1.0
 10
-71.821700000000007
 20
-59.910900000000005
 30
0.0
 10
-79.8977
 20
-55.6143
 30
0.0
 10
-89.4666
 20
-55.131700000000002
 30
0.0
 10
-97.934000000000012
 20
-58.593900000000005
 30
0.0
 10
-97.934000000000012
 20
-58.593900000000005
 30
0.0
 10
-106.40140000000001
 20
-62.056200000000004
 30
0.0
 10
-112.8901
 20
-69.104600000000005
 30
0.0
 10
-115.6409
 20
-77.82820000000001
 30
0.0
  0
SPLINE
  5
B7
100
AcDbEntity
  8
0
370
     5
100
AcDbSpline
210
0.0
220
0.0
230
1.0
 70
     0
 71
     3
 72
    12
 73
     8
 74
     0
 42
0.0000000001
 43
0.0000000001
 40
0.0
 40
0.0
 40
0.0
 40
0.0
 40
0.5
 40
0.5
 40
0.5
 40
0.5
 40
1.0
 40
1.0
 40
1.0
 40
1.0
 10
-121.10080000000001
 20
-77.12830000000001
 30
0.0
 10
-121.0326
 20
-78.479900000000001
 30
0.0
 10
-120.006
 20
-79.588700000000003
 30
0.0
 10
-118.6635
 20
-79.760800000000003
 30
0.0
 10
-118.6635
 20
-79.760800000000003
 30
0.0
 10
-117.32100000000001
 20
-79.932900000000004
 30
0.0
 10
-116.0479
 20
-79.118900000000011
 30
0.0
 10
-115.6409
 20
-77.82820000000001
 30
0.0
  0
SPLINE
  5
B8
100
AcDbEntity
  8
0
370
     5
100
AcDbSpline
210
0.0
220
0.0
230
1.0
 70
     0
 71
     3
 72
     8
 73
     4
 74
     0
 42
0.0000000001
 43
0.0000000001
 40
0.0
 40
0.0
 40
0.0
 40
0.0
 40
1.0
 40
1.0
 40
1.0
 40
1.0
 10
-121.10080000000001
 20
-77.12830000000001
 30
0.0
 10
-122.4791
 20
-59.670100000000005
 30
0.0
 10
-137.0453
 20
-46.2027
 30
0.0
 10
-154.56010000000001
 20
-46.193000000000005
 30
0.0
  0
SPLINE
  5
B9
100
AcDbEntity
  8
0
370
     5
100
AcDbSpline
210
0.0
220
0.0
230
1.0
 70
     0
 71
     3
 72
    12
 73
     8
 74
     0
 42
0.0000000001
 43
0.0000000001
 40
0.0
 40
0.0
 40
0.0
 40
0.0
 40
0.5
 40
0.5
 40
0.5
 40
0.5
 40
1.0
 40
1.0
 40
1.0
 40
1.0
 10
-176.9597
 20
-43.3934
 30
0.0
 10
-176.9597
 20
-44.135899999999999
 30
0.0
 10
-176.66470000000001
 20
-44.847999999999999
 30
0.0
 10
-176.1396
 20
-45.373000000000005
 30
0.0
 10
-176.1396
 20
-45.373000000000005
 30
0.0
 10
-175.61450000000002
 20
-45.898000000000003
 30
0.0
 10
-174.9024
 20
-46.193000000000005
 30
0.0
 10
-174.15980000000002
 20
-46.193000000000005
 30
0.0
  0
SPLINE
  5
BA
100
AcDbEntity
  8
0
370
     5
100
AcDbSpline
210
0.0
220
0.0
230
1.0
 70
     0
 71
     3
 72
    12
 73
     8
 74
     0
 42
0.0000000001
 43
0.0000000001
 40
0.0
 40
0.0
 40
0.0
 40
0.0
 40
0.5
 40
0.5
 40
0.5
 40
0.5
 40
1.0
 40
1.0
 40
1.0
 40
1.0
 10
-176.25970000000001
 20
-34.994599999999998
 30
0.0
 10
-176.44540000000001
 20
-34.994599999999998
 30
0.0
 10
-176.6234
 20
-35.068400000000004
 30
0.0
 10
-176.75470000000001
 20
-35.199600000000004
 30
0.0
 10
-176.75470000000001
 20
-35.199600000000004
 30
0.0
 10
-176.886
 20
-35.3309
 30
0.0
 10
-176.9597
 20
-35.508900000000004
 30
0.0
 10
-176.9597
 20
-35.694500000000005
 30
0.0
  0
SPLINE
  5
BB
100
AcDbEntity
  8
0
370
     5
100
AcDbSpline
210
0.0
220
0.0
230
1.0
 70
     0
 71
     3
 72
    16
 73
    12
 74
     0
 42
0.0000000001
 43
0.0000000001
 40
0.0
 40
0.0
 40
0.0
 40
0.0
 40
0.3333333333333333
 40
0.3333333333333333
 40
0.3333333333333333
 40
0.3333333333333333
 40
0.6666666666666666
 40
0.6666666666666666
 40
0.6666666666666666
 40
0.6666666666666666
 40
1.0
 40
1.0
 40
1.0
 40
1.0
 10
-159.46000000000001
 20
-34.994599999999998
 30
0.0
 10
-158.7098
 20
-34.994599999999998
 30
0.0
 10
-158.01660000000001
 20
-34.5944
 30
0.0
 10
-157.6414
 20
-33.944800000000001
 30
0.0
 10
-157.6414
 20
-33.944800000000001
 30
0.0
 10
-157.2663
 20
-33.295200000000001
 30
0.0
 10
-157.2663
 20
-32.494800000000005
 30
0.0
 10
-157.6414
 20
-31.845100000000002
 30
0.0
 10
-157.6414
 20
-31.845100000000002
 30
0.0
 10
-158.01660000000001
 20
-31.195500000000003
 30
0.0
 10
-158.7098
 20
-30.795300000000001
 30
0.0
 10
-159.46000000000001
 20
-30.795300000000001
 30
0.0
  0
SPLINE
  5
BC
100
AcDbEntity
  8
0
370
     5
100
AcDbSpline
210
0.0
220
0.0
230
1.0
 70
     0
 71
     3
 72
    12
 73
     8
 74
     0
 42
0.0000000001
 43
0.0000000001
 40
0.0
 40
0.0
 40
0.0
 40
0.0
 40
0.5
 40
0.5
 40
0.5
 40
0.5
 40
1.0
 40
1.0
 40
1.0
 40
1.0
 10
-176.9597
 20
-30.095400000000001
 30
0.0
 10
-176.9597
 20
-30.281000000000002
 30
0.0
 10
-176.886
 20
-30.459000000000003
 30
0.0
 10
-176.75470000000001
 20
-30.590300000000003
 30
0.0
 10
-176.75470000000001
 20
-30.590300000000003
 30
0.0
 10
-176.6234
 20
-30.721500000000002
 30
0.0
 10
-176.44540000000001
 20
-30.795300000000001
 30
0.0
 10
-176.25970000000001
 20
-30.795300000000001
 30
0.0
  0
SPLINE
  5
BD
100
AcDbEntity
  8
0
370
     5
100
AcDbSpline
210
0.0
220
0.0
230
1.0
 70
     0
 71
     3
 72
     8
 73
     4
 74
     0
 42
0.0000000001
 43
0.0000000001
 40
0.0
 40
0.0
 40
0.0
 40
0.0
 40
1.0
 40
1.0
 40
1.0
 40
1.0
 10
-174.57980000000001
 20
-19.457000000000001
 30
0.0
 10
-175.95670000000001
 20
-19.672599999999999
 30
0.0
 10
-176.96870000000001
 20
-20.863
 30
0.0
 10
-176.9597
 20
-22.256600000000002
 30
0.0
  0
SPLINE
  5
BE
100
AcDbEntity
  8
0
370
     5
100
AcDbSpline
210
0.0
220
0.0
230
1.0
 70
     0
 71
     3
 72
     8
 73
     4
 74
     0
 42
0.0000000001
 43
0.0000000001
 40
0.0
 40
0.0
 40
0.0
 40
0.0
 40
1.0
 40
1.0
 40
1.0
 40
1.0
 10
-174.57980000000001
 20
-19.457000000000001
 30
0.0
 10
-164.74860000000001
 20
-18.253299999999999
 30
0.0
 10
-157.36010000000002
 20
-9.9060000000000006
 30
0.0
 10
-157.36010000000002
 20
-0.0027
 30
0.0
  0
SPLINE
  5
BF
100
AcDbEntity
  8
0
370
     5
100
AcDbSpline
210
0.0
220
0.0
230
1.0
 70
     0
 71
     3
 72
    12
 73
     8
 74
     0
 42
0.0000000001
 43
0.0000000001
 40
0.0
 40
0.0
 40
0.0
 40
0.0
 40
0.5
 40
0.5
 40
0.5
 40
0.5
 40
1.0
 40
1.0
 40
1.0
 40
1.0
 10
-156.6601
 20
8.3987999999999996
 30
0.0
 10
-156.84569999999999
 20
8.3987999999999996
 30
0.0
 10
-157.02379999999999
 20
8.3251000000000008
 30
0.0
 10
-157.1551
 20
8.1937999999999995
 30
0.0
 10
-157.1551
 20
8.1937999999999995
 30
0.0
 10
-157.28630000000001
 20
8.0625999999999998
 30
0.0
 10
-157.36010000000002
 20
7.8845000000000001
 30
0.0
 10
-157.36010000000002
 20
7.6989000000000001
 30
0.0
  0
SPLINE
  5
C0
100
AcDbEntity
  8
0
370
     5
100
AcDbSpline
210
0.0
220
0.0
230
1.0
 70
     0
 71
     3
 72
    16
 73
    12
 74
     0
 42
0.0000000001
 43
0.0000000001
 40
0.0
 40
0.0
 40
0.0
 40
0.0
 40
0.3333333333333333
 40
0.3333333333333333
 40
0.3333333333333333
 40
0.3333333333333333
 40
0.6666666666666666
 40
0.6666666666666666
 40
0.6666666666666666
 40
0.6666666666666666
 40
1.0
 40
1.0
 40
1.0
 40
1.0
 10
-142.66040000000001
 20
8.3987999999999996
 30
0.0
 10
-141.9101
 20
8.3987999999999996
 30
0.0
 10
-141.21690000000001
 20
8.7990000000000013
 30
0.0
 10
-140.8417
 20
9.4487000000000005
 30
0.0
 10
-140.8417
 20
9.4487000000000005
 30
0.0
 10
-140.4666
 20
10.0983
 30
0.0
 10
-140.4666
 20
10.8987
 30
0.0
 10
-140.8417
 20
11.548300000000001
 30
0.0
 10
-140.8417
 20
11.548300000000001
 30
0.0
 10
-141.21690000000001
 20
12.198
 30
0.0
 10
-141.9101
 20
12.5982
 30
0.0
 10
-142.66040000000001
 20
12.5982
 30
0.0
  0
SPLINE
  5
C1
100
AcDbEntity
  8
0
370
     5
100
AcDbSpline
210
0.0
220
0.0
230
1.0
 70
     0
 71
     3
 72
    12
 73
     8
 74
     0
 42
0.0000000001
 43
0.0000000001
 40
0.0
 40
0.0
 40
0.0
 40
0.0
 40
0.5
 40
0.5
 40
0.5
 40
0.5
 40
1.0
 40
1.0
 40
1.0
 40
1.0
 10
-157.36010000000002
 20
13.2981
 30
0.0
 10
-157.36010000000002
 20
13.112500000000001
 30
0.0
 10
-157.28630000000001
 20
12.9344
 30
0.0
 10
-157.1551
 20
12.8032
 30
0.0
 10
-157.1551
 20
12.8032
 30
0.0
 10
-157.02379999999999
 20
12.671900000000001
 30
0.0
 10
-156.84569999999999
 20
12.5982
 30
0.0
 10
-156.6601
 20
12.5982
 30
0.0
  0
SPLINE
  5
C2
100
AcDbEntity
  8
0
370
     5
100
AcDbSpline
210
0.0
220
0.0
230
1.0
 70
     0
 71
     3
 72
     8
 73
     4
 74
     0
 42
0.0000000001
 43
0.0000000001
 40
0.0
 40
0.0
 40
0.0
 40
0.0
 40
1.0
 40
1.0
 40
1.0
 40
1.0
 10
-151.2002
 20
26.5961
 30
0.0
 10
-154.72920000000002
 20
26.158200000000001
 30
0.0
 10
-157.37440000000001
 20
23.152699999999999
 30
0.0
 10
-157.36010000000002
 20
19.597100000000001
 30
0.0
  0
SPLINE
  5
C3
100
AcDbEntity
  8
0
370
     5
100
AcDbSpline
210
0.0
220
0.0
230
1.0
 70
     0
 71
     3
 72
     8
 73
     4
 74
     0
 42
0.0000000001
 43
0.0000000001
 40
0.0
 40
0.0
 40
0.0
 40
0.0
 40
1.0
 40
1.0
 40
1.0
 40
1.0
 10
-151.2002
 20
26.5961
 30
0.0
 10
-133.61879999999999
 20
28.709900000000001
 30
0.0
 10
-117.3032
 20
36.8172
 30
0.0
 10
-105.00110000000001
 20
49.552600000000005
 30
0.0
  0
SPLINE
  5
C4
100
AcDbEntity
  8
0
370
     5
100
AcDbSpline
210
0.0
220
0.0
230
1.0
 70
     0
 71
     3
 72
     8
 73
     4
 74
     0
 42
0.0000000001
 43
0.0000000001
 40
0.0
 40
0.0
 40
0.0
 40
0.0
 40
1.0
 40
1.0
 40
1.0
 40
1.0
 10
-89.741399999999999
 20
54.311900000000001
 30
0.0
 10
-95.304900000000004
 20
55.396000000000001
 30
0.0
 10
-101.0406
 20
53.607100000000003
 30
0.0
 10
-105.00110000000001
 20
49.552600000000005
 30
0.0
  0
SPLINE
  5
C5
100
AcDbEntity
  8
0
370
     5
100
AcDbSpline
210
0.0
220
0.0
230
1.0
 70
     0
 71
     3
 72
     8
 73
     4
 74
     0
 42
0.0000000001
 43
0.0000000001
 40
0.0
 40
0.0
 40
0.0
 40
0.0
 40
1.0
 40
1.0
 40
1.0
 40
1.0
 10
20.436500000000002
 20
14.417900000000001
 30
0.0
 10
-14.0831
 20
33.159800000000004
 30
0.0
 10
-51.2239
 20
46.608000000000004
 30
0.0
 10
-89.741399999999999
 20
54.311900000000001
 30
0.0
  0
SPLINE
  5
C6
100
AcDbEntity
  8
0
370
     5
100
AcDbSpline
210
0.0
220
0.0
230
1.0
 70
     0
 71
     3
 72
    12
 73
     8
 74
     0
 42
0.0000000001
 43
0.0000000001
 40
0.0
 40
0.0
 40
0.0
 40
0.0
 40
0.5
 40
0.5
 40
0.5
 40
0.5
 40
1.0
 40
1.0
 40
1.0
 40
1.0
 10
117.5947
 20
21.6968
 30
0.0
 10
116.99510000000001
 20
19.8964
 30
0.0
 10
117.94000000000001
 20
17.946100000000001
 30
0.0
 10
119.7248
 20
17.300699999999999
 30
0.0
 10
119.7248
 20
17.300699999999999
 30
0.0
 10
121.5095
 20
16.655200000000001
 30
0.0
 10
123.48350000000001
 20
17.549800000000001
 30
0.0
 10
124.17460000000001
 20
19.3172
 30
0.0
  0
SPLINE
  5
C7
100
AcDbEntity
  8
0
370
     5
100
AcDbSpline
210
0.0
220
0.0
230
1.0
 70
     0
 71
     3
 72
     8
 73
     4
 74
     0
 42
0.0000000001
 43
0.0000000001
 40
0.0
 40
0.0
 40
0.0
 40
0.0
 40
1.0
 40
1.0
 40
1.0
 40
1.0
 10
117.5947
 20
21.6968
 30
0.0
 10
120.2496
 20
29.5349
 30
0.0
 10
116.22940000000001
 20
38.068800000000003
 30
0.0
 10
108.4949
 20
41.0139
 30
0.0
  0
SPLINE
  5
C8
100
AcDbEntity
  8
0
370
     5
100
AcDbSpline
210
0.0
220
0.0
230
1.0
 70
     0
 71
     3
 72
    12
 73
     8
 74
     0
 42
0.0000000001
 43
0.0000000001
 40
0.0
 40
0.0
 40
0.0
 40
0.0
 40
0.5
 40
0.5
 40
0.5
 40
0.5
 40
1.0
 40
1.0
 40
1.0
 40
1.0
 10
46.336000000000006
 20
64.950299999999999
 30
0.0
 10
44.591000000000001
 20
65.618499999999997
 30
0.0
 10
42.651800000000001
 20
65.566299999999998
 30
0.0
 10
40.945300000000003
 20
64.805000000000007
 30
0.0
 10
40.945300000000003
 20
64.805000000000007
 30
0.0
 10
39.238700000000001
 20
64.043700000000001
 30
0.0
 10
37.904499999999999
 20
62.635800000000003
 30
0.0
 10
37.236200000000004
 20
60.890900000000002
 30
0.0
  0
SPLINE
  5
C9
100
AcDbEntity
  8
0
370
     5
100
AcDbSpline
210
0.0
220
0.0
230
1.0
 70
     0
 71
     3
 72
     8
 73
     4
 74
     0
 42
0.0000000001
 43
0.0000000001
 40
0.0
 40
0.0
 40
0.0
 40
0.0
 40
1.0
 40
1.0
 40
1.0
 40
1.0
 10
27.856400000000001
 20
48.012800000000006
 30
0.0
 10
29.981400000000001
 20
47.239400000000003
 30
0.0
 10
32.3367
 20
48.292900000000003
 30
0.0
 10
33.176300000000005
 20
50.392500000000005
 30
0.0
  0
SPLINE
  5
CA
100
AcDbEntity
  8
0
370
     5
100
AcDbSpline
210
0.0
220
0.0
230
1.0
 70
     0
 71
     3
 72
    12
 73
     8
 74
     0
 42
0.0000000001
 43
0.0000000001
 40
0.0
 40
0.0
 40
0.0
 40
0.0
 40
0.5
 40
0.5
 40
0.5
 40
0.5
 40
1.0
 40
1.0
 40
1.0
 40
1.0
 10
21.5565
 20
51.232400000000005
 30
0.0
 10
21.453400000000002
 20
51.0503
 30
0.0
 10
21.441300000000002
 20
50.830600000000004
 30
0.0
 10
21.523700000000002
 20
50.638400000000004
 30
0.0
 10
21.523700000000002
 20
50.638400000000004
 30
0.0
 10
21.606100000000001
 20
50.446100000000001
 30
0.0
 10
21.773600000000002
 20
50.303400000000003
 30
0.0
 10
21.976500000000001
 20
50.252500000000005
 30
0.0
  0
SPLINE
  5
CB
100
AcDbEntity
  8
0
370
     5
100
AcDbSpline
210
0.0
220
0.0
230
1.0
 70
     0
 71
     3
 72
    16
 73
    12
 74
     0
 42
0.0000000001
 43
0.0000000001
 40
0.0
 40
0.0
 40
0.0
 40
0.0
 40
0.3333333333333333
 40
0.3333333333333333
 40
0.3333333333333333
 40
0.3333333333333333
 40
0.6666666666666666
 40
0.6666666666666666
 40
0.6666666666666666
 40
0.6666666666666666
 40
1.0
 40
1.0
 40
1.0
 40
1.0
 10
25.476400000000002
 20
61.590800000000002
 30
0.0
 10
25.779300000000003
 20
62.296700000000001
 30
0.0
 10
25.6739
 20
63.111499999999999
 30
0.0
 10
25.2014
 20
63.717100000000002
 30
0.0
 10
25.2014
 20
63.717100000000002
 30
0.0
 10
24.7288
 20
64.322699999999998
 30
0.0
 10
23.964000000000002
 20
64.623100000000008
 30
0.0
 10
23.205500000000001
 20
64.501100000000008
 30
0.0
 10
23.205500000000001
 20
64.501100000000008
 30
0.0
 10
22.447100000000002
 20
64.379000000000005
 30
0.0
 10
21.815200000000001
 20
63.8538
 30
0.0
 10
21.5565
 20
63.130600000000001
 30
0.0
  0
SPLINE
  5
CC
100
AcDbEntity
  8
0
370
     5
100
AcDbSpline
210
0.0
220
0.0
230
1.0
 70
     0
 71
     3
 72
    12
 73
     8
 74
     0
 42
0.0000000001
 43
0.0000000001
 40
0.0
 40
0.0
 40
0.0
 40
0.0
 40
0.5
 40
0.5
 40
0.5
 40
0.5
 40
1.0
 40
1.0
 40
1.0
 40
1.0
 10
16.656600000000001
 20
52.352200000000003
 30
0.0
 10
16.819300000000002
 20
52.241300000000003
 30
0.0
 10
17.0229
 20
52.208400000000005
 30
0.0
 10
17.212199999999999
 20
52.262500000000003
 30
0.0
 10
17.212199999999999
 20
52.262500000000003
 30
0.0
 10
17.401600000000002
 20
52.316600000000001
 30
0.0
 10
17.557000000000002
 20
52.452000000000005
 30
0.0
 10
17.636600000000001
 20
52.632100000000001
 30
0.0
  0
SPLINE
  5
CD
100
AcDbEntity
  8
0
370
     5
100
AcDbSpline
210
0.0
220
0.0
230
1.0
 70
     0
 71
     3
 72
     8
 73
     4
 74
     0
 42
0.0000000001
 43
0.0000000001
 40
0.0
 40
0.0
 40
0.0
 40
0.0
 40
1.0
 40
1.0
 40
1.0
 40
1.0
 10
8.3968000000000007
 20
59.911000000000001
 30
0.0
 10
7.6232000000000006
 20
57.786300000000004
 30
0.0
 10
8.6768999999999998
 20
55.4313
 30
0.0
 10
10.7767
 20
54.591799999999999
 30
0.0
  0
SPLINE
  5
CE
100
AcDbEntity
  8
0
370
     5
100
AcDbSpline
210
0.0
220
0.0
230
1.0
 70
     0
 71
     3
 72
    12
 73
     8
 74
     0
 42
0.0000000001
 43
0.0000000001
 40
0.0
 40
0.0
 40
0.0
 40
0.0
 40
0.5
 40
0.5
 40
0.5
 40
0.5
 40
1.0
 40
1.0
 40
1.0
 40
1.0
 10
12.456700000000001
 20
70.409500000000008
 30
0.0
 10
13.125
 20
72.154300000000006
 30
0.0
 10
13.072700000000001
 20
74.09320000000001
 30
0.0
 10
12.311400000000001
 20
75.799500000000009
 30
0.0
 10
12.311400000000001
 20
75.799500000000009
 30
0.0
 10
11.550000000000001
 20
77.505800000000008
 30
0.0
 10
10.1419
 20
78.839799999999997
 30
0.0
 10
8.3968000000000007
 20
79.508099999999999
 30
0.0
  0
SPLINE
  5
CF
100
AcDbEntity
  8
0
370
     5
100
AcDbSpline
210
0.0
220
0.0
230
1.0
 70
     0
 71
     3
 72
     8
 73
     4
 74
     0
 42
0.0000000001
 43
0.0000000001
 40
0.0
 40
0.0
 40
0.0
 40
0.0
 40
1.0
 40
1.0
 40
1.0
 40
1.0
 10
-37.522400000000005
 20
98.685200000000009
 30
0.0
 10
-37.130299999999998
 20
97.541000000000011
 30
0.0
 10
-36.262500000000003
 20
96.62230000000001
 30
0.0
 10
-35.142400000000002
 20
96.165599999999998
 30
0.0
  0
SPLINE
  5
D0
100
AcDbEntity
  8
0
370
     5
100
AcDbSpline
210
0.0
220
0.0
230
1.0
 70
     0
 71
     3
 72
    12
 73
     8
 74
     0
 42
0.0000000001
 43
0.0000000001
 40
0.0
 40
0.0
 40
0.0
 40
0.0
 40
0.5
 40
0.5
 40
0.5
 40
0.5
 40
1.0
 40
1.0
 40
1.0
 40
1.0
 10
-37.522400000000005
 20
112.12320000000001
 30
0.0
 10
-38.559899999999999
 20
112.50540000000001
 30
0.0
 10
-39.725000000000001
 20
112.24950000000001
 30
0.0
 10
-40.506800000000005
 20
111.46780000000001
 30
0.0
 10
-40.506800000000005
 20
111.46780000000001
 30
0.0
 10
-41.288600000000002
 20
110.68600000000001
 30
0.0
 10
-41.544499999999999
 20
109.5211
 30
0.0
 10
-41.162300000000002
 20
108.4837
 30
0.0
  0
SPLINE
  5
D1
100
AcDbEntity
  8
0
370
     5
100
AcDbSpline
210
0.0
220
0.0
230
1.0
 70
     0
 71
     3
 72
    12
 73
     8
 74
     0
 42
0.0000000001
 43
0.0000000001
 40
0.0
 40
0.0
 40
0.0
 40
0.0
 40
0.5
 40
0.5
 40
0.5
 40
0.5
 40
1.0
 40
1.0
 40
1.0
 40
1.0
 10
125.8545
 20
23.936500000000002
 30
0.0
 10
128.11940000000001
 20
29.802200000000003
 30
0.0
 10
127.9611
 20
36.327200000000005
 30
0.0
 10
125.4144
 20
42.0762
 30
0.0
 10
125.4144
 20
42.0762
 30
0.0
 10
122.8677
 20
47.825200000000002
 30
0.0
 10
118.1413
 20
52.327200000000005
 30
0.0
 10
112.2748
 20
54.591799999999999
 30
0.0
  0
SPLINE
  5
D2
100
AcDbEntity
  8
0
370
     5
100
AcDbSpline
210
0.0
220
0.0
230
1.0
 70
     0
 71
     3
 72
    12
 73
     8
 74
     0
 42
0.0000000001
 43
0.0000000001
 40
0.0
 40
0.0
 40
0.0
 40
0.0
 40
0.5
 40
0.5
 40
0.5
 40
0.5
 40
1.0
 40
1.0
 40
1.0
 40
1.0
 10
95.895099999999999
 20
30.375500000000002
 30
0.0
 10
96.491500000000002
 20
32.165500000000002
 30
0.0
 10
95.572900000000004
 20
34.107800000000005
 30
0.0
 10
93.810700000000011
 20
34.782600000000002
 30
0.0
 10
93.810700000000011
 20
34.782600000000002
 30
0.0
 10
92.048500000000004
 20
35.4574
 30
0.0
 10
90.067300000000003
 20
34.625500000000002
 30
0.0
 10
89.315200000000004
 20
32.895099999999999
 30
0.0
  0
SPLINE
  5
D3
100
AcDbEntity
  8
0
370
     5
100
AcDbSpline
210
0.0
220
0.0
230
1.0
 70
     0
 71
     3
 72
     8
 73
     4
 74
     0
 42
0.0000000001
 43
0.0000000001
 40
0.0
 40
0.0
 40
0.0
 40
0.0
 40
1.0
 40
1.0
 40
1.0
 40
1.0
 10
63.835700000000003
 20
11.478400000000001
 30
0.0
 10
76.1661
 20
7.0723000000000003
 30
0.0
 10
89.740300000000005
 20
13.452
 30
0.0
 10
94.215100000000007
 20
25.7562
 30
0.0
  0
SPLINE
  5
D4
100
AcDbEntity
  8
0
370
     5
100
AcDbSpline
210
0.0
220
0.0
230
1.0
 70
     0
 71
     3
 72
    12
 73
     8
 74
     0
 42
0.0000000001
 43
0.0000000001
 40
0.0
 40
0.0
 40
0.0
 40
0.0
 40
0.5
 40
0.5
 40
0.5
 40
0.5
 40
1.0
 40
1.0
 40
1.0
 40
1.0
 10
-87.501400000000004
 20
71.109400000000008
 30
0.0
 10
-88.436900000000009
 20
70.567000000000007
 30
0.0
 10
-88.975999999999999
 20
69.534300000000002
 30
0.0
 10
-88.886200000000002
 20
68.456900000000005
 30
0.0
 10
-88.886200000000002
 20
68.456900000000005
 30
0.0
 10
-88.796400000000006
 20
67.379400000000004
 30
0.0
 10
-88.093699999999998
 20
66.450200000000009
 30
0.0
 10
-87.081400000000002
 20
66.070099999999996
 30
0.0
  0
SPLINE
  5
D5
100
AcDbEntity
  8
0
370
     5
100
AcDbSpline
210
0.0
220
0.0
230
1.0
 70
     0
 71
     3
 72
     8
 73
     4
 74
     0
 42
0.0000000001
 43
0.0000000001
 40
0.0
 40
0.0
 40
0.0
 40
0.0
 40
1.0
 40
1.0
 40
1.0
 40
1.0
 10
-74.761700000000005
 20
76.428600000000003
 30
0.0
 10
-75.912900000000008
 20
76.853099999999998
 30
0.0
 10
-77.19250000000001
 20
76.750700000000009
 30
0.0
 10
-78.261600000000001
 20
76.148600000000002
 30
0.0
  0
SPLINE
  5
D6
100
AcDbEntity
  8
0
370
     5
100
AcDbSpline
210
0.0
220
0.0
230
1.0
 70
     0
 71
     3
 72
    12
 73
     8
 74
     0
 42
0.0000000001
 43
0.0000000001
 40
0.0
 40
0.0
 40
0.0
 40
0.0
 40
0.5
 40
0.5
 40
0.5
 40
0.5
 40
1.0
 40
1.0
 40
1.0
 40
1.0
 10
-30.942500000000003
 20
60.610900000000001
 30
0.0
 10
-29.197400000000002
 20
59.979800000000004
 30
0.0
 10
-27.273
 20
60.067700000000002
 30
0.0
 10
-25.592700000000001
 20
60.855200000000004
 30
0.0
 10
-25.592700000000001
 20
60.855200000000004
 30
0.0
 10
-23.912400000000002
 20
61.642800000000001
 30
0.0
 10
-22.613900000000001
 20
63.065400000000004
 30
0.0
 10
-21.982700000000001
 20
64.810299999999998
 30
0.0
  0
SPLINE
  5
D7
100
AcDbEntity
  8
0
370
     5
100
AcDbSpline
210
0.0
220
0.0
230
1.0
 70
     0
 71
     3
 72
    12
 73
     8
 74
     0
 42
0.0000000001
 43
0.0000000001
 40
0.0
 40
0.0
 40
0.0
 40
0.0
 40
0.5
 40
0.5
 40
0.5
 40
0.5
 40
1.0
 40
1.0
 40
1.0
 40
1.0
 10
-12.882800000000001
 20
77.828299999999999
 30
0.0
 10
-13.922500000000001
 20
78.199600000000004
 30
0.0
 10
-15.067
 20
78.142700000000005
 30
0.0
 10
-16.064700000000002
 20
77.670200000000008
 30
0.0
 10
-16.064700000000002
 20
77.670200000000008
 30
0.0
 10
-17.0624
 20
77.197699999999998
 30
0.0
 10
-17.831400000000002
 20
76.348200000000006
 30
0.0
 10
-18.2027
 20
75.308700000000002
 30
0.0
  0
SPLINE
  5
D8
100
AcDbEntity
  8
0
370
     5
100
AcDbSpline
210
0.0
220
0.0
230
1.0
 70
     0
 71
     3
 72
     8
 73
     4
 74
     0
 42
0.0000000001
 43
0.0000000001
 40
0.0
 40
0.0
 40
0.0
 40
0.0
 40
1.0
 40
1.0
 40
1.0
 40
1.0
 10
-6.4430000000000005
 20
74.888800000000003
 30
0.0
 10
-6.3620000000000001
 20
75.233400000000003
 30
0.0
 10
-6.5387000000000004
 20
75.586600000000004
 30
0.0
 10
-6.8629000000000007
 20
75.728700000000003
 30
0.0
  0
SPLINE
  5
D9
100
AcDbEntity
  8
0
370
     5
100
AcDbSpline
210
0.0
220
0.0
230
1.0
 70
     0
 71
     3
 72
    16
 73
    12
 74
     0
 42
0.0000000001
 43
0.0000000001
 40
0.0
 40
0.0
 40
0.0
 40
0.0
 40
0.3333333333333333
 40
0.3333333333333333
 40
0.3333333333333333
 40
0.3333333333333333
 40
0.6666666666666666
 40
0.6666666666666666
 40
0.6666666666666666
 40
0.6666666666666666
 40
1.0
 40
1.0
 40
1.0
 40
1.0
 10
-10.222900000000001
 20
64.250399999999999
 30
0.0
 10
-10.473000000000001
 20
63.5503
 30
0.0
 10
-10.330500000000001
 20
62.7699
 30
0.0
 10
-9.8491
 20
62.203300000000006
 30
0.0
 10
-9.8491
 20
62.203300000000006
 30
0.0
 10
-9.367700000000001
 20
61.636700000000005
 30
0.0
 10
-8.6205999999999996
 20
61.369900000000001
 30
0.0
 10
-7.8891
 20
61.503400000000006
 30
0.0
 10
-7.8891
 20
61.503400000000006
 30
0.0
 10
-7.1577000000000002
 20
61.636900000000004
 30
0.0
 10
-6.5529999999999999
 20
62.150500000000001
 30
0.0
 10
-6.3029999999999999
 20
62.8506
 30
0.0
  0
SPLINE
  5
DA
100
AcDbEntity
  8
0
370
     5
100
AcDbSpline
210
0.0
220
0.0
230
1.0
 70
     0
 71
     3
 72
    12
 73
     8
 74
     0
 42
0.0000000001
 43
0.0000000001
 40
0.0
 40
0.0
 40
0.0
 40
0.0
 40
0.5
 40
0.5
 40
0.5
 40
0.5
 40
1.0
 40
1.0
 40
1.0
 40
1.0
 10
-1.6830000000000001
 20
73.769000000000005
 30
0.0
 10
-1.8489
 20
73.845399999999998
 30
0.0
 10
-2.0405000000000002
 20
73.842300000000009
 30
0.0
 10
-2.2039
 20
73.760599999999997
 30
0.0
 10
-2.2039
 20
73.760599999999997
 30
0.0
 10
-2.3672
 20
73.679000000000002
 30
0.0
 10
-2.4845999999999999
 20
73.527500000000003
 30
0.0
 10
-2.5230000000000001
 20
73.349000000000004
 30
0.0
  0
SPLINE
  5
DB
100
AcDbEntity
  8
0
370
     5
100
AcDbSpline
210
0.0
220
0.0
230
1.0
 70
     0
 71
     3
 72
     8
 73
     4
 74
     0
 42
0.0000000001
 43
0.0000000001
 40
0.0
 40
0.0
 40
0.0
 40
0.0
 40
1.0
 40
1.0
 40
1.0
 40
1.0
 10
6.8568000000000007
 20
66.350099999999998
 30
0.0
 10
7.5779000000000005
 20
68.511800000000008
 30
0.0
 10
6.4666000000000006
 20
70.857700000000008
 30
0.0
 10
4.3368000000000002
 20
71.669300000000007
 30
0.0
  0
SPLINE
  5
DC
100
AcDbEntity
  8
0
370
     5
100
AcDbSpline
210
0.0
220
0.0
230
1.0
 70
     0
 71
     3
 72
    12
 73
     8
 74
     0
 42
0.0000000001
 43
0.0000000001
 40
0.0
 40
0.0
 40
0.0
 40
0.0
 40
0.5
 40
0.5
 40
0.5
 40
0.5
 40
1.0
 40
1.0
 40
1.0
 40
1.0
 10
2.9369000000000001
 20
55.7117
 30
0.0
 10
2.3057000000000003
 20
53.966799999999999
 30
0.0
 10
2.3936000000000002
 20
52.042700000000004
 30
0.0
 10
3.1812
 20
50.3626
 30
0.0
 10
3.1812
 20
50.3626
 30
0.0
 10
3.9688000000000003
 20
48.682600000000001
 30
0.0
 10
5.3917000000000002
 20
47.384100000000004
 30
0.0
 10
7.1368
 20
46.753
 30
0.0
  0
SPLINE
  5
DD
100
AcDbEntity
  8
0
370
     5
100
AcDbSpline
210
0.0
220
0.0
230
1.0
 70
     0
 71
     3
 72
     8
 73
     4
 74
     0
 42
0.0000000001
 43
0.0000000001
 40
0.0
 40
0.0
 40
0.0
 40
0.0
 40
1.0
 40
1.0
 40
1.0
 40
1.0
 10
69.85560000000001
 20
24.076500000000003
 30
0.0
 10
77.657899999999998
 20
21.319800000000001
 30
0.0
 10
86.245500000000007
 20
25.211500000000001
 30
0.0
 10
89.315200000000004
 20
32.895099999999999
 30
0.0
  0
SPLINE
  5
DE
100
AcDbEntity
  8
0
370
     5
100
AcDbSpline
210
0.0
220
0.0
230
1.0
 70
     0
 71
     3
 72
    12
 73
     8
 74
     0
 42
0.0000000001
 43
0.0000000001
 40
0.0
 40
0.0
 40
0.0
 40
0.0
 40
0.5
 40
0.5
 40
0.5
 40
0.5
 40
1.0
 40
1.0
 40
1.0
 40
1.0
 10
159.4539
 20
80.067999999999998
 30
0.0
 10
159.6773
 20
80.792200000000008
 30
0.0
 10
159.5942
 20
81.576400000000007
 30
0.0
 10
159.22380000000001
 20
82.2376
 30
0.0
 10
159.22380000000001
 20
82.2376
 30
0.0
 10
158.8535
 20
82.898899999999998
 30
0.0
 10
158.22830000000002
 20
83.379500000000007
 30
0.0
 10
157.4939
 20
83.56750000000001
 30
0.0
  0
SPLINE
  5
DF
100
AcDbEntity
  8
0
370
     5
100
AcDbSpline
210
0.0
220
0.0
230
1.0
 70
     0
 71
     3
 72
    12
 73
     8
 74
     0
 42
0.0000000001
 43
0.0000000001
 40
0.0
 40
0.0
 40
0.0
 40
0.0
 40
0.5
 40
0.5
 40
0.5
 40
0.5
 40
1.0
 40
1.0
 40
1.0
 40
1.0
 10
155.25400000000002
 20
75.448700000000002
 30
0.0
 10
155.97830000000002
 20
75.225300000000004
 30
0.0
 10
156.76250000000002
 20
75.308400000000006
 30
0.0
 10
157.4239
 20
75.67880000000001
 30
0.0
 10
157.4239
 20
75.67880000000001
 30
0.0
 10
158.08520000000001
 20
76.04910000000001
 30
0.0
 10
158.5659
 20
76.674199999999999
 30
0.0
 10
158.75390000000002
 20
77.4084
 30
0.0
  0
SPLINE
  5
E0
100
AcDbEntity
  8
0
370
     5
100
AcDbSpline
210
0.0
220
0.0
230
1.0
 70
     0
 71
     3
 72
     8
 73
     4
 74
     0
 42
0.0000000001
 43
0.0000000001
 40
0.0
 40
0.0
 40
0.0
 40
0.0
 40
1.0
 40
1.0
 40
1.0
 40
1.0
 10
149.79410000000001
 20
76.988500000000002
 30
0.0
 10
148.36799999999999
 20
77.375
 30
0.0
 10
146.88939999999999
 20
76.574300000000008
 30
0.0
 10
146.4341
 20
75.168700000000001
 30
0.0
  0
SPLINE
  5
E1
100
AcDbEntity
  8
0
370
     5
100
AcDbSpline
210
0.0
220
0.0
230
1.0
 70
     0
 71
     3
 72
    12
 73
     8
 74
     0
 42
0.0000000001
 43
0.0000000001
 40
0.0
 40
0.0
 40
0.0
 40
0.0
 40
0.5
 40
0.5
 40
0.5
 40
0.5
 40
1.0
 40
1.0
 40
1.0
 40
1.0
 10
143.35420000000002
 20
67.189900000000009
 30
0.0
 10
143.53990000000002
 20
67.152799999999999
 30
0.0
 10
143.73260000000002
 20
67.191000000000003
 30
0.0
 10
143.89019999999999
 20
67.296000000000006
 30
0.0
 10
143.89019999999999
 20
67.296000000000006
 30
0.0
 10
144.04770000000002
 20
67.400999999999996
 30
0.0
 10
144.15710000000001
 20
67.5642
 30
0.0
 10
144.1942
 20
67.749899999999997
 30
0.0
  0
SPLINE
  5
E2
100
AcDbEntity
  8
0
370
     5
100
AcDbSpline
210
0.0
220
0.0
230
1.0
 70
     0
 71
     3
 72
    16
 73
    12
 74
     0
 42
0.0000000001
 43
0.0000000001
 40
0.0
 40
0.0
 40
0.0
 40
0.0
 40
0.3333333333333333
 40
0.3333333333333333
 40
0.3333333333333333
 40
0.3333333333333333
 40
0.6666666666666666
 40
0.6666666666666666
 40
0.6666666666666666
 40
0.6666666666666666
 40
1.0
 40
1.0
 40
1.0
 40
1.0
 10
136.6343
 20
69.14970000000001
 30
0.0
 10
135.9066
 20
69.357300000000009
 30
0.0
 10
135.1234
 20
69.158600000000007
 30
0.0
 10
134.58280000000002
 20
68.629100000000008
 30
0.0
 10
134.58280000000002
 20
68.629100000000008
 30
0.0
 10
134.0421
 20
68.099600000000009
 30
0.0
 10
133.82730000000001
 20
67.320700000000002
 30
0.0
 10
134.01990000000001
 20
66.58890000000001
 30
0.0
 10
134.01990000000001
 20
66.58890000000001
 30
0.0
 10
134.21250000000001
 20
65.857200000000006
 30
0.0
 10
134.78310000000002
 20
65.284999999999997
 30
0.0
 10
135.51439999999999
 20
65.090299999999999
 30
0.0
  0
SPLINE
  5
E3
100
AcDbEntity
  8
0
370
     5
100
AcDbSpline
210
0.0
220
0.0
230
1.0
 70
     0
 71
     3
 72
     8
 73
     4
 74
     0
 42
0.0000000001
 43
0.0000000001
 40
0.0
 40
0.0
 40
0.0
 40
0.0
 40
1.0
 40
1.0
 40
1.0
 40
1.0
 10
142.6542
 20
62.290700000000001
 30
0.0
 10
142.73520000000002
 20
62.635300000000001
 30
0.0
 10
142.55850000000001
 20
62.988500000000002
 30
0.0
 10
142.23420000000002
 20
63.130600000000001
 30
0.0
  0
SPLINE
  5
E4
100
AcDbEntity
  8
0
370
     5
100
AcDbSpline
210
0.0
220
0.0
230
1.0
 70
     0
 71
     3
 72
     8
 73
     4
 74
     0
 42
0.0000000001
 43
0.0000000001
 40
0.0
 40
0.0
 40
0.0
 40
0.0
 40
1.0
 40
1.0
 40
1.0
 40
1.0
 10
140.55430000000001
 20
54.8718
 30
0.0
 10
140.1677
 20
53.445900000000002
 30
0.0
 10
140.96850000000001
 20
51.967500000000001
 30
0.0
 10
142.3742
 20
51.512300000000003
 30
0.0
  0
SPLINE
  5
E5
100
AcDbEntity
  8
0
370
     5
100
AcDbSpline
210
0.0
220
0.0
230
1.0
 70
     0
 71
     3
 72
     8
 73
     4
 74
     0
 42
0.0000000001
 43
0.0000000001
 40
0.0
 40
0.0
 40
0.0
 40
0.0
 40
1.0
 40
1.0
 40
1.0
 40
1.0
 10
149.79410000000001
 20
46.473100000000002
 30
0.0
 10
150.18049999999999
 20
47.9758
 30
0.0
 10
149.3175
 20
49.516800000000003
 30
0.0
 10
147.83410000000001
 20
49.972500000000004
 30
0.0
  0
SPLINE
  5
E6
100
AcDbEntity
  8
0
370
     5
100
AcDbSpline
210
0.0
220
0.0
230
1.0
 70
     0
 71
     3
 72
    12
 73
     8
 74
     0
 42
0.0000000001
 43
0.0000000001
 40
0.0
 40
0.0
 40
0.0
 40
0.0
 40
0.5
 40
0.5
 40
0.5
 40
0.5
 40
1.0
 40
1.0
 40
1.0
 40
1.0
 10
145.45420000000001
 20
41.8538
 30
0.0
 10
146.17850000000001
 20
41.630400000000002
 30
0.0
 10
146.96270000000001
 20
41.713500000000003
 30
0.0
 10
147.6241
 20
42.083800000000004
 30
0.0
 10
147.6241
 20
42.083800000000004
 30
0.0
 10
148.28540000000001
 20
42.454100000000004
 30
0.0
 10
148.76609999999999
 20
43.079300000000003
 30
0.0
 10
148.95410000000001
 20
43.813500000000005
 30
0.0
  0
SPLINE
  5
E7
100
AcDbEntity
  8
0
370
     5
100
AcDbSpline
210
0.0
220
0.0
230
1.0
 70
     0
 71
     3
 72
     8
 73
     4
 74
     0
 42
0.0000000001
 43
0.0000000001
 40
0.0
 40
0.0
 40
0.0
 40
0.0
 40
1.0
 40
1.0
 40
1.0
 40
1.0
 10
131.45439999999999
 20
48.012800000000006
 30
0.0
 10
131.81140000000002
 20
46.612000000000002
 30
0.0
 10
132.8724
 20
45.498100000000001
 30
0.0
 10
134.2544
 20
45.073300000000003
 30
0.0
  0
SPLINE
  5
E8
100
AcDbEntity
  8
0
370
     5
100
AcDbSpline
210
0.0
220
0.0
230
1.0
 70
     0
 71
     3
 72
     8
 73
     4
 74
     0
 42
0.0000000001
 43
0.0000000001
 40
0.0
 40
0.0
 40
0.0
 40
0.0
 40
1.0
 40
1.0
 40
1.0
 40
1.0
 10
128.09450000000001
 20
58.931200000000004
 30
0.0
 10
127.34490000000001
 20
61.634500000000003
 30
0.0
 10
125.29740000000001
 20
63.786700000000003
 30
0.0
 10
122.63460000000001
 20
64.670299999999997
 30
0.0
  0
SPLINE
  5
E9
100
AcDbEntity
  8
0
370
     5
100
AcDbSpline
210
0.0
220
0.0
230
1.0
 70
     0
 71
     3
 72
    12
 73
     8
 74
     0
 42
0.0000000001
 43
0.0000000001
 40
0.0
 40
0.0
 40
0.0
 40
0.0
 40
0.5
 40
0.5
 40
0.5
 40
0.5
 40
1.0
 40
1.0
 40
1.0
 40
1.0
 10
10.636700000000001
 20
107.2239
 30
0.0
 10
8.7773000000000003
 20
107.66940000000001
 30
0.0
 10
6.8968000000000007
 20
106.5712
 30
0.0
 10
6.3715000000000002
 20
104.7329
 30
0.0
 10
6.3715000000000002
 20
104.7329
 30
0.0
 10
5.8463000000000003
 20
102.89460000000001
 30
0.0
 10
6.8626000000000005
 20
100.9689
 30
0.0
 10
8.6768000000000001
 20
100.36490000000001
 30
0.0
  0
SPLINE
  5
EA
100
AcDbEntity
  8
0
370
     5
100
AcDbSpline
210
0.0
220
0.0
230
1.0
 70
     0
 71
     3
 72
     8
 73
     4
 74
     0
 42
0.0000000001
 43
0.0000000001
 40
0.0
 40
0.0
 40
0.0
 40
0.0
 40
1.0
 40
1.0
 40
1.0
 40
1.0
 10
126.1345
 20
76.5685
 30
0.0
 10
128.8441
 20
75.854300000000009
 30
0.0
 10
131.73140000000001
 20
76.53670000000001
 30
0.0
 10
133.83440000000002
 20
78.388300000000001
 30
0.0
  0
SPLINE
  5
EB
100
AcDbEntity
  8
0
370
     5
100
AcDbSpline
210
0.0
220
0.0
230
1.0
 70
     0
 71
     3
 72
     8
 73
     4
 74
     0
 42
0.0000000001
 43
0.0000000001
 40
0.0
 40
0.0
 40
0.0
 40
0.0
 40
1.0
 40
1.0
 40
1.0
 40
1.0
 10
146.29420000000002
 20
86.787000000000006
 30
0.0
 10
144.92930000000001
 20
87.1815
 30
0.0
 10
143.45760000000001
 20
86.866100000000003
 30
0.0
 10
142.3742
 20
85.947100000000006
 30
0.0
  0
SPLINE
  5
EC
100
AcDbEntity
  8
0
370
     5
100
AcDbSpline
210
0.0
220
0.0
230
1.0
 70
     0
 71
     3
 72
    12
 73
     8
 74
     0
 42
0.0000000001
 43
0.0000000001
 40
0.0
 40
0.0
 40
0.0
 40
0.0
 40
0.5
 40
0.5
 40
0.5
 40
0.5
 40
1.0
 40
1.0
 40
1.0
 40
1.0
 10
-69.721699999999998
 20
202.54950000000002
 30
0.0
 10
-69.684600000000003
 20
202.73520000000002
 30
0.0
 10
-69.722800000000007
 20
202.92790000000002
 30
0.0
 10
-69.827799999999996
 20
203.08540000000002
 30
0.0
 10
-69.827799999999996
 20
203.08540000000002
 30
0.0
 10
-69.9328
 20
203.24290000000002
 30
0.0
 10
-70.096100000000007
 20
203.35230000000001
 30
0.0
 10
-70.281700000000001
 20
203.38940000000002
 30
0.0
  0
SPLINE
  5
ED
100
AcDbEntity
  8
0
370
     5
100
AcDbSpline
210
0.0
220
0.0
230
1.0
 70
     0
 71
     3
 72
    12
 73
     8
 74
     0
 42
0.0000000001
 43
0.0000000001
 40
0.0
 40
0.0
 40
0.0
 40
0.0
 40
0.5
 40
0.5
 40
0.5
 40
0.5
 40
1.0
 40
1.0
 40
1.0
 40
1.0
 10
-74.481700000000004
 20
186.452
 30
0.0
 10
-74.774600000000007
 20
185.34960000000001
 30
0.0
 10
-74.145800000000008
 20
184.2124
 30
0.0
 10
-73.056300000000007
 20
183.87430000000001
 30
0.0
 10
-73.056300000000007
 20
183.87430000000001
 30
0.0
 10
-71.966700000000003
 20
183.53620000000001
 30
0.0
 10
-70.804500000000004
 20
184.11760000000001
 30
0.0
 10
-70.421700000000001
 20
185.19210000000001
 30
0.0
  0
SPLINE
  5
EE
100
AcDbEntity
  8
0
370
     5
100
AcDbSpline
210
0.0
220
0.0
230
1.0
 70
     0
 71
     3
 72
     8
 73
     4
 74
     0
 42
0.0000000001
 43
0.0000000001
 40
0.0
 40
0.0
 40
0.0
 40
0.0
 40
1.0
 40
1.0
 40
1.0
 40
1.0
 10
-64.821799999999996
 20
201.84960000000001
 30
0.0
 10
-65.166499999999999
 20
201.9306
 30
0.0
 10
-65.519800000000004
 20
201.75390000000002
 30
0.0
 10
-65.661799999999999
 20
201.4297
 30
0.0
  0
SPLINE
  5
EF
100
AcDbEntity
  8
0
370
     5
100
AcDbSpline
210
0.0
220
0.0
230
1.0
 70
     0
 71
     3
 72
    12
 73
     8
 74
     0
 42
0.0000000001
 43
0.0000000001
 40
0.0
 40
0.0
 40
0.0
 40
0.0
 40
0.5
 40
0.5
 40
0.5
 40
0.5
 40
1.0
 40
1.0
 40
1.0
 40
1.0
 10
-55.582000000000001
 20
196.25050000000002
 30
0.0
 10
-55.359200000000001
 20
196.95590000000001
 30
0.0
 10
-55.425800000000002
 20
197.7208
 30
0.0
 10
-55.767099999999999
 20
198.37710000000001
 30
0.0
 10
-55.767099999999999
 20
198.37710000000001
 30
0.0
 10
-56.108499999999999
 20
199.0334
 30
0.0
 10
-56.6965
 20
199.52720000000002
 30
0.0
 10
-57.402000000000001
 20
199.75
 30
0.0
  0
SPLINE
  5
F0
100
AcDbEntity
  8
0
370
     5
100
AcDbSpline
210
0.0
220
0.0
230
1.0
 70
     0
 71
     3
 72
     8
 73
     4
 74
     0
 42
0.0000000001
 43
0.0000000001
 40
0.0
 40
0.0
 40
0.0
 40
0.0
 40
1.0
 40
1.0
 40
1.0
 40
1.0
 10
-61.041900000000005
 20
177.4933
 30
0.0
 10
-65.935500000000005
 20
160.62360000000001
 30
0.0
 10
-57.036000000000001
 20
142.827
 30
0.0
 10
-40.6023
 20
136.61950000000002
 30
0.0
  0
SPLINE
  5
F1
100
AcDbEntity
  8
0
370
     5
100
AcDbSpline
210
0.0
220
0.0
230
1.0
 70
     0
 71
     3
 72
    12
 73
     8
 74
     0
 42
0.0000000001
 43
0.0000000001
 40
0.0
 40
0.0
 40
0.0
 40
0.0
 40
0.5
 40
0.5
 40
0.5
 40
0.5
 40
1.0
 40
1.0
 40
1.0
 40
1.0
 10
-41.442300000000003
 20
131.16030000000001
 30
0.0
 10
-40.104400000000005
 20
131.22570000000002
 30
0.0
 10
-38.997199999999999
 20
132.22329999999999
 30
0.0
 10
-38.793600000000005
 20
133.5471
 30
0.0
 10
-38.793600000000005
 20
133.5471
 30
0.0
 10
-38.5899
 20
134.8708
 30
0.0
 10
-39.3459
 20
136.1551
 30
0.0
 10
-40.6023
 20
136.61950000000002
 30
0.0
  0
SPLINE
  5
F2
100
AcDbEntity
  8
0
370
     5
100
AcDbSpline
210
0.0
220
0.0
230
1.0
 70
     0
 71
     3
 72
    12
 73
     8
 74
     0
 42
0.0000000001
 43
0.0000000001
 40
0.0
 40
0.0
 40
0.0
 40
0.0
 40
0.5
 40
0.5
 40
0.5
 40
0.5
 40
1.0
 40
1.0
 40
1.0
 40
1.0
 10
-41.442300000000003
 20
131.16030000000001
 30
0.0
 10
-50.574300000000001
 20
130.95940000000002
 30
0.0
 10
-59.147200000000005
 20
126.72040000000001
 30
0.0
 10
-64.850000000000009
 20
119.58600000000001
 30
0.0
 10
-64.850000000000009
 20
119.58600000000001
 30
0.0
 10
-70.552800000000005
 20
112.4517
 30
0.0
 10
-72.798500000000004
 20
103.1564
 30
0.0
 10
-70.981700000000004
 20
94.2059
 30
0.0
  0
SPLINE
  5
F3
100
AcDbEntity
  8
0
370
     5
100
AcDbSpline
210
0.0
220
0.0
230
1.0
 70
     0
 71
     3
 72
    12
 73
     8
 74
     0
 42
0.0000000001
 43
0.0000000001
 40
0.0
 40
0.0
 40
0.0
 40
0.0
 40
0.5
 40
0.5
 40
0.5
 40
0.5
 40
1.0
 40
1.0
 40
1.0
 40
1.0
 10
-74.201700000000002
 20
90.846400000000003
 30
0.0
 10
-73.280100000000004
 20
90.677400000000006
 30
0.0
 10
-72.3352
 20
90.982799999999997
 30
0.0
 10
-71.686900000000009
 20
91.659199999999998
 30
0.0
 10
-71.686900000000009
 20
91.659199999999998
 30
0.0
 10
-71.038600000000002
 20
92.335599999999999
 30
0.0
 10
-70.773700000000005
 20
93.292400000000001
 30
0.0
 10
-70.981700000000004
 20
94.2059
 30
0.0
  0
SPLINE
  5
F4
100
AcDbEntity
  8
0
370
     5
100
AcDbSpline
210
0.0
220
0.0
230
1.0
 70
     0
 71
     3
 72
    12
 73
     8
 74
     0
 42
0.0000000001
 43
0.0000000001
 40
0.0
 40
0.0
 40
0.0
 40
0.0
 40
0.5
 40
0.5
 40
0.5
 40
0.5
 40
1.0
 40
1.0
 40
1.0
 40
1.0
 10
-74.201700000000002
 20
90.846400000000003
 30
0.0
 10
-83.478700000000003
 20
92.480500000000006
 30
0.0
 10
-92.99260000000001
 20
89.767499999999998
 30
0.0
 10
-100.012
 20
83.486400000000003
 30
0.0
 10
-100.012
 20
83.486400000000003
 30
0.0
 10
-107.0314
 20
77.205300000000008
 30
0.0
 10
-110.77980000000001
 20
68.05080000000001
 30
0.0
 10
-110.18100000000001
 20
58.651200000000003
 30
0.0
  0
SPLINE
  5
F5
100
AcDbEntity
  8
0
370
     5
100
AcDbSpline
210
0.0
220
0.0
230
1.0
 70
     0
 71
     3
 72
    12
 73
     8
 74
     0
 42
0.0000000001
 43
0.0000000001
 40
0.0
 40
0.0
 40
0.0
 40
0.0
 40
0.5
 40
0.5
 40
0.5
 40
0.5
 40
1.0
 40
1.0
 40
1.0
 40
1.0
 10
-114.10090000000001
 20
55.851700000000001
 30
0.0
 10
-113.19640000000001
 20
55.443300000000001
 30
0.0
 10
-112.14290000000001
 20
55.546900000000001
 30
0.0
 10
-111.3353
 20
56.123699999999999
 30
0.0
 10
-111.3353
 20
56.123699999999999
 30
0.0
 10
-110.52770000000001
 20
56.700500000000005
 30
0.0
 10
-110.08800000000001
 20
57.6633
 30
0.0
 10
-110.18100000000001
 20
58.651200000000003
 30
0.0
  0
SPLINE
  5
F6
100
AcDbEntity
  8
0
370
     5
100
AcDbSpline
210
0.0
220
0.0
230
1.0
 70
     0
 71
     3
 72
    12
 73
     8
 74
     0
 42
0.0000000001
 43
0.0000000001
 40
0.0
 40
0.0
 40
0.0
 40
0.0
 40
0.5
 40
0.5
 40
0.5
 40
0.5
 40
1.0
 40
1.0
 40
1.0
 40
1.0
 10
-114.10090000000001
 20
55.851700000000001
 30
0.0
 10
-124.38090000000001
 20
60.121600000000001
 30
0.0
 10
-136.07910000000001
 20
59.249700000000004
 30
0.0
 10
-145.6122
 20
53.502900000000004
 30
0.0
 10
-145.6122
 20
53.502900000000004
 30
0.0
 10
-155.1454
 20
47.756100000000004
 30
0.0
 10
-161.3777
 20
37.819299999999998
 30
0.0
 10
-162.40000000000001
 20
26.7361
 30
0.0
  0
SPLINE
  5
F7
100
AcDbEntity
  8
0
370
     5
100
AcDbSpline
210
0.0
220
0.0
230
1.0
 70
     0
 71
     3
 72
    12
 73
     8
 74
     0
 42
0.0000000001
 43
0.0000000001
 40
0.0
 40
0.0
 40
0.0
 40
0.0
 40
0.5
 40
0.5
 40
0.5
 40
0.5
 40
1.0
 40
1.0
 40
1.0
 40
1.0
 10
-167.85990000000001
 20
26.316100000000002
 30
0.0
 10
-167.57670000000002
 20
24.957700000000003
 30
0.0
 10
-166.32910000000001
 20
24.020600000000002
 30
0.0
 10
-164.94540000000001
 20
24.127000000000002
 30
0.0
 10
-164.94540000000001
 20
24.127000000000002
 30
0.0
 10
-163.5617
 20
24.2334
 30
0.0
 10
-162.47200000000001
 20
25.350300000000001
 30
0.0
 10
-162.40000000000001
 20
26.736000000000001
 30
0.0
  0
SPLINE
  5
F8
100
AcDbEntity
  8
0
370
     5
100
AcDbSpline
210
0.0
220
0.0
230
1.0
 70
     0
 71
     3
 72
     8
 73
     4
 74
     0
 42
0.0000000001
 43
0.0000000001
 40
0.0
 40
0.0
 40
0.0
 40
0.0
 40
1.0
 40
1.0
 40
1.0
 40
1.0
 10
-175.55970000000002
 20
143.05850000000001
 30
0.0
 10
-178.8494
 20
103.97840000000001
 30
0.0
 10
-176.25390000000002
 20
64.625900000000001
 30
0.0
 10
-167.85990000000001
 20
26.316100000000002
 30
0.0
  0
SPLINE
  5
F9
100
AcDbEntity
  8
0
370
     5
100
AcDbSpline
210
0.0
220
0.0
230
1.0
 70
     0
 71
     3
 72
     8
 73
     4
 74
     0
 42
0.0000000001
 43
0.0000000001
 40
0.0
 40
0.0
 40
0.0
 40
0.0
 40
1.0
 40
1.0
 40
1.0
 40
1.0
 10
-166.73990000000001
 20
156.4965
 30
0.0
 10
-171.77780000000001
 20
153.8124
 30
0.0
 10
-175.1019
 20
148.74790000000002
 30
0.0
 10
-175.55970000000002
 20
143.05850000000001
 30
0.0
  0
SPLINE
  5
FA
100
AcDbEntity
  8
0
370
     5
100
AcDbSpline
210
0.0
220
0.0
230
1.0
 70
     0
 71
     3
 72
     8
 73
     4
 74
     0
 42
0.0000000001
 43
0.0000000001
 40
0.0
 40
0.0
 40
0.0
 40
0.0
 40
1.0
 40
1.0
 40
1.0
 40
1.0
 10
-166.73990000000001
 20
156.4965
 30
0.0
 10
-151.06650000000002
 20
164.75220000000002
 30
0.0
 10
-138.70910000000001
 20
178.14580000000001
 30
0.0
 10
-131.7406
 20
194.4308
 30
0.0
  0
SPLINE
  5
FB
100
AcDbEntity
  8
0
370
     5
100
AcDbSpline
210
0.0
220
0.0
230
1.0
 70
     0
 71
     3
 72
     8
 73
     4
 74
     0
 42
0.0000000001
 43
0.0000000001
 40
0.0
 40
0.0
 40
0.0
 40
0.0
 40
1.0
 40
1.0
 40
1.0
 40
1.0
 10
-123.48070000000001
 20
198.49010000000001
 30
0.0
 10
-126.86340000000001
 20
199.40780000000001
 30
0.0
 10
-130.40110000000001
 20
197.66920000000002
 30
0.0
 10
-131.7406
 20
194.4308
 30
0.0
  0
SPLINE
  5
FC
100
AcDbEntity
  8
0
370
     5
100
AcDbSpline
210
0.0
220
0.0
230
1.0
 70
     0
 71
     3
 72
     8
 73
     4
 74
     0
 42
0.0000000001
 43
0.0000000001
 40
0.0
 40
0.0
 40
0.0
 40
0.0
 40
1.0
 40
1.0
 40
1.0
 40
1.0
 10
-116.90090000000001
 20
195.8306
 30
0.0
 10
-116.8199
 20
196.17510000000001
 30
0.0
 10
-116.9966
 20
196.5284
 30
0.0
 10
-117.32090000000001
 20
196.6704
 30
0.0
  0
SPLINE
  5
FD
100
AcDbEntity
  8
0
370
     5
100
AcDbSpline
210
0.0
220
0.0
230
1.0
 70
     0
 71
     3
 72
    16
 73
    12
 74
     0
 42
0.0000000001
 43
0.0000000001
 40
0.0
 40
0.0
 40
0.0
 40
0.0
 40
0.3333333333333333
 40
0.3333333333333333
 40
0.3333333333333333
 40
0.3333333333333333
 40
0.6666666666666666
 40
0.6666666666666666
 40
0.6666666666666666
 40
0.6666666666666666
 40
1.0
 40
1.0
 40
1.0
 40
1.0
 10
-120.82080000000001
 20
182.39260000000002
 30
0.0
 10
-121.02850000000001
 20
181.66490000000002
 30
0.0
 10
-120.8297
 20
180.8818
 30
0.0
 10
-120.3001
 20
180.34130000000002
 30
0.0
 10
-120.3001
 20
180.34130000000002
 30
0.0
 10
-119.77050000000001
 20
179.80070000000001
 30
0.0
 10
-118.99160000000001
 20
179.58590000000001
 30
0.0
 10
-118.25970000000001
 20
179.77850000000001
 30
0.0
 10
-118.25970000000001
 20
179.77850000000001
 30
0.0
 10
-117.5279
 20
179.97110000000001
 30
0.0
 10
-116.95570000000001
 20
180.54150000000001
 30
0.0
 10
-116.76090000000001
 20
181.27270000000001
 30
0.0
  0
SPLINE
  5
FE
100
AcDbEntity
  8
0
370
     5
100
AcDbSpline
210
0.0
220
0.0
230
1.0
 70
     0
 71
     3
 72
     8
 73
     4
 74
     0
 42
0.0000000001
 43
0.0000000001
 40
0.0
 40
0.0
 40
0.0
 40
0.0
 40
1.0
 40
1.0
 40
1.0
 40
1.0
 10
-112.001
 20
195.13070000000002
 30
0.0
 10
-112.3456
 20
195.2116
 30
0.0
 10
-112.69890000000001
 20
195.03490000000002
 30
0.0
 10
-112.8409
 20
194.7107
 30
0.0
  0
SPLINE
  5
FF
100
AcDbEntity
  8
0
370
     5
100
AcDbSpline
210
0.0
220
0.0
230
1.0
 70
     0
 71
     3
 72
     8
 73
     4
 74
     0
 42
0.0000000001
 43
0.0000000001
 40
0.0
 40
0.0
 40
0.0
 40
0.0
 40
1.0
 40
1.0
 40
1.0
 40
1.0
 10
-104.58110000000001
 20
193.03100000000001
 30
0.0
 10
-95.11330000000001
 20
190.2859
 30
0.0
 10
-85.084299999999999
 20
195.02950000000001
 30
0.0
 10
-81.20150000000001
 20
204.08930000000001
 30
0.0
  0
SPLINE
  5
100
100
AcDbEntity
  8
0
370
     5
100
AcDbSpline
210
0.0
220
0.0
230
1.0
 70
     0
 71
     3
 72
     8
 73
     4
 74
     0
 42
0.0000000001
 43
0.0000000001
 40
0.0
 40
0.0
 40
0.0
 40
0.0
 40
1.0
 40
1.0
 40
1.0
 40
1.0
 10
-77.8416
 20
205.62910000000002
 30
0.0
 10
-79.190300000000008
 20
206.0454
 30
0.0
 10
-80.636600000000001
 20
205.3826
 30
0.0
 10
-81.20150000000001
 20
204.08930000000001
 30
0.0
  0
SPLINE
  5
101
100
AcDbEntity
  8
0
370
     5
100
AcDbSpline
210
0.0
220
0.0
230
1.0
 70
     0
 71
     3
 72
    16
 73
    12
 74
     0
 42
0.0000000001
 43
0.0000000001
 40
0.0
 40
0.0
 40
0.0
 40
0.0
 40
0.3333333333333333
 40
0.3333333333333333
 40
0.3333333333333333
 40
0.3333333333333333
 40
0.6666666666666666
 40
0.6666666666666666
 40
0.6666666666666666
 40
0.6666666666666666
 40
1.0
 40
1.0
 40
1.0
 40
1.0
 10
124.31460000000001
 20
113.10300000000001
 30
0.0
 10
131.14580000000001
 20
111.2106
 30
0.0
 10
138.42940000000002
 20
113.81480000000001
 30
0.0
 10
142.51170000000002
 20
119.60910000000001
 30
0.0
 10
142.51170000000002
 20
119.60910000000001
 30
0.0
 10
146.59390000000002
 20
125.4034
 30
0.0
 10
146.59390000000002
 20
133.1377
 30
0.0
 10
142.51170000000002
 20
138.93210000000002
 30
0.0
 10
142.51170000000002
 20
138.93210000000002
 30
0.0
 10
138.42940000000002
 20
144.72640000000001
 30
0.0
 10
131.14580000000001
 20
147.3305
 30
0.0
 10
124.31460000000001
 20
145.43810000000002
 30
0.0
  0
SPLINE
  5
102
100
AcDbEntity
  8
0
370
     5
100
AcDbSpline
210
0.0
220
0.0
230
1.0
 70
     0
 71
     3
 72
     8
 73
     4
 74
     0
 42
0.0000000001
 43
0.0000000001
 40
0.0
 40
0.0
 40
0.0
 40
0.0
 40
1.0
 40
1.0
 40
1.0
 40
1.0
 10
79.5154
 20
125.56110000000001
 30
0.0
 10
77.745199999999997
 20
126.02650000000001
 30
0.0
 10
75.91510000000001
 20
125.0506
 30
0.0
 10
75.3155
 20
123.3215
 30
0.0
  0
SPLINE
  5
103
100
AcDbEntity
  8
0
370
     5
100
AcDbSpline
210
0.0
220
0.0
230
1.0
 70
     0
 71
     3
 72
    12
 73
     8
 74
     0
 42
0.0000000001
 43
0.0000000001
 40
0.0
 40
0.0
 40
0.0
 40
0.0
 40
0.5
 40
0.5
 40
0.5
 40
0.5
 40
1.0
 40
1.0
 40
1.0
 40
1.0
 10
39.476199999999999
 20
123.3215
 30
0.0
 10
42.062100000000001
 20
115.62480000000001
 30
0.0
 10
49.275400000000005
 20
110.4393
 30
0.0
 10
57.395800000000001
 20
110.4393
 30
0.0
 10
57.395800000000001
 20
110.4393
 30
0.0
 10
65.516300000000001
 20
110.4393
 30
0.0
 10
72.729500000000002
 20
115.62480000000001
 30
0.0
 10
75.3155
 20
123.3215
 30
0.0
  0
SPLINE
  5
104
100
AcDbEntity
  8
0
370
     5
100
AcDbSpline
210
0.0
220
0.0
230
1.0
 70
     0
 71
     3
 72
     8
 73
     4
 74
     0
 42
0.0000000001
 43
0.0000000001
 40
0.0
 40
0.0
 40
0.0
 40
0.0
 40
1.0
 40
1.0
 40
1.0
 40
1.0
 10
39.476199999999999
 20
123.3215
 30
0.0
 10
38.876600000000003
 20
125.0506
 30
0.0
 10
37.046500000000002
 20
126.02650000000001
 30
0.0
 10
35.276299999999999
 20
125.56110000000001
 30
0.0
  0
SPLINE
  5
105
100
AcDbEntity
  8
0
370
     5
100
AcDbSpline
210
0.0
220
0.0
230
1.0
 70
     0
 71
     3
 72
    16
 73
    12
 74
     0
 42
0.0000000001
 43
0.0000000001
 40
0.0
 40
0.0
 40
0.0
 40
0.0
 40
0.3333333333333333
 40
0.3333333333333333
 40
0.3333333333333333
 40
0.3333333333333333
 40
0.6666666666666666
 40
0.6666666666666666
 40
0.6666666666666666
 40
0.6666666666666666
 40
1.0
 40
1.0
 40
1.0
 40
1.0
 10
-9.5228999999999999
 20
145.43810000000002
 30
0.0
 10
-16.354100000000003
 20
147.3305
 30
0.0
 10
-23.637800000000002
 20
144.72640000000001
 30
0.0
 10
-27.720000000000002
 20
138.93210000000002
 30
0.0
 10
-27.720000000000002
 20
138.93210000000002
 30
0.0
 10
-31.802200000000003
 20
133.1377
 30
0.0
 10
-31.802200000000003
 20
125.4034
 30
0.0
 10
-27.720000000000002
 20
119.60910000000001
 30
0.0
 10
-27.720000000000002
 20
119.60910000000001
 30
0.0
 10
-23.637800000000002
 20
113.81480000000001
 30
0.0
 10
-16.354100000000003
 20
111.2106
 30
0.0
 10
-9.5228999999999999
 20
113.10300000000001
 30
0.0
  0
SPLINE
  5
106
100
AcDbEntity
  8
0
370
     5
100
AcDbSpline
210
0.0
220
0.0
230
1.0
 70
     0
 71
     3
 72
     8
 73
     4
 74
     0
 42
0.0000000001
 43
0.0000000001
 40
0.0
 40
0.0
 40
0.0
 40
0.0
 40
1.0
 40
1.0
 40
1.0
 40
1.0
 10
35.276299999999999
 20
133.12
 30
0.0
 10
37.046500000000002
 20
132.65460000000002
 30
0.0
 10
38.876600000000003
 20
133.63050000000001
 30
0.0
 10
39.476199999999999
 20
135.3597
 30
0.0
  0
SPLINE
  5
107
100
AcDbEntity
  8
0
370
     5
100
AcDbSpline
210
0.0
220
0.0
230
1.0
 70
     0
 71
     3
 72
    12
 73
     8
 74
     0
 42
0.0000000001
 43
0.0000000001
 40
0.0
 40
0.0
 40
0.0
 40
0.0
 40
0.5
 40
0.5
 40
0.5
 40
0.5
 40
1.0
 40
1.0
 40
1.0
 40
1.0
 10
68.875600000000006
 20
144.31829999999999
 30
0.0
 10
64.037400000000005
 20
148.0301
 30
0.0
 10
57.704599999999999
 20
149.178
 30
0.0
 10
51.871200000000002
 20
147.40040000000002
 30
0.0
 10
51.871200000000002
 20
147.40040000000002
 30
0.0
 10
46.037800000000004
 20
145.62280000000001
 30
0.0
 10
41.421600000000005
 20
141.1386
 30
0.0
 10
39.476199999999999
 20
135.3597
 30
0.0
  0
SPLINE
  5
108
100
AcDbEntity
  8
0
370
     5
100
AcDbSpline
210
0.0
220
0.0
230
1.0
 70
     0
 71
     3
 72
    12
 73
     8
 74
     0
 42
0.0000000001
 43
0.0000000001
 40
0.0
 40
0.0
 40
0.0
 40
0.0
 40
0.5
 40
0.5
 40
0.5
 40
0.5
 40
1.0
 40
1.0
 40
1.0
 40
1.0
 10
68.875600000000006
 20
143.1985
 30
0.0
 10
69.051900000000003
 20
143.33070000000001
 30
0.0
 10
69.155600000000007
 20
143.53810000000001
 30
0.0
 10
69.155600000000007
 20
143.75839999999999
 30
0.0
 10
69.155600000000007
 20
143.75839999999999
 30
0.0
 10
69.155600000000007
 20
143.9787
 30
0.0
 10
69.051900000000003
 20
144.18610000000001
 30
0.0
 10
68.875600000000006
 20
144.31829999999999
 30
0.0
  0
SPLINE
  5
109
100
AcDbEntity
  8
0
370
     5
100
AcDbSpline
210
0.0
220
0.0
230
1.0
 70
     0
 71
     3
 72
    12
 73
     8
 74
     0
 42
0.0000000001
 43
0.0000000001
 40
0.0
 40
0.0
 40
0.0
 40
0.0
 40
0.5
 40
0.5
 40
0.5
 40
0.5
 40
1.0
 40
1.0
 40
1.0
 40
1.0
 10
57.395800000000001
 20
132.2801
 30
0.0
 10
56.578600000000002
 20
131.46209999999999
 30
0.0
 10
56.563600000000001
 20
130.14150000000001
 30
0.0
 10
57.362000000000002
 20
129.30510000000001
 30
0.0
 10
57.362000000000002
 20
129.30510000000001
 30
0.0
 10
58.160500000000006
 20
128.46880000000002
 30
0.0
 10
59.480600000000003
 20
128.42240000000001
 30
0.0
 10
60.335800000000006
 20
129.20060000000001
 30
0.0
  0
SPLINE
  5
10A
100
AcDbEntity
  8
0
370
     5
100
AcDbSpline
210
0.0
220
0.0
230
1.0
 70
     0
 71
     3
 72
    12
 73
     8
 74
     0
 42
0.0000000001
 43
0.0000000001
 40
0.0
 40
0.0
 40
0.0
 40
0.0
 40
0.5
 40
0.5
 40
0.5
 40
0.5
 40
1.0
 40
1.0
 40
1.0
 40
1.0
 10
72.935500000000005
 20
140.119
 30
0.0
 10
72.815300000000008
 20
140.29920000000001
 30
0.0
 10
72.622600000000006
 20
140.41820000000001
 30
0.0
 10
72.407600000000002
 20
140.44499999999999
 30
0.0
 10
72.407600000000002
 20
140.44499999999999
 30
0.0
 10
72.192599999999999
 20
140.47190000000001
 30
0.0
 10
71.976500000000001
 20
140.404
 30
0.0
 10
71.815600000000003
 20
140.25890000000001
 30
0.0
  0
SPLINE
  5
10B
100
AcDbEntity
  8
0
370
     5
100
AcDbSpline
210
0.0
220
0.0
230
1.0
 70
     0
 71
     3
 72
     8
 73
     4
 74
     0
 42
0.0000000001
 43
0.0000000001
 40
0.0
 40
0.0
 40
0.0
 40
0.0
 40
1.0
 40
1.0
 40
1.0
 40
1.0
 10
75.3155
 20
135.3597
 30
0.0
 10
74.750500000000002
 20
137.05029999999999
 30
0.0
 10
73.949300000000008
 20
138.65260000000001
 30
0.0
 10
72.935500000000005
 20
140.1189
 30
0.0
  0
SPLINE
  5
10C
100
AcDbEntity
  8
0
370
     5
100
AcDbSpline
210
0.0
220
0.0
230
1.0
 70
     0
 71
     3
 72
     8
 73
     4
 74
     0
 42
0.0000000001
 43
0.0000000001
 40
0.0
 40
0.0
 40
0.0
 40
0.0
 40
1.0
 40
1.0
 40
1.0
 40
1.0
 10
75.3155
 20
135.3597
 30
0.0
 10
75.91510000000001
 20
133.63050000000001
 30
0.0
 10
77.745199999999997
 20
132.65460000000002
 30
0.0
 10
79.5154
 20
133.12
 30
0.0
  0
SPLINE
  5
10D
100
AcDbEntity
  8
0
370
     5
100
AcDbSpline
210
0.0
220
0.0
230
1.0
 70
     0
 71
     3
 72
    12
 73
     8
 74
     0
 42
0.0000000001
 43
0.0000000001
 40
0.0
 40
0.0
 40
0.0
 40
0.0
 40
0.5
 40
0.5
 40
0.5
 40
0.5
 40
1.0
 40
1.0
 40
1.0
 40
1.0
 10
106.95490000000001
 20
164.1953
 30
0.0
 10
107.1405
 20
164.1953
 30
0.0
 10
107.3186
 20
164.26910000000001
 30
0.0
 10
107.4499
 20
164.40030000000002
 30
0.0
 10
107.4499
 20
164.40030000000002
 30
0.0
 10
107.58110000000001
 20
164.5316
 30
0.0
 10
107.65490000000001
 20
164.70959999999999
 30
0.0
 10
107.65490000000001
 20
164.89520000000002
 30
0.0
  0
SPLINE
  5
10E
100
AcDbEntity
  8
0
370
     5
100
AcDbSpline
210
0.0
220
0.0
230
1.0
 70
     0
 71
     3
 72
    16
 73
    12
 74
     0
 42
0.0000000001
 43
0.0000000001
 40
0.0
 40
0.0
 40
0.0
 40
0.0
 40
0.3333333333333333
 40
0.3333333333333333
 40
0.3333333333333333
 40
0.3333333333333333
 40
0.6666666666666666
 40
0.6666666666666666
 40
0.6666666666666666
 40
0.6666666666666666
 40
1.0
 40
1.0
 40
1.0
 40
1.0
 10
97.155100000000004
 20
164.1953
 30
0.0
 10
96.404800000000009
 20
164.1953
 30
0.0
 10
95.711600000000004
 20
163.79510000000002
 30
0.0
 10
95.336500000000001
 20
163.1455
 30
0.0
 10
95.336500000000001
 20
163.1455
 30
0.0
 10
94.961300000000008
 20
162.4958
 30
0.0
 10
94.961300000000008
 20
161.69540000000001
 30
0.0
 10
95.336500000000001
 20
161.04580000000001
 30
0.0
 10
95.336500000000001
 20
161.04580000000001
 30
0.0
 10
95.711600000000004
 20
160.39620000000002
 30
0.0
 10
96.404800000000009
 20
159.99590000000001
 30
0.0
 10
97.155100000000004
 20
159.99590000000001
 30
0.0
  0
SPLINE
  5
10F
100
AcDbEntity
  8
0
370
     5
100
AcDbSpline
210
0.0
220
0.0
230
1.0
 70
     0
 71
     3
 72
    12
 73
     8
 74
     0
 42
0.0000000001
 43
0.0000000001
 40
0.0
 40
0.0
 40
0.0
 40
0.0
 40
0.5
 40
0.5
 40
0.5
 40
0.5
 40
1.0
 40
1.0
 40
1.0
 40
1.0
 10
107.65490000000001
 20
159.2961
 30
0.0
 10
107.65490000000001
 20
159.48170000000002
 30
0.0
 10
107.58110000000001
 20
159.65970000000002
 30
0.0
 10
107.4499
 20
159.791
 30
0.0
 10
107.4499
 20
159.791
 30
0.0
 10
107.3186
 20
159.9222
 30
0.0
 10
107.1405
 20
159.99590000000001
 30
0.0
 10
106.95490000000001
 20
159.99590000000001
 30
0.0
  0
SPLINE
  5
110
100
AcDbEntity
  8
0
370
     5
100
AcDbSpline
210
0.0
220
0.0
230
1.0
 70
     0
 71
     3
 72
    12
 73
     8
 74
     0
 42
0.0000000001
 43
0.0000000001
 40
0.0
 40
0.0
 40
0.0
 40
0.0
 40
0.5
 40
0.5
 40
0.5
 40
0.5
 40
1.0
 40
1.0
 40
1.0
 40
1.0
 10
104.155
 20
150.8973
 30
0.0
 10
105.08320000000001
 20
150.8973
 30
0.0
 10
105.9734
 20
151.26600000000002
 30
0.0
 10
106.6298
 20
151.92230000000001
 30
0.0
 10
106.6298
 20
151.92230000000001
 30
0.0
 10
107.2861
 20
152.57859999999999
 30
0.0
 10
107.65490000000001
 20
153.46870000000001
 30
0.0
 10
107.65490000000001
 20
154.39680000000001
 30
0.0
  0
SPLINE
  5
111
100
AcDbEntity
  8
0
370
     5
100
AcDbSpline
210
0.0
220
0.0
230
1.0
 70
     0
 71
     3
 72
    12
 73
     8
 74
     0
 42
0.0000000001
 43
0.0000000001
 40
0.0
 40
0.0
 40
0.0
 40
0.0
 40
0.5
 40
0.5
 40
0.5
 40
0.5
 40
1.0
 40
1.0
 40
1.0
 40
1.0
 10
74.055500000000009
 20
157.8963
 30
0.0
 10
74.055500000000009
 20
156.04000000000002
 30
0.0
 10
74.793000000000006
 20
154.25980000000001
 30
0.0
 10
76.105699999999999
 20
152.94730000000001
 30
0.0
 10
76.105699999999999
 20
152.94730000000001
 30
0.0
 10
77.418500000000009
 20
151.63470000000001
 30
0.0
 10
79.198900000000009
 20
150.8973
 30
0.0
 10
81.055400000000006
 20
150.8973
 30
0.0
  0
SPLINE
  5
112
100
AcDbEntity
  8
0
370
     5
100
AcDbSpline
210
0.0
220
0.0
230
1.0
 70
     0
 71
     3
 72
     8
 73
     4
 74
     0
 42
0.0000000001
 43
0.0000000001
 40
0.0
 40
0.0
 40
0.0
 40
0.0
 40
1.0
 40
1.0
 40
1.0
 40
1.0
 10
74.055500000000009
 20
169.8006
 30
0.0
 10
74.055500000000009
 20
177.1078
 30
0.0
 10
68.688600000000008
 20
183.30610000000001
 30
0.0
 10
61.455800000000004
 20
184.35230000000001
 30
0.0
  0
SPLINE
  5
113
100
AcDbEntity
  8
0
370
     5
100
AcDbSpline
210
0.0
220
0.0
230
1.0
 70
     0
 71
     3
 72
    12
 73
     8
 74
     0
 42
0.0000000001
 43
0.0000000001
 40
0.0
 40
0.0
 40
0.0
 40
0.0
 40
0.5
 40
0.5
 40
0.5
 40
0.5
 40
1.0
 40
1.0
 40
1.0
 40
1.0
 10
60.755800000000001
 20
185.0522
 30
0.0
 10
60.755800000000001
 20
184.8665
 30
0.0
 10
60.829500000000003
 20
184.6885
 30
0.0
 10
60.960800000000006
 20
184.5573
 30
0.0
 10
60.960800000000006
 20
184.5573
 30
0.0
 10
61.092100000000002
 20
184.42600000000002
 30
0.0
 10
61.270100000000006
 20
184.35230000000001
 30
0.0
 10
61.455800000000004
 20
184.35230000000001
 30
0.0
  0
SPLINE
  5
114
100
AcDbEntity
  8
0
370
     5
100
AcDbSpline
210
0.0
220
0.0
230
1.0
 70
     0
 71
     3
 72
    16
 73
    12
 74
     0
 42
0.0000000001
 43
0.0000000001
 40
0.0
 40
0.0
 40
0.0
 40
0.0
 40
0.3333333333333333
 40
0.3333333333333333
 40
0.3333333333333333
 40
0.3333333333333333
 40
0.6666666666666666
 40
0.6666666666666666
 40
0.6666666666666666
 40
0.6666666666666666
 40
1.0
 40
1.0
 40
1.0
 40
1.0
 10
60.755800000000001
 20
192.19110000000001
 30
0.0
 10
60.755800000000001
 20
192.94120000000001
 30
0.0
 10
60.355500000000006
 20
193.6344
 30
0.0
 10
59.705800000000004
 20
194.0095
 30
0.0
 10
59.705800000000004
 20
194.0095
 30
0.0
 10
59.056100000000001
 20
194.3845
 30
0.0
 10
58.255600000000001
 20
194.3845
 30
0.0
 10
57.605800000000002
 20
194.0095
 30
0.0
 10
57.605800000000002
 20
194.0095
 30
0.0
 10
56.956099999999999
 20
193.6344
 30
0.0
 10
56.555900000000001
 20
192.94120000000001
 30
0.0
 10
56.555900000000001
 20
192.19110000000001
 30
0.0
  0
SPLINE
  5
115
100
AcDbEntity
  8
0
370
     5
100
AcDbSpline
210
0.0
220
0.0
230
1.0
 70
     0
 71
     3
 72
     8
 73
     4
 74
     0
 42
0.0000000001
 43
0.0000000001
 40
0.0
 40
0.0
 40
0.0
 40
0.0
 40
1.0
 40
1.0
 40
1.0
 40
1.0
 10
55.995900000000006
 20
184.35230000000001
 30
0.0
 10
56.325500000000005
 20
184.42230000000001
 30
0.0
 10
56.559900000000006
 20
184.71520000000001
 30
0.0
 10
56.555900000000001
 20
185.0522
 30
0.0
  0
SPLINE
  5
116
100
AcDbEntity
  8
0
370
     5
100
AcDbSpline
210
0.0
220
0.0
230
1.0
 70
     0
 71
     3
 72
     8
 73
     4
 74
     0
 42
0.0000000001
 43
0.0000000001
 40
0.0
 40
0.0
 40
0.0
 40
0.0
 40
1.0
 40
1.0
 40
1.0
 40
1.0
 10
55.995900000000006
 20
184.35230000000001
 30
0.0
 10
48.703000000000003
 20
183.3732
 30
0.0
 10
43.258600000000001
 20
177.15180000000001
 30
0.0
 10
43.256100000000004
 20
169.7945
 30
0.0
  0
SPLINE
  5
117
100
AcDbEntity
  8
0
370
     5
100
AcDbSpline
210
0.0
220
0.0
230
1.0
 70
     0
 71
     3
 72
    12
 73
     8
 74
     0
 42
0.0000000001
 43
0.0000000001
 40
0.0
 40
0.0
 40
0.0
 40
0.0
 40
0.5
 40
0.5
 40
0.5
 40
0.5
 40
1.0
 40
1.0
 40
1.0
 40
1.0
 10
36.2562
 20
150.8973
 30
0.0
 10
38.112700000000004
 20
150.8973
 30
0.0
 10
39.8932
 20
151.63470000000001
 30
0.0
 10
41.2059
 20
152.94730000000001
 30
0.0
 10
41.2059
 20
152.94730000000001
 30
0.0
 10
42.518599999999999
 20
154.25980000000001
 30
0.0
 10
43.256100000000004
 20
156.04000000000002
 30
0.0
 10
43.256100000000004
 20
157.8963
 30
0.0
  0
SPLINE
  5
118
100
AcDbEntity
  8
0
370
     5
100
AcDbSpline
210
0.0
220
0.0
230
1.0
 70
     0
 71
     3
 72
    12
 73
     8
 74
     0
 42
0.0000000001
 43
0.0000000001
 40
0.0
 40
0.0
 40
0.0
 40
0.0
 40
0.5
 40
0.5
 40
0.5
 40
0.5
 40
1.0
 40
1.0
 40
1.0
 40
1.0
 10
9.6567000000000007
 20
154.39680000000001
 30
0.0
 10
9.6567000000000007
 20
153.46870000000001
 30
0.0
 10
10.025500000000001
 20
152.57859999999999
 30
0.0
 10
10.681900000000001
 20
151.92230000000001
 30
0.0
 10
10.681900000000001
 20
151.92230000000001
 30
0.0
 10
11.338200000000001
 20
151.26600000000002
 30
0.0
 10
12.228400000000001
 20
150.8973
 30
0.0
 10
13.156700000000001
 20
150.8973
 30
0.0
  0
SPLINE
  5
119
100
AcDbEntity
  8
0
370
     5
100
AcDbSpline
210
0.0
220
0.0
230
1.0
 70
     0
 71
     3
 72
    12
 73
     8
 74
     0
 42
0.0000000001
 43
0.0000000001
 40
0.0
 40
0.0
 40
0.0
 40
0.0
 40
0.5
 40
0.5
 40
0.5
 40
0.5
 40
1.0
 40
1.0
 40
1.0
 40
1.0
 10
10.3567
 20
159.99590000000001
 30
0.0
 10
10.171100000000001
 20
159.99590000000001
 30
0.0
 10
9.9930000000000003
 20
159.9222
 30
0.0
 10
9.8618000000000006
 20
159.791
 30
0.0
 10
9.8618000000000006
 20
159.791
 30
0.0
 10
9.730500000000001
 20
159.65970000000002
 30
0.0
 10
9.6567000000000007
 20
159.48170000000002
 30
0.0
 10
9.6567000000000007
 20
159.2961
 30
0.0
  0
SPLINE
  5
11A
100
AcDbEntity
  8
0
370
     5
100
AcDbSpline
210
0.0
220
0.0
230
1.0
 70
     0
 71
     3
 72
    16
 73
    12
 74
     0
 42
0.0000000001
 43
0.0000000001
 40
0.0
 40
0.0
 40
0.0
 40
0.0
 40
0.3333333333333333
 40
0.3333333333333333
 40
0.3333333333333333
 40
0.3333333333333333
 40
0.6666666666666666
 40
0.6666666666666666
 40
0.6666666666666666
 40
0.6666666666666666
 40
1.0
 40
1.0
 40
1.0
 40
1.0
 10
20.156500000000001
 20
159.99590000000001
 30
0.0
 10
20.9068
 20
159.99590000000001
 30
0.0
 10
21.600000000000001
 20
160.39620000000002
 30
0.0
 10
21.975200000000001
 20
161.04580000000001
 30
0.0
 10
21.975200000000001
 20
161.04580000000001
 30
0.0
 10
22.350300000000001
 20
161.69540000000001
 30
0.0
 10
22.350300000000001
 20
162.4958
 30
0.0
 10
21.975200000000001
 20
163.1455
 30
0.0
 10
21.975200000000001
 20
163.1455
 30
0.0
 10
21.600000000000001
 20
163.79510000000002
 30
0.0
 10
20.9068
 20
164.1953
 30
0.0
 10
20.156500000000001
 20
164.1953
 30
0.0
  0
SPLINE
  5
11B
100
AcDbEntity
  8
0
370
     5
100
AcDbSpline
210
0.0
220
0.0
230
1.0
 70
     0
 71
     3
 72
    12
 73
     8
 74
     0
 42
0.0000000001
 43
0.0000000001
 40
0.0
 40
0.0
 40
0.0
 40
0.0
 40
0.5
 40
0.5
 40
0.5
 40
0.5
 40
1.0
 40
1.0
 40
1.0
 40
1.0
 10
9.6567000000000007
 20
164.89520000000002
 30
0.0
 10
9.6567000000000007
 20
164.70959999999999
 30
0.0
 10
9.730500000000001
 20
164.5316
 30
0.0
 10
9.8618000000000006
 20
164.40030000000002
 30
0.0
 10
9.8618000000000006
 20
164.40030000000002
 30
0.0
 10
9.9930000000000003
 20
164.26910000000001
 30
0.0
 10
10.171100000000001
 20
164.1953
 30
0.0
 10
10.3567
 20
164.1953
 30
0.0
  0
SPLINE
  5
11C
100
AcDbEntity
  8
0
370
     5
100
AcDbSpline
210
0.0
220
0.0
230
1.0
 70
     0
 71
     3
 72
    12
 73
     8
 74
     0
 42
0.0000000001
 43
0.0000000001
 40
0.0
 40
0.0
 40
0.0
 40
0.0
 40
0.5
 40
0.5
 40
0.5
 40
0.5
 40
1.0
 40
1.0
 40
1.0
 40
1.0
 10
13.156700000000001
 20
173.29390000000001
 30
0.0
 10
12.228400000000001
 20
173.29390000000001
 30
0.0
 10
11.338200000000001
 20
172.92530000000002
 30
0.0
 10
10.681900000000001
 20
172.26900000000001
 30
0.0
 10
10.681900000000001
 20
172.26900000000001
 30
0.0
 10
10.025500000000001
 20
171.61270000000002
 30
0.0
 10
9.6567000000000007
 20
170.7226
 30
0.0
 10
9.6567000000000007
 20
169.7945
 30
0.0
  0
SPLINE
  5
11D
100
AcDbEntity
  8
0
370
     5
100
AcDbSpline
210
0.0
220
0.0
230
1.0
 70
     0
 71
     3
 72
    12
 73
     8
 74
     0
 42
0.0000000001
 43
0.0000000001
 40
0.0
 40
0.0
 40
0.0
 40
0.0
 40
0.5
 40
0.5
 40
0.5
 40
0.5
 40
1.0
 40
1.0
 40
1.0
 40
1.0
 10
18.0566
 20
173.29390000000001
 30
0.0
 10
19.9131
 20
173.29390000000001
 30
0.0
 10
21.6935
 20
174.03130000000002
 30
0.0
 10
23.0062
 20
175.34390000000002
 30
0.0
 10
23.0062
 20
175.34390000000002
 30
0.0
 10
24.319000000000003
 20
176.65640000000002
 30
0.0
 10
25.0565
 20
178.4367
 30
0.0
 10
25.0565
 20
180.2929
 30
0.0
  0
SPLINE
  5
11E
100
AcDbEntity
  8
0
370
     5
100
AcDbSpline
210
0.0
220
0.0
230
1.0
 70
     0
 71
     3
 72
    12
 73
     8
 74
     0
 42
0.0000000001
 43
0.0000000001
 40
0.0
 40
0.0
 40
0.0
 40
0.0
 40
0.5
 40
0.5
 40
0.5
 40
0.5
 40
1.0
 40
1.0
 40
1.0
 40
1.0
 10
29.956400000000002
 20
199.88990000000001
 30
0.0
 10
28.6568
 20
199.88990000000001
 30
0.0
 10
27.410500000000003
 20
199.37380000000002
 30
0.0
 10
26.491600000000002
 20
198.45500000000001
 30
0.0
 10
26.491600000000002
 20
198.45500000000001
 30
0.0
 10
25.572700000000001
 20
197.53620000000001
 30
0.0
 10
25.0565
 20
196.29000000000002
 30
0.0
 10
25.0565
 20
194.9907
 30
0.0
  0
SPLINE
  5
11F
100
AcDbEntity
  8
0
370
     5
100
AcDbSpline
210
0.0
220
0.0
230
1.0
 70
     0
 71
     3
 72
    12
 73
     8
 74
     0
 42
0.0000000001
 43
0.0000000001
 40
0.0
 40
0.0
 40
0.0
 40
0.0
 40
0.5
 40
0.5
 40
0.5
 40
0.5
 40
1.0
 40
1.0
 40
1.0
 40
1.0
 10
33.456299999999999
 20
199.19
 30
0.0
 10
33.456299999999999
 20
199.37570000000002
 30
0.0
 10
33.3825
 20
199.55370000000002
 30
0.0
 10
33.251300000000001
 20
199.6849
 30
0.0
 10
33.251300000000001
 20
199.6849
 30
0.0
 10
33.120000000000005
 20
199.81620000000001
 30
0.0
 10
32.942
 20
199.88990000000001
 30
0.0
 10
32.756300000000003
 20
199.88990000000001
 30
0.0
  0
SPLINE
  5
120
100
AcDbEntity
  8
0
370
     5
100
AcDbSpline
210
0.0
220
0.0
230
1.0
 70
     0
 71
     3
 72
    16
 73
    12
 74
     0
 42
0.0000000001
 43
0.0000000001
 40
0.0
 40
0.0
 40
0.0
 40
0.0
 40
0.3333333333333333
 40
0.3333333333333333
 40
0.3333333333333333
 40
0.3333333333333333
 40
0.6666666666666666
 40
0.6666666666666666
 40
0.6666666666666666
 40
0.6666666666666666
 40
1.0
 40
1.0
 40
1.0
 40
1.0
 10
33.456299999999999
 20
183.79240000000001
 30
0.0
 10
33.456299999999999
 20
183.04220000000001
 30
0.0
 10
33.856500000000004
 20
182.34910000000002
 30
0.0
 10
34.506300000000003
 20
181.97400000000002
 30
0.0
 10
34.506300000000003
 20
181.97400000000002
 30
0.0
 10
35.155999999999999
 20
181.59890000000001
 30
0.0
 10
35.956499999999998
 20
181.59890000000001
 30
0.0
 10
36.606200000000001
 20
181.97400000000002
 30
0.0
 10
36.606200000000001
 20
181.97400000000002
 30
0.0
 10
37.256
 20
182.34910000000002
 30
0.0
 10
37.656199999999998
 20
183.04220000000001
 30
0.0
 10
37.656199999999998
 20
183.79240000000001
 30
0.0
  0
SPLINE
  5
121
100
AcDbEntity
  8
0
370
     5
100
AcDbSpline
210
0.0
220
0.0
230
1.0
 70
     0
 71
     3
 72
    12
 73
     8
 74
     0
 42
0.0000000001
 43
0.0000000001
 40
0.0
 40
0.0
 40
0.0
 40
0.0
 40
0.5
 40
0.5
 40
0.5
 40
0.5
 40
1.0
 40
1.0
 40
1.0
 40
1.0
 10
52.355900000000005
 20
215.2876
 30
0.0
 10
48.457300000000004
 20
215.2876
 30
0.0
 10
44.718400000000003
 20
213.73910000000001
 30
0.0
 10
41.9617
 20
210.98270000000002
 30
0.0
 10
41.9617
 20
210.98270000000002
 30
0.0
 10
39.204900000000002
 20
208.22640000000001
 30
0.0
 10
37.656199999999998
 20
204.4879
 30
0.0
 10
37.656199999999998
 20
200.5898
 30
0.0
  0
SPLINE
  5
122
100
AcDbEntity
  8
0
370
     5
100
AcDbSpline
210
0.0
220
0.0
230
1.0
 70
     0
 71
     3
 72
    12
 73
     8
 74
     0
 42
0.0000000001
 43
0.0000000001
 40
0.0
 40
0.0
 40
0.0
 40
0.0
 40
0.5
 40
0.5
 40
0.5
 40
0.5
 40
1.0
 40
1.0
 40
1.0
 40
1.0
 10
79.6554
 20
200.5898
 30
0.0
 10
79.6554
 20
204.4879
 30
0.0
 10
78.106700000000004
 20
208.22640000000001
 30
0.0
 10
75.350000000000009
 20
210.98270000000002
 30
0.0
 10
75.350000000000009
 20
210.98270000000002
 30
0.0
 10
72.59320000000001
 20
213.73910000000001
 30
0.0
 10
68.854300000000009
 20
215.2876
 30
0.0
 10
64.955700000000007
 20
215.2876
 30
0.0
  0
SPLINE
  5
123
100
AcDbEntity
  8
0
370
     5
100
AcDbSpline
210
0.0
220
0.0
230
1.0
 70
     0
 71
     3
 72
    16
 73
    12
 74
     0
 42
0.0000000001
 43
0.0000000001
 40
0.0
 40
0.0
 40
0.0
 40
0.0
 40
0.3333333333333333
 40
0.3333333333333333
 40
0.3333333333333333
 40
0.3333333333333333
 40
0.6666666666666666
 40
0.6666666666666666
 40
0.6666666666666666
 40
0.6666666666666666
 40
1.0
 40
1.0
 40
1.0
 40
1.0
 10
79.6554
 20
183.79240000000001
 30
0.0
 10
79.6554
 20
183.04220000000001
 30
0.0
 10
80.055700000000002
 20
182.34910000000002
 30
0.0
 10
80.705399999999997
 20
181.97400000000002
 30
0.0
 10
80.705399999999997
 20
181.97400000000002
 30
0.0
 10
81.355100000000007
 20
181.59890000000001
 30
0.0
 10
82.155600000000007
 20
181.59890000000001
 30
0.0
 10
82.805400000000006
 20
181.97400000000002
 30
0.0
 10
82.805400000000006
 20
181.97400000000002
 30
0.0
 10
83.455100000000002
 20
182.34910000000002
 30
0.0
 10
83.8553
 20
183.04220000000001
 30
0.0
 10
83.8553
 20
183.79240000000001
 30
0.0
  0
SPLINE
  5
124
100
AcDbEntity
  8
0
370
     5
100
AcDbSpline
210
0.0
220
0.0
230
1.0
 70
     0
 71
     3
 72
    12
 73
     8
 74
     0
 42
0.0000000001
 43
0.0000000001
 40
0.0
 40
0.0
 40
0.0
 40
0.0
 40
0.5
 40
0.5
 40
0.5
 40
0.5
 40
1.0
 40
1.0
 40
1.0
 40
1.0
 10
84.555300000000003
 20
199.88990000000001
 30
0.0
 10
84.369700000000009
 20
199.88990000000001
 30
0.0
 10
84.191600000000008
 20
199.81620000000001
 30
0.0
 10
84.060400000000001
 20
199.6849
 30
0.0
 10
84.060400000000001
 20
199.6849
 30
0.0
 10
83.929100000000005
 20
199.55370000000002
 30
0.0
 10
83.8553
 20
199.37570000000002
 30
0.0
 10
83.8553
 20
199.19
 30
0.0
  0
SPLINE
  5
125
100
AcDbEntity
  8
0
370
     5
100
AcDbSpline
210
0.0
220
0.0
230
1.0
 70
     0
 71
     3
 72
    12
 73
     8
 74
     0
 42
0.0000000001
 43
0.0000000001
 40
0.0
 40
0.0
 40
0.0
 40
0.0
 40
0.5
 40
0.5
 40
0.5
 40
0.5
 40
1.0
 40
1.0
 40
1.0
 40
1.0
 10
92.255200000000002
 20
194.9907
 30
0.0
 10
92.255200000000002
 20
196.29000000000002
 30
0.0
 10
91.738900000000001
 20
197.53620000000001
 30
0.0
 10
90.820000000000007
 20
198.45500000000001
 30
0.0
 10
90.820000000000007
 20
198.45500000000001
 30
0.0
 10
89.9011
 20
199.37380000000002
 30
0.0
 10
88.654800000000009
 20
199.88990000000001
 30
0.0
 10
87.3553
 20
199.88990000000001
 30
0.0
  0
SPLINE
  5
126
100
AcDbEntity
  8
0
370
     5
100
AcDbSpline
210
0.0
220
0.0
230
1.0
 70
     0
 71
     3
 72
    12
 73
     8
 74
     0
 42
0.0000000001
 43
0.0000000001
 40
0.0
 40
0.0
 40
0.0
 40
0.0
 40
0.5
 40
0.5
 40
0.5
 40
0.5
 40
1.0
 40
1.0
 40
1.0
 40
1.0
 10
92.255200000000002
 20
180.2929
 30
0.0
 10
92.255200000000002
 20
178.4367
 30
0.0
 10
92.992699999999999
 20
176.65640000000002
 30
0.0
 10
94.305400000000006
 20
175.34390000000002
 30
0.0
 10
94.305400000000006
 20
175.34390000000002
 30
0.0
 10
95.618099999999998
 20
174.03130000000002
 30
0.0
 10
97.398600000000002
 20
173.29390000000001
 30
0.0
 10
99.25500000000001
 20
173.29390000000001
 30
0.0
  0
SPLINE
  5
127
100
AcDbEntity
  8
0
370
     5
100
AcDbSpline
210
0.0
220
0.0
230
1.0
 70
     0
 71
     3
 72
    12
 73
     8
 74
     0
 42
0.0000000001
 43
0.0000000001
 40
0.0
 40
0.0
 40
0.0
 40
0.0
 40
0.5
 40
0.5
 40
0.5
 40
0.5
 40
1.0
 40
1.0
 40
1.0
 40
1.0
 10
107.65490000000001
 20
169.7945
 30
0.0
 10
107.65490000000001
 20
170.7226
 30
0.0
 10
107.2861
 20
171.61270000000002
 30
0.0
 10
106.6298
 20
172.26900000000001
 30
0.0
 10
106.6298
 20
172.26900000000001
 30
0.0
 10
105.9734
 20
172.92530000000002
 30
0.0
 10
105.08320000000001
 20
173.29390000000001
 30
0.0
 10
104.155
 20
173.29390000000001
 30
0.0
  0
SPLINE
  5
128
100
AcDbEntity
  8
0
370
     5
100
AcDbSpline
210
0.0
220
0.0
230
1.0
 70
     0
 71
     3
 72
     8
 73
     4
 74
     0
 42
0.0000000001
 43
0.0000000001
 40
0.0
 40
0.0
 40
0.0
 40
0.0
 40
1.0
 40
1.0
 40
1.0
 40
1.0
 10
-123.4808
 20
198.49020000000002
 30
0.0
 10
-123.4808
 20
198.49020000000002
 30
0.0
 10
-117.32080000000001
 20
196.6704
 30
0.0
 10
-117.32080000000001
 20
196.6704
 30
0.0
  0
SPLINE
  5
129
100
AcDbEntity
  8
0
370
     5
100
AcDbSpline
210
0.0
220
0.0
230
1.0
 70
     0
 71
     3
 72
     8
 73
     4
 74
     0
 42
0.0000000001
 43
0.0000000001
 40
0.0
 40
0.0
 40
0.0
 40
0.0
 40
1.0
 40
1.0
 40
1.0
 40
1.0
 10
-112.001
 20
195.13060000000002
 30
0.0
 10
-112.001
 20
195.13060000000002
 30
0.0
 10
-104.58110000000001
 20
193.03100000000001
 30
0.0
 10
-104.58110000000001
 20
193.03100000000001
 30
0.0
  0
SPLINE
  5
12A
100
AcDbEntity
  8
0
370
     5
100
AcDbSpline
210
0.0
220
0.0
230
1.0
 70
     0
 71
     3
 72
     8
 73
     4
 74
     0
 42
0.0000000001
 43
0.0000000001
 40
0.0
 40
0.0
 40
0.0
 40
0.0
 40
1.0
 40
1.0
 40
1.0
 40
1.0
 10
-77.841500000000011
 20
205.62900000000002
 30
0.0
 10
-77.841500000000011
 20
205.62900000000002
 30
0.0
 10
-70.281700000000001
 20
203.38940000000002
 30
0.0
 10
-70.281700000000001
 20
203.38940000000002
 30
0.0
  0
SPLINE
  5
12B
100
AcDbEntity
  8
0
370
     5
100
AcDbSpline
210
0.0
220
0.0
230
1.0
 70
     0
 71
     3
 72
     8
 73
     4
 74
     0
 42
0.0000000001
 43
0.0000000001
 40
0.0
 40
0.0
 40
0.0
 40
0.0
 40
1.0
 40
1.0
 40
1.0
 40
1.0
 10
-57.402000000000001
 20
199.7499
 30
0.0
 10
-57.402000000000001
 20
199.7499
 30
0.0
 10
-64.821899999999999
 20
201.84970000000001
 30
0.0
 10
-64.821899999999999
 20
201.84970000000001
 30
0.0
  0
SPLINE
  5
12C
100
AcDbEntity
  8
0
370
     5
100
AcDbSpline
210
0.0
220
0.0
230
1.0
 70
     0
 71
     3
 72
     8
 73
     4
 74
     0
 42
0.0000000001
 43
0.0000000001
 40
0.0
 40
0.0
 40
0.0
 40
0.0
 40
1.0
 40
1.0
 40
1.0
 40
1.0
 10
-120.82080000000001
 20
182.39260000000002
 30
0.0
 10
-120.82080000000001
 20
182.39260000000002
 30
0.0
 10
-116.90090000000001
 20
195.8305
 30
0.0
 10
-116.90090000000001
 20
195.8305
 30
0.0
  0
SPLINE
  5
12D
100
AcDbEntity
  8
0
370
     5
100
AcDbSpline
210
0.0
220
0.0
230
1.0
 70
     0
 71
     3
 72
     8
 73
     4
 74
     0
 42
0.0000000001
 43
0.0000000001
 40
0.0
 40
0.0
 40
0.0
 40
0.0
 40
1.0
 40
1.0
 40
1.0
 40
1.0
 10
-61.042000000000002
 20
177.4933
 30
0.0
 10
-61.042000000000002
 20
177.4933
 30
0.0
 10
-55.582000000000001
 20
196.25050000000002
 30
0.0
 10
-55.582000000000001
 20
196.25050000000002
 30
0.0
  0
SPLINE
  5
12E
100
AcDbEntity
  8
0
370
     5
100
AcDbSpline
210
0.0
220
0.0
230
1.0
 70
     0
 71
     3
 72
     8
 73
     4
 74
     0
 42
0.0000000001
 43
0.0000000001
 40
0.0
 40
0.0
 40
0.0
 40
0.0
 40
1.0
 40
1.0
 40
1.0
 40
1.0
 10
-70.421800000000005
 20
185.19220000000001
 30
0.0
 10
-70.421800000000005
 20
185.19220000000001
 30
0.0
 10
-65.661799999999999
 20
201.42960000000002
 30
0.0
 10
-65.661799999999999
 20
201.42960000000002
 30
0.0
  0
SPLINE
  5
12F
100
AcDbEntity
  8
0
370
     5
100
AcDbSpline
210
0.0
220
0.0
230
1.0
 70
     0
 71
     3
 72
     8
 73
     4
 74
     0
 42
0.0000000001
 43
0.0000000001
 40
0.0
 40
0.0
 40
0.0
 40
0.0
 40
1.0
 40
1.0
 40
1.0
 40
1.0
 10
-74.4816
 20
186.452
 30
0.0
 10
-74.4816
 20
186.452
 30
0.0
 10
-69.721800000000002
 20
202.5496
 30
0.0
 10
-69.721800000000002
 20
202.5496
 30
0.0
  0
SPLINE
  5
130
100
AcDbEntity
  8
0
370
     5
100
AcDbSpline
210
0.0
220
0.0
230
1.0
 70
     0
 71
     3
 72
     8
 73
     4
 74
     0
 42
0.0000000001
 43
0.0000000001
 40
0.0
 40
0.0
 40
0.0
 40
0.0
 40
1.0
 40
1.0
 40
1.0
 40
1.0
 10
-116.76090000000001
 20
181.27280000000002
 30
0.0
 10
-116.76090000000001
 20
181.27280000000002
 30
0.0
 10
-112.8409
 20
194.7107
 30
0.0
 10
-112.8409
 20
194.7107
 30
0.0
  0
SPLINE
  5
131
100
AcDbEntity
  8
0
370
     5
100
AcDbSpline
210
0.0
220
0.0
230
1.0
 70
     0
 71
     3
 72
     8
 73
     4
 74
     0
 42
0.0000000001
 43
0.0000000001
 40
0.0
 40
0.0
 40
0.0
 40
0.0
 40
1.0
 40
1.0
 40
1.0
 40
1.0
 10
36.2562
 20
150.8974
 30
0.0
 10
36.2562
 20
150.8974
 30
0.0
 10
13.156700000000001
 20
150.8974
 30
0.0
 10
13.156700000000001
 20
150.8974
 30
0.0
  0
SPLINE
  5
132
100
AcDbEntity
  8
0
370
     5
100
AcDbSpline
210
0.0
220
0.0
230
1.0
 70
     0
 71
     3
 72
     8
 73
     4
 74
     0
 42
0.0000000001
 43
0.0000000001
 40
0.0
 40
0.0
 40
0.0
 40
0.0
 40
1.0
 40
1.0
 40
1.0
 40
1.0
 10
104.155
 20
150.8974
 30
0.0
 10
104.155
 20
150.8974
 30
0.0
 10
81.055400000000006
 20
150.8974
 30
0.0
 10
81.055400000000006
 20
150.8974
 30
0.0
  0
SPLINE
  5
133
100
AcDbEntity
  8
0
370
     5
100
AcDbSpline
210
0.0
220
0.0
230
1.0
 70
     0
 71
     3
 72
     8
 73
     4
 74
     0
 42
0.0000000001
 43
0.0000000001
 40
0.0
 40
0.0
 40
0.0
 40
0.0
 40
1.0
 40
1.0
 40
1.0
 40
1.0
 10
106.95490000000001
 20
159.99600000000001
 30
0.0
 10
106.95490000000001
 20
159.99600000000001
 30
0.0
 10
97.155100000000004
 20
159.99600000000001
 30
0.0
 10
97.155100000000004
 20
159.99600000000001
 30
0.0
  0
SPLINE
  5
134
100
AcDbEntity
  8
0
370
     5
100
AcDbSpline
210
0.0
220
0.0
230
1.0
 70
     0
 71
     3
 72
     8
 73
     4
 74
     0
 42
0.0000000001
 43
0.0000000001
 40
0.0
 40
0.0
 40
0.0
 40
0.0
 40
1.0
 40
1.0
 40
1.0
 40
1.0
 10
106.95490000000001
 20
164.1953
 30
0.0
 10
106.95490000000001
 20
164.1953
 30
0.0
 10
97.155100000000004
 20
164.1953
 30
0.0
 10
97.155100000000004
 20
164.1953
 30
0.0
  0
SPLINE
  5
135
100
AcDbEntity
  8
0
370
     5
100
AcDbSpline
210
0.0
220
0.0
230
1.0
 70
     0
 71
     3
 72
     8
 73
     4
 74
     0
 42
0.0000000001
 43
0.0000000001
 40
0.0
 40
0.0
 40
0.0
 40
0.0
 40
1.0
 40
1.0
 40
1.0
 40
1.0
 10
20.156600000000001
 20
164.1953
 30
0.0
 10
20.156600000000001
 20
164.1953
 30
0.0
 10
10.3568
 20
164.1953
 30
0.0
 10
10.3568
 20
164.1953
 30
0.0
  0
SPLINE
  5
136
100
AcDbEntity
  8
0
370
     5
100
AcDbSpline
210
0.0
220
0.0
230
1.0
 70
     0
 71
     3
 72
     8
 73
     4
 74
     0
 42
0.0000000001
 43
0.0000000001
 40
0.0
 40
0.0
 40
0.0
 40
0.0
 40
1.0
 40
1.0
 40
1.0
 40
1.0
 10
20.156600000000001
 20
159.99600000000001
 30
0.0
 10
20.156600000000001
 20
159.99600000000001
 30
0.0
 10
10.3568
 20
159.99600000000001
 30
0.0
 10
10.3568
 20
159.99600000000001
 30
0.0
  0
SPLINE
  5
137
100
AcDbEntity
  8
0
370
     5
100
AcDbSpline
210
0.0
220
0.0
230
1.0
 70
     0
 71
     3
 72
     8
 73
     4
 74
     0
 42
0.0000000001
 43
0.0000000001
 40
0.0
 40
0.0
 40
0.0
 40
0.0
 40
1.0
 40
1.0
 40
1.0
 40
1.0
 10
52.355900000000005
 20
215.2876
 30
0.0
 10
52.355900000000005
 20
215.2876
 30
0.0
 10
64.955700000000007
 20
215.2876
 30
0.0
 10
64.955700000000007
 20
215.2876
 30
0.0
  0
SPLINE
  5
138
100
AcDbEntity
  8
0
370
     5
100
AcDbSpline
210
0.0
220
0.0
230
1.0
 70
     0
 71
     3
 72
     8
 73
     4
 74
     0
 42
0.0000000001
 43
0.0000000001
 40
0.0
 40
0.0
 40
0.0
 40
0.0
 40
1.0
 40
1.0
 40
1.0
 40
1.0
 10
84.555300000000003
 20
199.88990000000001
 30
0.0
 10
84.555300000000003
 20
199.88990000000001
 30
0.0
 10
87.3553
 20
199.88990000000001
 30
0.0
 10
87.3553
 20
199.88990000000001
 30
0.0
  0
SPLINE
  5
139
100
AcDbEntity
  8
0
370
     5
100
AcDbSpline
210
0.0
220
0.0
230
1.0
 70
     0
 71
     3
 72
     8
 73
     4
 74
     0
 42
0.0000000001
 43
0.0000000001
 40
0.0
 40
0.0
 40
0.0
 40
0.0
 40
1.0
 40
1.0
 40
1.0
 40
1.0
 10
32.756399999999999
 20
199.88990000000001
 30
0.0
 10
32.756399999999999
 20
199.88990000000001
 30
0.0
 10
29.956400000000002
 20
199.88990000000001
 30
0.0
 10
29.956400000000002
 20
199.88990000000001
 30
0.0
  0
SPLINE
  5
13A
100
AcDbEntity
  8
0
370
     5
100
AcDbSpline
210
0.0
220
0.0
230
1.0
 70
     0
 71
     3
 72
     8
 73
     4
 74
     0
 42
0.0000000001
 43
0.0000000001
 40
0.0
 40
0.0
 40
0.0
 40
0.0
 40
1.0
 40
1.0
 40
1.0
 40
1.0
 10
18.0566
 20
173.29400000000001
 30
0.0
 10
18.0566
 20
173.29400000000001
 30
0.0
 10
13.156700000000001
 20
173.29400000000001
 30
0.0
 10
13.156700000000001
 20
173.29400000000001
 30
0.0
  0
SPLINE
  5
13B
100
AcDbEntity
  8
0
370
     5
100
AcDbSpline
210
0.0
220
0.0
230
1.0
 70
     0
 71
     3
 72
     8
 73
     4
 74
     0
 42
0.0000000001
 43
0.0000000001
 40
0.0
 40
0.0
 40
0.0
 40
0.0
 40
1.0
 40
1.0
 40
1.0
 40
1.0
 10
104.155
 20
173.29400000000001
 30
0.0
 10
104.155
 20
173.29400000000001
 30
0.0
 10
99.255099999999999
 20
173.29400000000001
 30
0.0
 10
99.255099999999999
 20
173.29400000000001
 30
0.0
  0
SPLINE
  5
13C
100
AcDbEntity
  8
0
370
     5
100
AcDbSpline
210
0.0
220
0.0
230
1.0
 70
     0
 71
     3
 72
     8
 73
     4
 74
     0
 42
0.0000000001
 43
0.0000000001
 40
0.0
 40
0.0
 40
0.0
 40
0.0
 40
1.0
 40
1.0
 40
1.0
 40
1.0
 10
25.0565
 20
180.2929
 30
0.0
 10
25.0565
 20
180.2929
 30
0.0
 10
25.0565
 20
194.9907
 30
0.0
 10
25.0565
 20
194.9907
 30
0.0
  0
SPLINE
  5
13D
100
AcDbEntity
  8
0
370
     5
100
AcDbSpline
210
0.0
220
0.0
230
1.0
 70
     0
 71
     3
 72
     8
 73
     4
 74
     0
 42
0.0000000001
 43
0.0000000001
 40
0.0
 40
0.0
 40
0.0
 40
0.0
 40
1.0
 40
1.0
 40
1.0
 40
1.0
 10
33.456200000000003
 20
183.79230000000001
 30
0.0
 10
33.456200000000003
 20
183.79230000000001
 30
0.0
 10
33.456200000000003
 20
199.19
 30
0.0
 10
33.456200000000003
 20
199.19
 30
0.0
  0
SPLINE
  5
13E
100
AcDbEntity
  8
0
370
     5
100
AcDbSpline
210
0.0
220
0.0
230
1.0
 70
     0
 71
     3
 72
     8
 73
     4
 74
     0
 42
0.0000000001
 43
0.0000000001
 40
0.0
 40
0.0
 40
0.0
 40
0.0
 40
1.0
 40
1.0
 40
1.0
 40
1.0
 10
37.656199999999998
 20
183.79230000000001
 30
0.0
 10
37.656199999999998
 20
183.79230000000001
 30
0.0
 10
37.656199999999998
 20
200.5898
 30
0.0
 10
37.656199999999998
 20
200.5898
 30
0.0
  0
SPLINE
  5
13F
100
AcDbEntity
  8
0
370
     5
100
AcDbSpline
210
0.0
220
0.0
230
1.0
 70
     0
 71
     3
 72
     8
 73
     4
 74
     0
 42
0.0000000001
 43
0.0000000001
 40
0.0
 40
0.0
 40
0.0
 40
0.0
 40
1.0
 40
1.0
 40
1.0
 40
1.0
 10
56.555800000000005
 20
185.0522
 30
0.0
 10
56.555800000000005
 20
185.0522
 30
0.0
 10
56.555800000000005
 20
192.19110000000001
 30
0.0
 10
56.555800000000005
 20
192.19110000000001
 30
0.0
  0
SPLINE
  5
140
100
AcDbEntity
  8
0
370
     5
100
AcDbSpline
210
0.0
220
0.0
230
1.0
 70
     0
 71
     3
 72
     8
 73
     4
 74
     0
 42
0.0000000001
 43
0.0000000001
 40
0.0
 40
0.0
 40
0.0
 40
0.0
 40
1.0
 40
1.0
 40
1.0
 40
1.0
 10
60.755800000000001
 20
192.19110000000001
 30
0.0
 10
60.755800000000001
 20
192.19110000000001
 30
0.0
 10
60.755800000000001
 20
185.0522
 30
0.0
 10
60.755800000000001
 20
185.0522
 30
0.0
  0
SPLINE
  5
141
100
AcDbEntity
  8
0
370
     5
100
AcDbSpline
210
0.0
220
0.0
230
1.0
 70
     0
 71
     3
 72
     8
 73
     4
 74
     0
 42
0.0000000001
 43
0.0000000001
 40
0.0
 40
0.0
 40
0.0
 40
0.0
 40
1.0
 40
1.0
 40
1.0
 40
1.0
 10
92.255200000000002
 20
194.9907
 30
0.0
 10
92.255200000000002
 20
194.9907
 30
0.0
 10
92.255200000000002
 20
180.2929
 30
0.0
 10
92.255200000000002
 20
180.2929
 30
0.0
  0
SPLINE
  5
142
100
AcDbEntity
  8
0
370
     5
100
AcDbSpline
210
0.0
220
0.0
230
1.0
 70
     0
 71
     3
 72
     8
 73
     4
 74
     0
 42
0.0000000001
 43
0.0000000001
 40
0.0
 40
0.0
 40
0.0
 40
0.0
 40
1.0
 40
1.0
 40
1.0
 40
1.0
 10
83.8553
 20
199.19
 30
0.0
 10
83.8553
 20
199.19
 30
0.0
 10
83.8553
 20
183.79230000000001
 30
0.0
 10
83.8553
 20
183.79230000000001
 30
0.0
  0
SPLINE
  5
143
100
AcDbEntity
  8
0
370
     5
100
AcDbSpline
210
0.0
220
0.0
230
1.0
 70
     0
 71
     3
 72
     8
 73
     4
 74
     0
 42
0.0000000001
 43
0.0000000001
 40
0.0
 40
0.0
 40
0.0
 40
0.0
 40
1.0
 40
1.0
 40
1.0
 40
1.0
 10
79.6554
 20
200.5898
 30
0.0
 10
79.6554
 20
200.5898
 30
0.0
 10
79.6554
 20
183.79230000000001
 30
0.0
 10
79.6554
 20
183.79230000000001
 30
0.0
  0
SPLINE
  5
144
100
AcDbEntity
  8
0
370
     5
100
AcDbSpline
210
0.0
220
0.0
230
1.0
 70
     0
 71
     3
 72
     8
 73
     4
 74
     0
 42
0.0000000001
 43
0.0000000001
 40
0.0
 40
0.0
 40
0.0
 40
0.0
 40
1.0
 40
1.0
 40
1.0
 40
1.0
 10
43.256100000000004
 20
157.89620000000002
 30
0.0
 10
43.256100000000004
 20
157.89620000000002
 30
0.0
 10
43.256100000000004
 20
169.7945
 30
0.0
 10
43.256100000000004
 20
169.7945
 30
0.0
  0
SPLINE
  5
145
100
AcDbEntity
  8
0
370
     5
100
AcDbSpline
210
0.0
220
0.0
230
1.0
 70
     0
 71
     3
 72
     8
 73
     4
 74
     0
 42
0.0000000001
 43
0.0000000001
 40
0.0
 40
0.0
 40
0.0
 40
0.0
 40
1.0
 40
1.0
 40
1.0
 40
1.0
 10
74.055500000000009
 20
157.89620000000002
 30
0.0
 10
74.055500000000009
 20
157.89620000000002
 30
0.0
 10
74.055500000000009
 20
169.8006
 30
0.0
 10
74.055500000000009
 20
169.8006
 30
0.0
  0
SPLINE
  5
146
100
AcDbEntity
  8
0
370
     5
100
AcDbSpline
210
0.0
220
0.0
230
1.0
 70
     0
 71
     3
 72
     8
 73
     4
 74
     0
 42
0.0000000001
 43
0.0000000001
 40
0.0
 40
0.0
 40
0.0
 40
0.0
 40
1.0
 40
1.0
 40
1.0
 40
1.0
 10
107.65490000000001
 20
164.89520000000002
 30
0.0
 10
107.65490000000001
 20
164.89520000000002
 30
0.0
 10
107.65490000000001
 20
169.7945
 30
0.0
 10
107.65490000000001
 20
169.7945
 30
0.0
  0
SPLINE
  5
147
100
AcDbEntity
  8
0
370
     5
100
AcDbSpline
210
0.0
220
0.0
230
1.0
 70
     0
 71
     3
 72
     8
 73
     4
 74
     0
 42
0.0000000001
 43
0.0000000001
 40
0.0
 40
0.0
 40
0.0
 40
0.0
 40
1.0
 40
1.0
 40
1.0
 40
1.0
 10
107.65490000000001
 20
154.39680000000001
 30
0.0
 10
107.65490000000001
 20
154.39680000000001
 30
0.0
 10
107.65490000000001
 20
159.2961
 30
0.0
 10
107.65490000000001
 20
159.2961
 30
0.0
  0
SPLINE
  5
148
100
AcDbEntity
  8
0
370
     5
100
AcDbSpline
210
0.0
220
0.0
230
1.0
 70
     0
 71
     3
 72
     8
 73
     4
 74
     0
 42
0.0000000001
 43
0.0000000001
 40
0.0
 40
0.0
 40
0.0
 40
0.0
 40
1.0
 40
1.0
 40
1.0
 40
1.0
 10
9.6568000000000005
 20
154.39680000000001
 30
0.0
 10
9.6568000000000005
 20
154.39680000000001
 30
0.0
 10
9.6568000000000005
 20
159.2961
 30
0.0
 10
9.6568000000000005
 20
159.2961
 30
0.0
  0
SPLINE
  5
149
100
AcDbEntity
  8
0
370
     5
100
AcDbSpline
210
0.0
220
0.0
230
1.0
 70
     0
 71
     3
 72
     8
 73
     4
 74
     0
 42
0.0000000001
 43
0.0000000001
 40
0.0
 40
0.0
 40
0.0
 40
0.0
 40
1.0
 40
1.0
 40
1.0
 40
1.0
 10
9.6568000000000005
 20
169.7945
 30
0.0
 10
9.6568000000000005
 20
169.7945
 30
0.0
 10
9.6568000000000005
 20
164.89520000000002
 30
0.0
 10
9.6568000000000005
 20
164.89520000000002
 30
0.0
  0
SPLINE
  5
14A
100
AcDbEntity
  8
0
370
     5
100
AcDbSpline
210
0.0
220
0.0
230
1.0
 70
     0
 71
     3
 72
     8
 73
     4
 74
     0
 42
0.0000000001
 43
0.0000000001
 40
0.0
 40
0.0
 40
0.0
 40
0.0
 40
1.0
 40
1.0
 40
1.0
 40
1.0
 10
35.276200000000003
 20
125.5612
 30
0.0
 10
35.276200000000003
 20
125.5612
 30
0.0
 10
-9.5228999999999999
 20
113.10310000000001
 30
0.0
 10
-9.5228999999999999
 20
113.10310000000001
 30
0.0
  0
SPLINE
  5
14B
100
AcDbEntity
  8
0
370
     5
100
AcDbSpline
210
0.0
220
0.0
230
1.0
 70
     0
 71
     3
 72
     8
 73
     4
 74
     0
 42
0.0000000001
 43
0.0000000001
 40
0.0
 40
0.0
 40
0.0
 40
0.0
 40
1.0
 40
1.0
 40
1.0
 40
1.0
 10
35.276200000000003
 20
133.12
 30
0.0
 10
35.276200000000003
 20
133.12
 30
0.0
 10
-9.5228999999999999
 20
145.43810000000002
 30
0.0
 10
-9.5228999999999999
 20
145.43810000000002
 30
0.0
  0
SPLINE
  5
14C
100
AcDbEntity
  8
0
370
     5
100
AcDbSpline
210
0.0
220
0.0
230
1.0
 70
     0
 71
     3
 72
     8
 73
     4
 74
     0
 42
0.0000000001
 43
0.0000000001
 40
0.0
 40
0.0
 40
0.0
 40
0.0
 40
1.0
 40
1.0
 40
1.0
 40
1.0
 10
79.5154
 20
125.5612
 30
0.0
 10
79.5154
 20
125.5612
 30
0.0
 10
124.31460000000001
 20
113.10310000000001
 30
0.0
 10
124.31460000000001
 20
113.10310000000001
 30
0.0
  0
SPLINE
  5
14D
100
AcDbEntity
  8
0
370
     5
100
AcDbSpline
210
0.0
220
0.0
230
1.0
 70
     0
 71
     3
 72
     8
 73
     4
 74
     0
 42
0.0000000001
 43
0.0000000001
 40
0.0
 40
0.0
 40
0.0
 40
0.0
 40
1.0
 40
1.0
 40
1.0
 40
1.0
 10
79.5154
 20
133.12
 30
0.0
 10
79.5154
 20
133.12
 30
0.0
 10
124.31460000000001
 20
145.43810000000002
 30
0.0
 10
124.31460000000001
 20
145.43810000000002
 30
0.0
  0
SPLINE
  5
14E
100
AcDbEntity
  8
0
370
     5
100
AcDbSpline
210
0.0
220
0.0
230
1.0
 70
     0
 71
     3
 72
     8
 73
     4
 74
     0
 42
0.0000000001
 43
0.0000000001
 40
0.0
 40
0.0
 40
0.0
 40
0.0
 40
1.0
 40
1.0
 40
1.0
 40
1.0
 10
71.815600000000003
 20
140.25890000000001
 30
0.0
 10
71.815600000000003
 20
140.25890000000001
 30
0.0
 10
60.335700000000003
 20
129.20050000000001
 30
0.0
 10
60.335700000000003
 20
129.20050000000001
 30
0.0
  0
SPLINE
  5
14F
100
AcDbEntity
  8
0
370
     5
100
AcDbSpline
210
0.0
220
0.0
230
1.0
 70
     0
 71
     3
 72
     8
 73
     4
 74
     0
 42
0.0000000001
 43
0.0000000001
 40
0.0
 40
0.0
 40
0.0
 40
0.0
 40
1.0
 40
1.0
 40
1.0
 40
1.0
 10
57.395900000000005
 20
132.2801
 30
0.0
 10
57.395900000000005
 20
132.2801
 30
0.0
 10
68.875600000000006
 20
143.1985
 30
0.0
 10
68.875600000000006
 20
143.1985
 30
0.0
  0
SPLINE
  5
150
100
AcDbEntity
  8
0
370
     5
100
AcDbSpline
210
0.0
220
0.0
230
1.0
 70
     0
 71
     3
 72
     8
 73
     4
 74
     0
 42
0.0000000001
 43
0.0000000001
 40
0.0
 40
0.0
 40
0.0
 40
0.0
 40
1.0
 40
1.0
 40
1.0
 40
1.0
 10
10.636700000000001
 20
107.2239
 30
0.0
 10
10.636700000000001
 20
107.2239
 30
0.0
 10
126.1345
 20
76.5685
 30
0.0
 10
126.1345
 20
76.5685
 30
0.0
  0
SPLINE
  5
151
100
AcDbEntity
  8
0
370
     5
100
AcDbSpline
210
0.0
220
0.0
230
1.0
 70
     0
 71
     3
 72
     8
 73
     4
 74
     0
 42
0.0000000001
 43
0.0000000001
 40
0.0
 40
0.0
 40
0.0
 40
0.0
 40
1.0
 40
1.0
 40
1.0
 40
1.0
 10
8.6768000000000001
 20
100.36500000000001
 30
0.0
 10
8.6768000000000001
 20
100.36500000000001
 30
0.0
 10
122.63460000000001
 20
64.670299999999997
 30
0.0
 10
122.63460000000001
 20
64.670299999999997
 30
0.0
  0
SPLINE
  5
152
100
AcDbEntity
  8
0
370
     5
100
AcDbSpline
210
0.0
220
0.0
230
1.0
 70
     0
 71
     3
 72
     8
 73
     4
 74
     0
 42
0.0000000001
 43
0.0000000001
 40
0.0
 40
0.0
 40
0.0
 40
0.0
 40
1.0
 40
1.0
 40
1.0
 40
1.0
 10
-37.522400000000005
 20
112.12310000000001
 30
0.0
 10
-37.522400000000005
 20
112.12310000000001
 30
0.0
 10
112.2748
 20
54.591900000000003
 30
0.0
 10
112.2748
 20
54.591900000000003
 30
0.0
  0
SPLINE
  5
153
100
AcDbEntity
  8
0
370
     5
100
AcDbSpline
210
0.0
220
0.0
230
1.0
 70
     0
 71
     3
 72
     8
 73
     4
 74
     0
 42
0.0000000001
 43
0.0000000001
 40
0.0
 40
0.0
 40
0.0
 40
0.0
 40
1.0
 40
1.0
 40
1.0
 40
1.0
 10
108.49480000000001
 20
41.0139
 30
0.0
 10
108.49480000000001
 20
41.0139
 30
0.0
 10
46.336100000000002
 20
64.950299999999999
 30
0.0
 10
46.336100000000002
 20
64.950299999999999
 30
0.0
  0
SPLINE
  5
154
100
AcDbEntity
  8
0
370
     5
100
AcDbSpline
210
0.0
220
0.0
230
1.0
 70
     0
 71
     3
 72
     8
 73
     4
 74
     0
 42
0.0000000001
 43
0.0000000001
 40
0.0
 40
0.0
 40
0.0
 40
0.0
 40
1.0
 40
1.0
 40
1.0
 40
1.0
 10
8.3967000000000009
 20
79.508099999999999
 30
0.0
 10
8.3967000000000009
 20
79.508099999999999
 30
0.0
 10
-35.142400000000002
 20
96.165599999999998
 30
0.0
 10
-35.142400000000002
 20
96.165599999999998
 30
0.0
  0
SPLINE
  5
155
100
AcDbEntity
  8
0
370
     5
100
AcDbSpline
210
0.0
220
0.0
230
1.0
 70
     0
 71
     3
 72
     8
 73
     4
 74
     0
 42
0.0000000001
 43
0.0000000001
 40
0.0
 40
0.0
 40
0.0
 40
0.0
 40
1.0
 40
1.0
 40
1.0
 40
1.0
 10
-74.761600000000001
 20
76.4285
 30
0.0
 10
-74.761600000000001
 20
76.4285
 30
0.0
 10
-30.942500000000003
 20
60.610900000000001
 30
0.0
 10
-30.942500000000003
 20
60.610900000000001
 30
0.0
  0
SPLINE
  5
156
100
AcDbEntity
  8
0
370
     5
100
AcDbSpline
210
0.0
220
0.0
230
1.0
 70
     0
 71
     3
 72
     8
 73
     4
 74
     0
 42
0.0000000001
 43
0.0000000001
 40
0.0
 40
0.0
 40
0.0
 40
0.0
 40
1.0
 40
1.0
 40
1.0
 40
1.0
 10
7.1368
 20
46.753
 30
0.0
 10
7.1368
 20
46.753
 30
0.0
 10
69.85560000000001
 20
24.076500000000003
 30
0.0
 10
69.85560000000001
 20
24.076500000000003
 30
0.0
  0
SPLINE
  5
157
100
AcDbEntity
  8
0
370
     5
100
AcDbSpline
210
0.0
220
0.0
230
1.0
 70
     0
 71
     3
 72
     8
 73
     4
 74
     0
 42
0.0000000001
 43
0.0000000001
 40
0.0
 40
0.0
 40
0.0
 40
0.0
 40
1.0
 40
1.0
 40
1.0
 40
1.0
 10
136.6344
 20
69.149600000000007
 30
0.0
 10
136.6344
 20
69.149600000000007
 30
0.0
 10
143.35429999999999
 20
67.189999999999998
 30
0.0
 10
143.35429999999999
 20
67.189999999999998
 30
0.0
  0
SPLINE
  5
158
100
AcDbEntity
  8
0
370
     5
100
AcDbSpline
210
0.0
220
0.0
230
1.0
 70
     0
 71
     3
 72
     8
 73
     4
 74
     0
 42
0.0000000001
 43
0.0000000001
 40
0.0
 40
0.0
 40
0.0
 40
0.0
 40
1.0
 40
1.0
 40
1.0
 40
1.0
 10
135.51439999999999
 20
65.09020000000001
 30
0.0
 10
135.51439999999999
 20
65.09020000000001
 30
0.0
 10
142.23430000000002
 20
63.130600000000001
 30
0.0
 10
142.23430000000002
 20
63.130600000000001
 30
0.0
  0
SPLINE
  5
159
100
AcDbEntity
  8
0
370
     5
100
AcDbSpline
210
0.0
220
0.0
230
1.0
 70
     0
 71
     3
 72
     8
 73
     4
 74
     0
 42
0.0000000001
 43
0.0000000001
 40
0.0
 40
0.0
 40
0.0
 40
0.0
 40
1.0
 40
1.0
 40
1.0
 40
1.0
 10
157.4939
 20
83.56750000000001
 30
0.0
 10
157.4939
 20
83.56750000000001
 30
0.0
 10
146.29410000000001
 20
86.786900000000003
 30
0.0
 10
146.29410000000001
 20
86.786900000000003
 30
0.0
  0
SPLINE
  5
15A
100
AcDbEntity
  8
0
370
     5
100
AcDbSpline
210
0.0
220
0.0
230
1.0
 70
     0
 71
     3
 72
     8
 73
     4
 74
     0
 42
0.0000000001
 43
0.0000000001
 40
0.0
 40
0.0
 40
0.0
 40
0.0
 40
1.0
 40
1.0
 40
1.0
 40
1.0
 10
155.25390000000002
 20
75.448700000000002
 30
0.0
 10
155.25390000000002
 20
75.448700000000002
 30
0.0
 10
149.79410000000001
 20
76.988399999999999
 30
0.0
 10
149.79410000000001
 20
76.988399999999999
 30
0.0
  0
SPLINE
  5
15B
100
AcDbEntity
  8
0
370
     5
100
AcDbSpline
210
0.0
220
0.0
230
1.0
 70
     0
 71
     3
 72
     8
 73
     4
 74
     0
 42
0.0000000001
 43
0.0000000001
 40
0.0
 40
0.0
 40
0.0
 40
0.0
 40
1.0
 40
1.0
 40
1.0
 40
1.0
 10
147.83420000000001
 20
49.9726
 30
0.0
 10
147.83420000000001
 20
49.9726
 30
0.0
 10
142.3742
 20
51.512300000000003
 30
0.0
 10
142.3742
 20
51.512300000000003
 30
0.0
  0
SPLINE
  5
15C
100
AcDbEntity
  8
0
370
     5
100
AcDbSpline
210
0.0
220
0.0
230
1.0
 70
     0
 71
     3
 72
     8
 73
     4
 74
     0
 42
0.0000000001
 43
0.0000000001
 40
0.0
 40
0.0
 40
0.0
 40
0.0
 40
1.0
 40
1.0
 40
1.0
 40
1.0
 10
145.45410000000001
 20
41.8538
 30
0.0
 10
145.45410000000001
 20
41.8538
 30
0.0
 10
134.2544
 20
45.073300000000003
 30
0.0
 10
134.2544
 20
45.073300000000003
 30
0.0
  0
SPLINE
  5
15D
100
AcDbEntity
  8
0
370
     5
100
AcDbSpline
210
0.0
220
0.0
230
1.0
 70
     0
 71
     3
 72
     8
 73
     4
 74
     0
 42
0.0000000001
 43
0.0000000001
 40
0.0
 40
0.0
 40
0.0
 40
0.0
 40
1.0
 40
1.0
 40
1.0
 40
1.0
 10
142.3742
 20
85.947100000000006
 30
0.0
 10
142.3742
 20
85.947100000000006
 30
0.0
 10
133.83440000000002
 20
78.388300000000001
 30
0.0
 10
133.83440000000002
 20
78.388300000000001
 30
0.0
  0
SPLINE
  5
15E
100
AcDbEntity
  8
0
370
     5
100
AcDbSpline
210
0.0
220
0.0
230
1.0
 70
     0
 71
     3
 72
     8
 73
     4
 74
     0
 42
0.0000000001
 43
0.0000000001
 40
0.0
 40
0.0
 40
0.0
 40
0.0
 40
1.0
 40
1.0
 40
1.0
 40
1.0
 10
128.09450000000001
 20
58.931200000000004
 30
0.0
 10
128.09450000000001
 20
58.931200000000004
 30
0.0
 10
131.4545
 20
48.012800000000006
 30
0.0
 10
131.4545
 20
48.012800000000006
 30
0.0
  0
SPLINE
  5
15F
100
AcDbEntity
  8
0
370
     5
100
AcDbSpline
210
0.0
220
0.0
230
1.0
 70
     0
 71
     3
 72
     8
 73
     4
 74
     0
 42
0.0000000001
 43
0.0000000001
 40
0.0
 40
0.0
 40
0.0
 40
0.0
 40
1.0
 40
1.0
 40
1.0
 40
1.0
 10
140.55430000000001
 20
54.8718
 30
0.0
 10
140.55430000000001
 20
54.8718
 30
0.0
 10
142.65430000000001
 20
62.290700000000001
 30
0.0
 10
142.65430000000001
 20
62.290700000000001
 30
0.0
  0
SPLINE
  5
160
100
AcDbEntity
  8
0
370
     5
100
AcDbSpline
210
0.0
220
0.0
230
1.0
 70
     0
 71
     3
 72
     8
 73
     4
 74
     0
 42
0.0000000001
 43
0.0000000001
 40
0.0
 40
0.0
 40
0.0
 40
0.0
 40
1.0
 40
1.0
 40
1.0
 40
1.0
 10
146.4342
 20
75.168800000000005
 30
0.0
 10
146.4342
 20
75.168800000000005
 30
0.0
 10
144.1942
 20
67.749899999999997
 30
0.0
 10
144.1942
 20
67.749899999999997
 30
0.0
  0
SPLINE
  5
161
100
AcDbEntity
  8
0
370
     5
100
AcDbSpline
210
0.0
220
0.0
230
1.0
 70
     0
 71
     3
 72
     8
 73
     4
 74
     0
 42
0.0000000001
 43
0.0000000001
 40
0.0
 40
0.0
 40
0.0
 40
0.0
 40
1.0
 40
1.0
 40
1.0
 40
1.0
 10
159.4539
 20
80.067999999999998
 30
0.0
 10
159.4539
 20
80.067999999999998
 30
0.0
 10
158.75390000000002
 20
77.4084
 30
0.0
 10
158.75390000000002
 20
77.4084
 30
0.0
  0
SPLINE
  5
162
100
AcDbEntity
  8
0
370
     5
100
AcDbSpline
210
0.0
220
0.0
230
1.0
 70
     0
 71
     3
 72
     8
 73
     4
 74
     0
 42
0.0000000001
 43
0.0000000001
 40
0.0
 40
0.0
 40
0.0
 40
0.0
 40
1.0
 40
1.0
 40
1.0
 40
1.0
 10
149.79410000000001
 20
46.473100000000002
 30
0.0
 10
149.79410000000001
 20
46.473100000000002
 30
0.0
 10
148.95410000000001
 20
43.813400000000001
 30
0.0
 10
148.95410000000001
 20
43.813400000000001
 30
0.0
  0
SPLINE
  5
163
100
AcDbEntity
  8
0
370
     5
100
AcDbSpline
210
0.0
220
0.0
230
1.0
 70
     0
 71
     3
 72
     8
 73
     4
 74
     0
 42
0.0000000001
 43
0.0000000001
 40
0.0
 40
0.0
 40
0.0
 40
0.0
 40
1.0
 40
1.0
 40
1.0
 40
1.0
 10
-41.162300000000002
 20
108.4838
 30
0.0
 10
-41.162300000000002
 20
108.4838
 30
0.0
 10
-37.522400000000005
 20
98.685200000000009
 30
0.0
 10
-37.522400000000005
 20
98.685200000000009
 30
0.0
  0
SPLINE
  5
164
100
AcDbEntity
  8
0
370
     5
100
AcDbSpline
210
0.0
220
0.0
230
1.0
 70
     0
 71
     3
 72
     8
 73
     4
 74
     0
 42
0.0000000001
 43
0.0000000001
 40
0.0
 40
0.0
 40
0.0
 40
0.0
 40
1.0
 40
1.0
 40
1.0
 40
1.0
 10
124.17450000000001
 20
19.3172
 30
0.0
 10
124.17450000000001
 20
19.3172
 30
0.0
 10
125.8546
 20
23.936500000000002
 30
0.0
 10
125.8546
 20
23.936500000000002
 30
0.0
  0
SPLINE
  5
165
100
AcDbEntity
  8
0
370
     5
100
AcDbSpline
210
0.0
220
0.0
230
1.0
 70
     0
 71
     3
 72
     8
 73
     4
 74
     0
 42
0.0000000001
 43
0.0000000001
 40
0.0
 40
0.0
 40
0.0
 40
0.0
 40
1.0
 40
1.0
 40
1.0
 40
1.0
 10
8.3967000000000009
 20
59.911000000000001
 30
0.0
 10
8.3967000000000009
 20
59.911000000000001
 30
0.0
 10
12.456700000000001
 20
70.409500000000008
 30
0.0
 10
12.456700000000001
 20
70.409500000000008
 30
0.0
  0
SPLINE
  5
166
100
AcDbEntity
  8
0
370
     5
100
AcDbSpline
210
0.0
220
0.0
230
1.0
 70
     0
 71
     3
 72
     8
 73
     4
 74
     0
 42
0.0000000001
 43
0.0000000001
 40
0.0
 40
0.0
 40
0.0
 40
0.0
 40
1.0
 40
1.0
 40
1.0
 40
1.0
 10
17.636600000000001
 20
52.632100000000001
 30
0.0
 10
17.636600000000001
 20
52.632100000000001
 30
0.0
 10
21.5566
 20
63.130600000000001
 30
0.0
 10
21.5566
 20
63.130600000000001
 30
0.0
  0
SPLINE
  5
167
100
AcDbEntity
  8
0
370
     5
100
AcDbSpline
210
0.0
220
0.0
230
1.0
 70
     0
 71
     3
 72
     8
 73
     4
 74
     0
 42
0.0000000001
 43
0.0000000001
 40
0.0
 40
0.0
 40
0.0
 40
0.0
 40
1.0
 40
1.0
 40
1.0
 40
1.0
 10
25.476400000000002
 20
61.590800000000002
 30
0.0
 10
25.476400000000002
 20
61.590800000000002
 30
0.0
 10
21.5566
 20
51.232300000000002
 30
0.0
 10
21.5566
 20
51.232300000000002
 30
0.0
  0
SPLINE
  5
168
100
AcDbEntity
  8
0
370
     5
100
AcDbSpline
210
0.0
220
0.0
230
1.0
 70
     0
 71
     3
 72
     8
 73
     4
 74
     0
 42
0.0000000001
 43
0.0000000001
 40
0.0
 40
0.0
 40
0.0
 40
0.0
 40
1.0
 40
1.0
 40
1.0
 40
1.0
 10
33.176300000000005
 20
50.392500000000005
 30
0.0
 10
33.176300000000005
 20
50.392500000000005
 30
0.0
 10
37.2363
 20
60.890900000000002
 30
0.0
 10
37.2363
 20
60.890900000000002
 30
0.0
  0
SPLINE
  5
169
100
AcDbEntity
  8
0
370
     5
100
AcDbSpline
210
0.0
220
0.0
230
1.0
 70
     0
 71
     3
 72
     8
 73
     4
 74
     0
 42
0.0000000001
 43
0.0000000001
 40
0.0
 40
0.0
 40
0.0
 40
0.0
 40
1.0
 40
1.0
 40
1.0
 40
1.0
 10
10.7768
 20
54.591900000000003
 30
0.0
 10
10.7768
 20
54.591900000000003
 30
0.0
 10
16.656600000000001
 20
52.3521
 30
0.0
 10
16.656600000000001
 20
52.3521
 30
0.0
  0
SPLINE
  5
16A
100
AcDbEntity
  8
0
370
     5
100
AcDbSpline
210
0.0
220
0.0
230
1.0
 70
     0
 71
     3
 72
     8
 73
     4
 74
     0
 42
0.0000000001
 43
0.0000000001
 40
0.0
 40
0.0
 40
0.0
 40
0.0
 40
1.0
 40
1.0
 40
1.0
 40
1.0
 10
21.976500000000001
 20
50.252500000000005
 30
0.0
 10
21.976500000000001
 20
50.252500000000005
 30
0.0
 10
27.856400000000001
 20
48.012800000000006
 30
0.0
 10
27.856400000000001
 20
48.012800000000006
 30
0.0
  0
SPLINE
  5
16B
100
AcDbEntity
  8
0
370
     5
100
AcDbSpline
210
0.0
220
0.0
230
1.0
 70
     0
 71
     3
 72
     8
 73
     4
 74
     0
 42
0.0000000001
 43
0.0000000001
 40
0.0
 40
0.0
 40
0.0
 40
0.0
 40
1.0
 40
1.0
 40
1.0
 40
1.0
 10
132.71440000000001
 20
-7.5588000000000006
 30
0.0
 10
132.71440000000001
 20
-7.5588000000000006
 30
0.0
 10
132.71440000000001
 20
-17.077300000000001
 30
0.0
 10
132.71440000000001
 20
-17.077300000000001
 30
0.0
  0
SPLINE
  5
16C
100
AcDbEntity
  8
0
370
     5
100
AcDbSpline
210
0.0
220
0.0
230
1.0
 70
     0
 71
     3
 72
     8
 73
     4
 74
     0
 42
0.0000000001
 43
0.0000000001
 40
0.0
 40
0.0
 40
0.0
 40
0.0
 40
1.0
 40
1.0
 40
1.0
 40
1.0
 10
136.9143
 20
-7.5588000000000006
 30
0.0
 10
136.9143
 20
-7.5588000000000006
 30
0.0
 10
136.9143
 20
-17.077300000000001
 30
0.0
 10
136.9143
 20
-17.077300000000001
 30
0.0
  0
SPLINE
  5
16D
100
AcDbEntity
  8
0
370
     5
100
AcDbSpline
210
0.0
220
0.0
230
1.0
 70
     0
 71
     3
 72
     8
 73
     4
 74
     0
 42
0.0000000001
 43
0.0000000001
 40
0.0
 40
0.0
 40
0.0
 40
0.0
 40
1.0
 40
1.0
 40
1.0
 40
1.0
 10
138.3143
 20
-23.3764
 30
0.0
 10
138.3143
 20
-23.3764
 30
0.0
 10
150.91410000000002
 20
-23.3764
 30
0.0
 10
150.91410000000002
 20
-23.3764
 30
0.0
  0
SPLINE
  5
16E
100
AcDbEntity
  8
0
370
     5
100
AcDbSpline
210
0.0
220
0.0
230
1.0
 70
     0
 71
     3
 72
     8
 73
     4
 74
     0
 42
0.0000000001
 43
0.0000000001
 40
0.0
 40
0.0
 40
0.0
 40
0.0
 40
1.0
 40
1.0
 40
1.0
 40
1.0
 10
150.91410000000002
 20
-27.575700000000001
 30
0.0
 10
150.91410000000002
 20
-27.575700000000001
 30
0.0
 10
138.3143
 20
-27.575700000000001
 30
0.0
 10
138.3143
 20
-27.575700000000001
 30
0.0
  0
SPLINE
  5
16F
100
AcDbEntity
  8
0
370
     5
100
AcDbSpline
210
0.0
220
0.0
230
1.0
 70
     0
 71
     3
 72
     8
 73
     4
 74
     0
 42
0.0000000001
 43
0.0000000001
 40
0.0
 40
0.0
 40
0.0
 40
0.0
 40
1.0
 40
1.0
 40
1.0
 40
1.0
 10
113.95480000000001
 20
-33.174900000000001
 30
0.0
 10
113.95480000000001
 20
-33.174900000000001
 30
0.0
 10
118.85470000000001
 20
-18.057200000000002
 30
0.0
 10
118.85470000000001
 20
-18.057200000000002
 30
0.0
  0
SPLINE
  5
170
100
AcDbEntity
  8
0
370
     5
100
AcDbSpline
210
0.0
220
0.0
230
1.0
 70
     0
 71
     3
 72
     8
 73
     4
 74
     0
 42
0.0000000001
 43
0.0000000001
 40
0.0
 40
0.0
 40
0.0
 40
0.0
 40
1.0
 40
1.0
 40
1.0
 40
1.0
 10
151.61410000000001
 20
-45.773000000000003
 30
0.0
 10
151.61410000000001
 20
-45.773000000000003
 30
0.0
 10
151.61410000000001
 20
-28.275700000000001
 30
0.0
 10
151.61410000000001
 20
-28.275700000000001
 30
0.0
  0
SPLINE
  5
171
100
AcDbEntity
  8
0
370
     5
100
AcDbSpline
210
0.0
220
0.0
230
1.0
 70
     0
 71
     3
 72
     8
 73
     4
 74
     0
 42
0.0000000001
 43
0.0000000001
 40
0.0
 40
0.0
 40
0.0
 40
0.0
 40
1.0
 40
1.0
 40
1.0
 40
1.0
 10
107.51490000000001
 20
-37.374300000000005
 30
0.0
 10
107.51490000000001
 20
-37.374300000000005
 30
0.0
 10
107.98570000000001
 20
-37.374500000000005
 30
0.0
 10
107.98570000000001
 20
-37.374500000000005
 30
0.0
  0
SPLINE
  5
172
100
AcDbEntity
  8
0
370
     5
100
AcDbSpline
210
0.0
220
0.0
230
1.0
 70
     0
 71
     3
 72
     8
 73
     4
 74
     0
 42
0.0000000001
 43
0.0000000001
 40
0.0
 40
0.0
 40
0.0
 40
0.0
 40
1.0
 40
1.0
 40
1.0
 40
1.0
 10
101.215
 20
-43.673300000000005
 30
0.0
 10
101.215
 20
-43.673300000000005
 30
0.0
 10
101.215
 20
-61.870600000000003
 30
0.0
 10
101.215
 20
-61.870600000000003
 30
0.0
  0
SPLINE
  5
173
100
AcDbEntity
  8
0
370
     5
100
AcDbSpline
210
0.0
220
0.0
230
1.0
 70
     0
 71
     3
 72
     8
 73
     4
 74
     0
 42
0.0000000001
 43
0.0000000001
 40
0.0
 40
0.0
 40
0.0
 40
0.0
 40
1.0
 40
1.0
 40
1.0
 40
1.0
 10
101.91500000000001
 20
-66.769900000000007
 30
0.0
 10
101.91500000000001
 20
-66.769900000000007
 30
0.0
 10
117.3147
 20
-66.769900000000007
 30
0.0
 10
117.3147
 20
-66.769900000000007
 30
0.0
  0
SPLINE
  5
174
100
AcDbEntity
  8
0
370
     5
100
AcDbSpline
210
0.0
220
0.0
230
1.0
 70
     0
 71
     3
 72
     8
 73
     4
 74
     0
 42
0.0000000001
 43
0.0000000001
 40
0.0
 40
0.0
 40
0.0
 40
0.0
 40
1.0
 40
1.0
 40
1.0
 40
1.0
 10
130.61440000000002
 20
-71.6691
 30
0.0
 10
130.61440000000002
 20
-71.6691
 30
0.0
 10
130.61440000000002
 20
-60.470800000000004
 30
0.0
 10
130.61440000000002
 20
-60.470800000000004
 30
0.0
  0
SPLINE
  5
175
100
AcDbEntity
  8
0
370
     5
100
AcDbSpline
210
0.0
220
0.0
230
1.0
 70
     0
 71
     3
 72
     8
 73
     4
 74
     0
 42
0.0000000001
 43
0.0000000001
 40
0.0
 40
0.0
 40
0.0
 40
0.0
 40
1.0
 40
1.0
 40
1.0
 40
1.0
 10
139.01430000000002
 20
-52.072000000000003
 30
0.0
 10
139.01430000000002
 20
-52.072000000000003
 30
0.0
 10
145.3142
 20
-52.072000000000003
 30
0.0
 10
145.3142
 20
-52.072000000000003
 30
0.0
  0
SPLINE
  5
176
100
AcDbEntity
  8
0
370
     5
100
AcDbSpline
210
0.0
220
0.0
230
1.0
 70
     0
 71
     3
 72
     8
 73
     4
 74
     0
 42
0.0000000001
 43
0.0000000001
 40
0.0
 40
0.0
 40
0.0
 40
0.0
 40
1.0
 40
1.0
 40
1.0
 40
1.0
 10
117.7347
 20
-62.570500000000003
 30
0.0
 10
117.7347
 20
-62.570500000000003
 30
0.0
 10
101.91500000000001
 20
-62.570500000000003
 30
0.0
 10
101.91500000000001
 20
-62.570500000000003
 30
0.0
  0
SPLINE
  5
177
100
AcDbEntity
  8
0
370
     5
100
AcDbSpline
210
0.0
220
0.0
230
1.0
 70
     0
 71
     3
 72
     8
 73
     4
 74
     0
 42
0.0000000001
 43
0.0000000001
 40
0.0
 40
0.0
 40
0.0
 40
0.0
 40
1.0
 40
1.0
 40
1.0
 40
1.0
 10
107.51490000000001
 20
-77.968100000000007
 30
0.0
 10
107.51490000000001
 20
-77.968100000000007
 30
0.0
 10
124.31460000000001
 20
-77.968100000000007
 30
0.0
 10
124.31460000000001
 20
-77.968100000000007
 30
0.0
  0
SPLINE
  5
178
100
AcDbEntity
  8
0
370
     5
100
AcDbSpline
210
0.0
220
0.0
230
1.0
 70
     0
 71
     3
 72
     8
 73
     4
 74
     0
 42
0.0000000001
 43
0.0000000001
 40
0.0
 40
0.0
 40
0.0
 40
0.0
 40
1.0
 40
1.0
 40
1.0
 40
1.0
 10
-7.5629
 20
-24.2163
 30
0.0
 10
-7.5629
 20
-24.2163
 30
0.0
 10
-9.6629000000000005
 20
-37.794200000000004
 30
0.0
 10
-9.6629000000000005
 20
-37.794200000000004
 30
0.0
  0
SPLINE
  5
179
100
AcDbEntity
  8
0
370
     5
100
AcDbSpline
210
0.0
220
0.0
230
1.0
 70
     0
 71
     3
 72
     8
 73
     4
 74
     0
 42
0.0000000001
 43
0.0000000001
 40
0.0
 40
0.0
 40
0.0
 40
0.0
 40
1.0
 40
1.0
 40
1.0
 40
1.0
 10
2.5169000000000001
 20
-40.313800000000001
 30
0.0
 10
2.5169000000000001
 20
-40.313800000000001
 30
0.0
 10
2.5169000000000001
 20
-31.915200000000002
 30
0.0
 10
2.5169000000000001
 20
-31.915200000000002
 30
0.0
  0
SPLINE
  5
17A
100
AcDbEntity
  8
0
370
     5
100
AcDbSpline
210
0.0
220
0.0
230
1.0
 70
     0
 71
     3
 72
     8
 73
     4
 74
     0
 42
0.0000000001
 43
0.0000000001
 40
0.0
 40
0.0
 40
0.0
 40
0.0
 40
1.0
 40
1.0
 40
1.0
 40
1.0
 10
6.7168000000000001
 20
-31.915200000000002
 30
0.0
 10
6.7168000000000001
 20
-31.915200000000002
 30
0.0
 10
6.7168000000000001
 20
-40.313800000000001
 30
0.0
 10
6.7168000000000001
 20
-40.313800000000001
 30
0.0
  0
SPLINE
  5
17B
100
AcDbEntity
  8
0
370
     5
100
AcDbSpline
210
0.0
220
0.0
230
1.0
 70
     0
 71
     3
 72
     8
 73
     4
 74
     0
 42
0.0000000001
 43
0.0000000001
 40
0.0
 40
0.0
 40
0.0
 40
0.0
 40
1.0
 40
1.0
 40
1.0
 40
1.0
 10
18.756600000000002
 20
-37.794200000000004
 30
0.0
 10
18.756600000000002
 20
-37.794200000000004
 30
0.0
 10
16.656600000000001
 20
-24.2163
 30
0.0
 10
16.656600000000001
 20
-24.2163
 30
0.0
  0
SPLINE
  5
17C
100
AcDbEntity
  8
0
370
     5
100
AcDbSpline
210
0.0
220
0.0
230
1.0
 70
     0
 71
     3
 72
     8
 73
     4
 74
     0
 42
0.0000000001
 43
0.0000000001
 40
0.0
 40
0.0
 40
0.0
 40
0.0
 40
1.0
 40
1.0
 40
1.0
 40
1.0
 10
91.135199999999998
 20
-156.63630000000001
 30
0.0
 10
91.135199999999998
 20
-156.63630000000001
 30
0.0
 10
90.575200000000009
 20
-140.53870000000001
 30
0.0
 10
90.575200000000009
 20
-140.53870000000001
 30
0.0
  0
SPLINE
  5
17D
100
AcDbEntity
  8
0
370
     5
100
AcDbSpline
210
0.0
220
0.0
230
1.0
 70
     0
 71
     3
 72
     8
 73
     4
 74
     0
 42
0.0000000001
 43
0.0000000001
 40
0.0
 40
0.0
 40
0.0
 40
0.0
 40
1.0
 40
1.0
 40
1.0
 40
1.0
 10
133.1344
 20
-155.0966
 30
0.0
 10
133.1344
 20
-155.0966
 30
0.0
 10
132.5744
 20
-138.999
 30
0.0
 10
132.5744
 20
-138.999
 30
0.0
  0
SPLINE
  5
17E
100
AcDbEntity
  8
0
370
     5
100
AcDbSpline
210
0.0
220
0.0
230
1.0
 70
     0
 71
     3
 72
     8
 73
     4
 74
     0
 42
0.0000000001
 43
0.0000000001
 40
0.0
 40
0.0
 40
0.0
 40
0.0
 40
1.0
 40
1.0
 40
1.0
 40
1.0
 10
136.77430000000001
 20
-138.85900000000001
 30
0.0
 10
136.77430000000001
 20
-138.85900000000001
 30
0.0
 10
137.4743
 20
-159.29580000000001
 30
0.0
 10
137.4743
 20
-159.29580000000001
 30
0.0
  0
SPLINE
  5
17F
100
AcDbEntity
  8
0
370
     5
100
AcDbSpline
210
0.0
220
0.0
230
1.0
 70
     0
 71
     3
 72
     8
 73
     4
 74
     0
 42
0.0000000001
 43
0.0000000001
 40
0.0
 40
0.0
 40
0.0
 40
0.0
 40
1.0
 40
1.0
 40
1.0
 40
1.0
 10
148.67410000000001
 20
-118.842
 30
0.0
 10
148.67410000000001
 20
-118.842
 30
0.0
 10
149.654
 20
-144.7381
 30
0.0
 10
149.654
 20
-144.7381
 30
0.0
  0
SPLINE
  5
180
100
AcDbEntity
  8
0
370
     5
100
AcDbSpline
210
0.0
220
0.0
230
1.0
 70
     0
 71
     3
 72
     8
 73
     4
 74
     0
 42
0.0000000001
 43
0.0000000001
 40
0.0
 40
0.0
 40
0.0
 40
0.0
 40
1.0
 40
1.0
 40
1.0
 40
1.0
 10
87.21520000000001
 20
-161.1156
 30
0.0
 10
87.21520000000001
 20
-161.1156
 30
0.0
 10
86.37530000000001
 20
-140.67870000000002
 30
0.0
 10
86.37530000000001
 20
-140.67870000000002
 30
0.0
  0
SPLINE
  5
181
100
AcDbEntity
  8
0
370
     5
100
AcDbSpline
210
0.0
220
0.0
230
1.0
 70
     0
 71
     3
 72
     8
 73
     4
 74
     0
 42
0.0000000001
 43
0.0000000001
 40
0.0
 40
0.0
 40
0.0
 40
0.0
 40
1.0
 40
1.0
 40
1.0
 40
1.0
 10
73.075500000000005
 20
-121.64160000000001
 30
0.0
 10
73.075500000000005
 20
-121.64160000000001
 30
0.0
 10
74.055500000000009
 20
-147.5377
 30
0.0
 10
74.055500000000009
 20
-147.5377
 30
0.0
  0
SPLINE
  5
182
100
AcDbEntity
  8
0
370
     5
100
AcDbSpline
210
0.0
220
0.0
230
1.0
 70
     0
 71
     3
 72
     8
 73
     4
 74
     0
 42
0.0000000001
 43
0.0000000001
 40
0.0
 40
0.0
 40
0.0
 40
0.0
 40
1.0
 40
1.0
 40
1.0
 40
1.0
 10
76.575500000000005
 20
-192.1909
 30
0.0
 10
76.575500000000005
 20
-192.1909
 30
0.0
 10
87.21520000000001
 20
-161.1156
 30
0.0
 10
87.21520000000001
 20
-161.1156
 30
0.0
  0
SPLINE
  5
183
100
AcDbEntity
  8
0
370
     5
100
AcDbSpline
210
0.0
220
0.0
230
1.0
 70
     0
 71
     3
 72
     8
 73
     4
 74
     0
 42
0.0000000001
 43
0.0000000001
 40
0.0
 40
0.0
 40
0.0
 40
0.0
 40
1.0
 40
1.0
 40
1.0
 40
1.0
 10
64.955700000000007
 20
-174.4136
 30
0.0
 10
64.955700000000007
 20
-174.4136
 30
0.0
 10
74.055500000000009
 20
-147.5377
 30
0.0
 10
74.055500000000009
 20
-147.5377
 30
0.0
  0
SPLINE
  5
184
100
AcDbEntity
  8
0
370
     5
100
AcDbSpline
210
0.0
220
0.0
230
1.0
 70
     0
 71
     3
 72
     8
 73
     4
 74
     0
 42
0.0000000001
 43
0.0000000001
 40
0.0
 40
0.0
 40
0.0
 40
0.0
 40
1.0
 40
1.0
 40
1.0
 40
1.0
 10
76.295500000000004
 20
-208.98840000000001
 30
0.0
 10
76.295500000000004
 20
-208.98840000000001
 30
0.0
 10
75.875500000000002
 20
-197.23010000000002
 30
0.0
 10
75.875500000000002
 20
-197.23010000000002
 30
0.0
  0
SPLINE
  5
185
100
AcDbEntity
  8
0
370
     5
100
AcDbSpline
210
0.0
220
0.0
230
1.0
 70
     0
 71
     3
 72
     8
 73
     4
 74
     0
 42
0.0000000001
 43
0.0000000001
 40
0.0
 40
0.0
 40
0.0
 40
0.0
 40
1.0
 40
1.0
 40
1.0
 40
1.0
 10
51.096000000000004
 20
-209.9682
 30
0.0
 10
51.096000000000004
 20
-209.9682
 30
0.0
 10
50.255900000000004
 20
-185.19200000000001
 30
0.0
 10
50.255900000000004
 20
-185.19200000000001
 30
0.0
  0
SPLINE
  5
186
100
AcDbEntity
  8
0
370
     5
100
AcDbSpline
210
0.0
220
0.0
230
1.0
 70
     0
 71
     3
 72
     8
 73
     4
 74
     0
 42
0.0000000001
 43
0.0000000001
 40
0.0
 40
0.0
 40
0.0
 40
0.0
 40
1.0
 40
1.0
 40
1.0
 40
1.0
 10
54.4559
 20
-179.4528
 30
0.0
 10
54.4559
 20
-179.4528
 30
0.0
 10
60.895800000000001
 20
-177.91310000000001
 30
0.0
 10
60.895800000000001
 20
-177.91310000000001
 30
0.0
  0
SPLINE
  5
187
100
AcDbEntity
  8
0
370
     5
100
AcDbSpline
210
0.0
220
0.0
230
1.0
 70
     0
 71
     3
 72
     8
 73
     4
 74
     0
 42
0.0000000001
 43
0.0000000001
 40
0.0
 40
0.0
 40
0.0
 40
0.0
 40
1.0
 40
1.0
 40
1.0
 40
1.0
 10
137.4743
 20
-159.29580000000001
 30
0.0
 10
137.4743
 20
-159.29580000000001
 30
0.0
 10
150.35400000000001
 20
-189.53140000000002
 30
0.0
 10
150.35400000000001
 20
-189.53140000000002
 30
0.0
  0
SPLINE
  5
188
100
AcDbEntity
  8
0
370
     5
100
AcDbSpline
210
0.0
220
0.0
230
1.0
 70
     0
 71
     3
 72
     8
 73
     4
 74
     0
 42
0.0000000001
 43
0.0000000001
 40
0.0
 40
0.0
 40
0.0
 40
0.0
 40
1.0
 40
1.0
 40
1.0
 40
1.0
 10
160.7139
 20
-170.91410000000002
 30
0.0
 10
160.7139
 20
-170.91410000000002
 30
0.0
 10
149.654
 20
-144.7381
 30
0.0
 10
149.654
 20
-144.7381
 30
0.0
  0
SPLINE
  5
189
100
AcDbEntity
  8
0
370
     5
100
AcDbSpline
210
0.0
220
0.0
230
1.0
 70
     0
 71
     3
 72
     8
 73
     4
 74
     0
 42
0.0000000001
 43
0.0000000001
 40
0.0
 40
0.0
 40
0.0
 40
0.0
 40
1.0
 40
1.0
 40
1.0
 40
1.0
 10
171.3536
 20
-175.2535
 30
0.0
 10
171.3536
 20
-175.2535
 30
0.0
 10
164.91380000000001
 20
-174.1337
 30
0.0
 10
164.91380000000001
 20
-174.1337
 30
0.0
  0
SPLINE
  5
18A
100
AcDbEntity
  8
0
370
     5
100
AcDbSpline
210
0.0
220
0.0
230
1.0
 70
     0
 71
     3
 72
     8
 73
     4
 74
     0
 42
0.0000000001
 43
0.0000000001
 40
0.0
 40
0.0
 40
0.0
 40
0.0
 40
1.0
 40
1.0
 40
1.0
 40
1.0
 10
151.47400000000002
 20
-194.4306
 30
0.0
 10
151.47400000000002
 20
-194.4306
 30
0.0
 10
151.89400000000001
 20
-206.3288
 30
0.0
 10
151.89400000000001
 20
-206.3288
 30
0.0
  0
SPLINE
  5
18B
100
AcDbEntity
  8
0
370
     5
100
AcDbSpline
210
0.0
220
0.0
230
1.0
 70
     0
 71
     3
 72
     8
 73
     4
 74
     0
 42
0.0000000001
 43
0.0000000001
 40
0.0
 40
0.0
 40
0.0
 40
0.0
 40
1.0
 40
1.0
 40
1.0
 40
1.0
 10
176.95359999999999
 20
-205.34890000000001
 30
0.0
 10
176.95359999999999
 20
-205.34890000000001
 30
0.0
 10
176.11360000000002
 20
-180.57260000000002
 30
0.0
 10
176.11360000000002
 20
-180.57260000000002
 30
0.0
  0
SPLINE
  5
18C
100
AcDbEntity
  8
0
370
     5
100
AcDbSpline
210
0.0
220
0.0
230
1.0
 70
     0
 71
     3
 72
     8
 73
     4
 74
     0
 42
0.0000000001
 43
0.0000000001
 40
0.0
 40
0.0
 40
0.0
 40
0.0
 40
1.0
 40
1.0
 40
1.0
 40
1.0
 10
166.7337
 20
-210.66820000000001
 30
0.0
 10
166.7337
 20
-210.66820000000001
 30
0.0
 10
166.31380000000001
 20
-199.4699
 30
0.0
 10
166.31380000000001
 20
-199.4699
 30
0.0
  0
SPLINE
  5
18D
100
AcDbEntity
  8
0
370
     5
100
AcDbSpline
210
0.0
220
0.0
230
1.0
 70
     0
 71
     3
 72
     8
 73
     4
 74
     0
 42
0.0000000001
 43
0.0000000001
 40
0.0
 40
0.0
 40
0.0
 40
0.0
 40
1.0
 40
1.0
 40
1.0
 40
1.0
 10
162.53390000000002
 20
-210.8082
 30
0.0
 10
162.53390000000002
 20
-210.8082
 30
0.0
 10
162.1139
 20
-199.60980000000001
 30
0.0
 10
162.1139
 20
-199.60980000000001
 30
0.0
  0
SPLINE
  5
18E
100
AcDbEntity
  8
0
370
     5
100
AcDbSpline
210
0.0
220
0.0
230
1.0
 70
     0
 71
     3
 72
     8
 73
     4
 74
     0
 42
0.0000000001
 43
0.0000000001
 40
0.0
 40
0.0
 40
0.0
 40
0.0
 40
1.0
 40
1.0
 40
1.0
 40
1.0
 10
167.43370000000002
 20
-211.3681
 30
0.0
 10
167.43370000000002
 20
-211.3681
 30
0.0
 10
171.6336
 20
-211.22810000000001
 30
0.0
 10
171.6336
 20
-211.22810000000001
 30
0.0
  0
SPLINE
  5
18F
100
AcDbEntity
  8
0
370
     5
100
AcDbSpline
210
0.0
220
0.0
230
1.0
 70
     0
 71
     3
 72
     8
 73
     4
 74
     0
 42
0.0000000001
 43
0.0000000001
 40
0.0
 40
0.0
 40
0.0
 40
0.0
 40
1.0
 40
1.0
 40
1.0
 40
1.0
 10
161.8339
 20
-211.50800000000001
 30
0.0
 10
161.8339
 20
-211.50800000000001
 30
0.0
 10
157.63400000000001
 20
-211.648
 30
0.0
 10
157.63400000000001
 20
-211.648
 30
0.0
  0
SPLINE
  5
190
100
AcDbEntity
  8
0
370
     5
100
AcDbSpline
210
0.0
220
0.0
230
1.0
 70
     0
 71
     3
 72
     8
 73
     4
 74
     0
 42
0.0000000001
 43
0.0000000001
 40
0.0
 40
0.0
 40
0.0
 40
0.0
 40
1.0
 40
1.0
 40
1.0
 40
1.0
 10
56.835800000000006
 20
-215.28750000000002
 30
0.0
 10
56.835800000000006
 20
-215.28750000000002
 30
0.0
 10
61.035700000000006
 20
-215.14750000000001
 30
0.0
 10
61.035700000000006
 20
-215.14750000000001
 30
0.0
  0
SPLINE
  5
191
100
AcDbEntity
  8
0
370
     5
100
AcDbSpline
210
0.0
220
0.0
230
1.0
 70
     0
 71
     3
 72
     8
 73
     4
 74
     0
 42
0.0000000001
 43
0.0000000001
 40
0.0
 40
0.0
 40
0.0
 40
0.0
 40
1.0
 40
1.0
 40
1.0
 40
1.0
 10
66.635599999999997
 20
-215.00750000000002
 30
0.0
 10
66.635599999999997
 20
-215.00750000000002
 30
0.0
 10
70.83550000000001
 20
-214.86760000000001
 30
0.0
 10
70.83550000000001
 20
-214.86760000000001
 30
0.0
  0
SPLINE
  5
192
100
AcDbEntity
  8
0
370
     5
100
AcDbSpline
210
0.0
220
0.0
230
1.0
 70
     0
 71
     3
 72
     8
 73
     4
 74
     0
 42
0.0000000001
 43
0.0000000001
 40
0.0
 40
0.0
 40
0.0
 40
0.0
 40
1.0
 40
1.0
 40
1.0
 40
1.0
 10
61.735700000000001
 20
-214.44750000000002
 30
0.0
 10
61.735700000000001
 20
-214.44750000000002
 30
0.0
 10
61.315800000000003
 20
-203.24930000000001
 30
0.0
 10
61.315800000000003
 20
-203.24930000000001
 30
0.0
  0
SPLINE
  5
193
100
AcDbEntity
  8
0
370
     5
100
AcDbSpline
210
0.0
220
0.0
230
1.0
 70
     0
 71
     3
 72
     8
 73
     4
 74
     0
 42
0.0000000001
 43
0.0000000001
 40
0.0
 40
0.0
 40
0.0
 40
0.0
 40
1.0
 40
1.0
 40
1.0
 40
1.0
 10
65.51570000000001
 20
-203.10930000000002
 30
0.0
 10
65.51570000000001
 20
-203.10930000000002
 30
0.0
 10
65.935600000000008
 20
-214.30760000000001
 30
0.0
 10
65.935600000000008
 20
-214.30760000000001
 30
0.0
  0
SPLINE
  5
194
100
AcDbEntity
  8
0
370
     5
100
AcDbSpline
210
0.0
220
0.0
230
1.0
 70
     0
 71
     3
 72
     8
 73
     4
 74
     0
 42
0.0000000001
 43
0.0000000001
 40
0.0
 40
0.0
 40
0.0
 40
0.0
 40
1.0
 40
1.0
 40
1.0
 40
1.0
 10
103.03500000000001
 20
-96.025500000000008
 30
0.0
 10
103.03500000000001
 20
-96.025500000000008
 30
0.0
 10
107.23490000000001
 20
-95.885500000000008
 30
0.0
 10
107.23490000000001
 20
-95.885500000000008
 30
0.0
  0
SPLINE
  5
195
100
AcDbEntity
  8
0
370
     5
100
AcDbSpline
210
0.0
220
0.0
230
1.0
 70
     0
 71
     3
 72
     8
 73
     4
 74
     0
 42
0.0000000001
 43
0.0000000001
 40
0.0
 40
0.0
 40
0.0
 40
0.0
 40
1.0
 40
1.0
 40
1.0
 40
1.0
 10
112.8348
 20
-95.60560000000001
 30
0.0
 10
112.8348
 20
-95.60560000000001
 30
0.0
 10
117.0347
 20
-95.465500000000006
 30
0.0
 10
117.0347
 20
-95.465500000000006
 30
0.0
  0
SPLINE
  5
196
100
AcDbEntity
  8
0
370
     5
100
AcDbSpline
210
0.0
220
0.0
230
1.0
 70
     0
 71
     3
 72
     8
 73
     4
 74
     0
 42
0.0000000001
 43
0.0000000001
 40
0.0
 40
0.0
 40
0.0
 40
0.0
 40
1.0
 40
1.0
 40
1.0
 40
1.0
 10
125.8546
 20
-107.78360000000001
 30
0.0
 10
125.8546
 20
-107.78360000000001
 30
0.0
 10
144.05410000000001
 20
-107.08380000000001
 30
0.0
 10
144.05410000000001
 20
-107.08380000000001
 30
0.0
  0
SPLINE
  5
197
100
AcDbEntity
  8
0
370
     5
100
AcDbSpline
210
0.0
220
0.0
230
1.0
 70
     0
 71
     3
 72
     8
 73
     4
 74
     0
 42
0.0000000001
 43
0.0000000001
 40
0.0
 40
0.0
 40
0.0
 40
0.0
 40
1.0
 40
1.0
 40
1.0
 40
1.0
 10
133.83440000000002
 20
-114.5027
 30
0.0
 10
133.83440000000002
 20
-114.5027
 30
0.0
 10
147.83420000000001
 20
-113.94280000000001
 30
0.0
 10
147.83420000000001
 20
-113.94280000000001
 30
0.0
  0
SPLINE
  5
198
100
AcDbEntity
  8
0
370
     5
100
AcDbSpline
210
0.0
220
0.0
230
1.0
 70
     0
 71
     3
 72
     8
 73
     4
 74
     0
 42
0.0000000001
 43
0.0000000001
 40
0.0
 40
0.0
 40
0.0
 40
0.0
 40
1.0
 40
1.0
 40
1.0
 40
1.0
 10
147.97410000000002
 20
-118.1421
 30
0.0
 10
147.97410000000002
 20
-118.1421
 30
0.0
 10
133.9743
 20
-118.70200000000001
 30
0.0
 10
133.9743
 20
-118.70200000000001
 30
0.0
  0
SPLINE
  5
199
100
AcDbEntity
  8
0
370
     5
100
AcDbSpline
210
0.0
220
0.0
230
1.0
 70
     0
 71
     3
 72
     8
 73
     4
 74
     0
 42
0.0000000001
 43
0.0000000001
 40
0.0
 40
0.0
 40
0.0
 40
0.0
 40
1.0
 40
1.0
 40
1.0
 40
1.0
 10
76.855500000000006
 20
-109.60340000000001
 30
0.0
 10
76.855500000000006
 20
-109.60340000000001
 30
0.0
 10
95.05510000000001
 20
-108.90350000000001
 30
0.0
 10
95.05510000000001
 20
-108.90350000000001
 30
0.0
  0
SPLINE
  5
19A
100
AcDbEntity
  8
0
370
     5
100
AcDbSpline
210
0.0
220
0.0
230
1.0
 70
     0
 71
     3
 72
     8
 73
     4
 74
     0
 42
0.0000000001
 43
0.0000000001
 40
0.0
 40
0.0
 40
0.0
 40
0.0
 40
1.0
 40
1.0
 40
1.0
 40
1.0
 10
87.635199999999998
 20
-116.1824
 30
0.0
 10
87.635199999999998
 20
-116.1824
 30
0.0
 10
73.635500000000008
 20
-116.7423
 30
0.0
 10
73.635500000000008
 20
-116.7423
 30
0.0
  0
SPLINE
  5
19B
100
AcDbEntity
  8
0
370
     5
100
AcDbSpline
210
0.0
220
0.0
230
1.0
 70
     0
 71
     3
 72
     8
 73
     4
 74
     0
 42
0.0000000001
 43
0.0000000001
 40
0.0
 40
0.0
 40
0.0
 40
0.0
 40
1.0
 40
1.0
 40
1.0
 40
1.0
 10
73.775500000000008
 20
-120.94160000000001
 30
0.0
 10
73.775500000000008
 20
-120.94160000000001
 30
0.0
 10
87.775300000000001
 20
-120.38170000000001
 30
0.0
 10
87.775300000000001
 20
-120.38170000000001
 30
0.0
  0
SPLINE
  5
19C
100
AcDbEntity
  8
0
370
     5
100
AcDbSpline
210
0.0
220
0.0
230
1.0
 70
     0
 71
     3
 72
     8
 73
     4
 74
     0
 42
0.0000000001
 43
0.0000000001
 40
0.0
 40
0.0
 40
0.0
 40
0.0
 40
1.0
 40
1.0
 40
1.0
 40
1.0
 10
72.935500000000005
 20
-116.0424
 30
0.0
 10
72.935500000000005
 20
-116.0424
 30
0.0
 10
72.795600000000007
 20
-113.94280000000001
 30
0.0
 10
72.795600000000007
 20
-113.94280000000001
 30
0.0
  0
SPLINE
  5
19D
100
AcDbEntity
  8
0
370
     5
100
AcDbSpline
210
0.0
220
0.0
230
1.0
 70
     0
 71
     3
 72
     8
 73
     4
 74
     0
 42
0.0000000001
 43
0.0000000001
 40
0.0
 40
0.0
 40
0.0
 40
0.0
 40
1.0
 40
1.0
 40
1.0
 40
1.0
 10
148.39410000000001
 20
-113.24290000000001
 30
0.0
 10
148.39410000000001
 20
-113.24290000000001
 30
0.0
 10
148.39410000000001
 20
-111.1431
 30
0.0
 10
148.39410000000001
 20
-111.1431
 30
0.0
  0
SPLINE
  5
19E
100
AcDbEntity
  8
0
370
     5
100
AcDbSpline
210
0.0
220
0.0
230
1.0
 70
     0
 71
     3
 72
     8
 73
     4
 74
     0
 42
0.0000000001
 43
0.0000000001
 40
0.0
 40
0.0
 40
0.0
 40
0.0
 40
1.0
 40
1.0
 40
1.0
 40
1.0
 10
121.5146
 20
-103.72420000000001
 30
0.0
 10
121.5146
 20
-103.72420000000001
 30
0.0
 10
121.3747
 20
-99.524900000000002
 30
0.0
 10
121.3747
 20
-99.524900000000002
 30
0.0
  0
SPLINE
  5
19F
100
AcDbEntity
  8
0
370
     5
100
AcDbSpline
210
0.0
220
0.0
230
1.0
 70
     0
 71
     3
 72
     8
 73
     4
 74
     0
 42
0.0000000001
 43
0.0000000001
 40
0.0
 40
0.0
 40
0.0
 40
0.0
 40
1.0
 40
1.0
 40
1.0
 40
1.0
 10
112.4148
 20
-106.10390000000001
 30
0.0
 10
112.4148
 20
-106.10390000000001
 30
0.0
 10
112.1348
 20
-96.305400000000006
 30
0.0
 10
112.1348
 20
-96.305400000000006
 30
0.0
  0
SPLINE
  5
1A0
100
AcDbEntity
  8
0
370
     5
100
AcDbSpline
210
0.0
220
0.0
230
1.0
 70
     0
 71
     3
 72
     8
 73
     4
 74
     0
 42
0.0000000001
 43
0.0000000001
 40
0.0
 40
0.0
 40
0.0
 40
0.0
 40
1.0
 40
1.0
 40
1.0
 40
1.0
 10
108.21480000000001
 20
-106.38390000000001
 30
0.0
 10
108.21480000000001
 20
-106.38390000000001
 30
0.0
 10
107.9349
 20
-96.585400000000007
 30
0.0
 10
107.9349
 20
-96.585400000000007
 30
0.0
  0
SPLINE
  5
1A1
100
AcDbEntity
  8
0
370
     5
100
AcDbSpline
210
0.0
220
0.0
230
1.0
 70
     0
 71
     3
 72
     8
 73
     4
 74
     0
 42
0.0000000001
 43
0.0000000001
 40
0.0
 40
0.0
 40
0.0
 40
0.0
 40
1.0
 40
1.0
 40
1.0
 40
1.0
 10
99.115000000000009
 20
-104.5642
 30
0.0
 10
99.115000000000009
 20
-104.5642
 30
0.0
 10
98.975100000000012
 20
-100.3648
 30
0.0
 10
98.975100000000012
 20
-100.3648
 30
0.0
  0
SPLINE
  5
1A2
100
AcDbEntity
  8
0
370
     5
100
AcDbSpline
210
0.0
220
0.0
230
1.0
 70
     0
 71
     3
 72
     8
 73
     4
 74
     0
 42
0.0000000001
 43
0.0000000001
 40
0.0
 40
0.0
 40
0.0
 40
0.0
 40
1.0
 40
1.0
 40
1.0
 40
1.0
 10
-78.261600000000001
 20
76.148600000000002
 30
0.0
 10
-78.261600000000001
 20
76.148600000000002
 30
0.0
 10
-87.501400000000004
 20
71.109400000000008
 30
0.0
 10
-87.501400000000004
 20
71.109400000000008
 30
0.0
  0
SPLINE
  5
1A3
100
AcDbEntity
  8
0
370
     5
100
AcDbSpline
210
0.0
220
0.0
230
1.0
 70
     0
 71
     3
 72
     8
 73
     4
 74
     0
 42
0.0000000001
 43
0.0000000001
 40
0.0
 40
0.0
 40
0.0
 40
0.0
 40
1.0
 40
1.0
 40
1.0
 40
1.0
 10
-87.081400000000002
 20
66.0702
 30
0.0
 10
-87.081400000000002
 20
66.0702
 30
0.0
 10
63.835700000000003
 20
11.478400000000001
 30
0.0
 10
63.835700000000003
 20
11.478400000000001
 30
0.0
  0
SPLINE
  5
1A4
100
AcDbEntity
  8
0
370
     5
100
AcDbSpline
210
0.0
220
0.0
230
1.0
 70
     0
 71
     3
 72
     8
 73
     4
 74
     0
 42
0.0000000001
 43
0.0000000001
 40
0.0
 40
0.0
 40
0.0
 40
0.0
 40
1.0
 40
1.0
 40
1.0
 40
1.0
 10
94.215100000000007
 20
25.7562
 30
0.0
 10
94.215100000000007
 20
25.7562
 30
0.0
 10
95.895200000000003
 20
30.375500000000002
 30
0.0
 10
95.895200000000003
 20
30.375500000000002
 30
0.0
  0
SPLINE
  5
1A5
100
AcDbEntity
  8
0
370
     5
100
AcDbSpline
210
0.0
220
0.0
230
1.0
 70
     0
 71
     3
 72
     8
 73
     4
 74
     0
 42
0.0000000001
 43
0.0000000001
 40
0.0
 40
0.0
 40
0.0
 40
0.0
 40
1.0
 40
1.0
 40
1.0
 40
1.0
 10
-21.982700000000001
 20
64.810299999999998
 30
0.0
 10
-21.982700000000001
 20
64.810299999999998
 30
0.0
 10
-18.2027
 20
75.308700000000002
 30
0.0
 10
-18.2027
 20
75.308700000000002
 30
0.0
  0
SPLINE
  5
1A6
100
AcDbEntity
  8
0
370
     5
100
AcDbSpline
210
0.0
220
0.0
230
1.0
 70
     0
 71
     3
 72
     8
 73
     4
 74
     0
 42
0.0000000001
 43
0.0000000001
 40
0.0
 40
0.0
 40
0.0
 40
0.0
 40
1.0
 40
1.0
 40
1.0
 40
1.0
 10
-10.222900000000001
 20
64.250399999999999
 30
0.0
 10
-10.222900000000001
 20
64.250399999999999
 30
0.0
 10
-6.4429000000000007
 20
74.888800000000003
 30
0.0
 10
-6.4429000000000007
 20
74.888800000000003
 30
0.0
  0
SPLINE
  5
1A7
100
AcDbEntity
  8
0
370
     5
100
AcDbSpline
210
0.0
220
0.0
230
1.0
 70
     0
 71
     3
 72
     8
 73
     4
 74
     0
 42
0.0000000001
 43
0.0000000001
 40
0.0
 40
0.0
 40
0.0
 40
0.0
 40
1.0
 40
1.0
 40
1.0
 40
1.0
 10
2.9369000000000001
 20
55.7117
 30
0.0
 10
2.9369000000000001
 20
55.7117
 30
0.0
 10
6.8568000000000007
 20
66.350099999999998
 30
0.0
 10
6.8568000000000007
 20
66.350099999999998
 30
0.0
  0
SPLINE
  5
1A8
100
AcDbEntity
  8
0
370
     5
100
AcDbSpline
210
0.0
220
0.0
230
1.0
 70
     0
 71
     3
 72
     8
 73
     4
 74
     0
 42
0.0000000001
 43
0.0000000001
 40
0.0
 40
0.0
 40
0.0
 40
0.0
 40
1.0
 40
1.0
 40
1.0
 40
1.0
 10
-6.3029999999999999
 20
62.8506
 30
0.0
 10
-6.3029999999999999
 20
62.8506
 30
0.0
 10
-2.5230000000000001
 20
73.349000000000004
 30
0.0
 10
-2.5230000000000001
 20
73.349000000000004
 30
0.0
  0
SPLINE
  5
1A9
100
AcDbEntity
  8
0
370
     5
100
AcDbSpline
210
0.0
220
0.0
230
1.0
 70
     0
 71
     3
 72
     8
 73
     4
 74
     0
 42
0.0000000001
 43
0.0000000001
 40
0.0
 40
0.0
 40
0.0
 40
0.0
 40
1.0
 40
1.0
 40
1.0
 40
1.0
 10
-12.882900000000001
 20
77.828299999999999
 30
0.0
 10
-12.882900000000001
 20
77.828299999999999
 30
0.0
 10
-6.8630000000000004
 20
75.728700000000003
 30
0.0
 10
-6.8630000000000004
 20
75.728700000000003
 30
0.0
  0
SPLINE
  5
1AA
100
AcDbEntity
  8
0
370
     5
100
AcDbSpline
210
0.0
220
0.0
230
1.0
 70
     0
 71
     3
 72
     8
 73
     4
 74
     0
 42
0.0000000001
 43
0.0000000001
 40
0.0
 40
0.0
 40
0.0
 40
0.0
 40
1.0
 40
1.0
 40
1.0
 40
1.0
 10
4.3368000000000002
 20
71.669300000000007
 30
0.0
 10
4.3368000000000002
 20
71.669300000000007
 30
0.0
 10
-1.6831
 20
73.768900000000002
 30
0.0
 10
-1.6831
 20
73.768900000000002
 30
0.0
  0
SPLINE
  5
1AB
100
AcDbEntity
  8
0
370
     5
100
AcDbSpline
210
0.0
220
0.0
230
1.0
 70
     0
 71
     3
 72
     8
 73
     4
 74
     0
 42
0.0000000001
 43
0.0000000001
 40
0.0
 40
0.0
 40
0.0
 40
0.0
 40
1.0
 40
1.0
 40
1.0
 40
1.0
 10
1.8169000000000002
 20
-41.013800000000003
 30
0.0
 10
1.8169000000000002
 20
-41.013800000000003
 30
0.0
 10
-6.8629000000000007
 20
-41.013800000000003
 30
0.0
 10
-6.8629000000000007
 20
-41.013800000000003
 30
0.0
  0
SPLINE
  5
1AC
100
AcDbEntity
  8
0
370
     5
100
AcDbSpline
210
0.0
220
0.0
230
1.0
 70
     0
 71
     3
 72
     8
 73
     4
 74
     0
 42
0.0000000001
 43
0.0000000001
 40
0.0
 40
0.0
 40
0.0
 40
0.0
 40
1.0
 40
1.0
 40
1.0
 40
1.0
 10
7.4168000000000003
 20
-41.013800000000003
 30
0.0
 10
7.4168000000000003
 20
-41.013800000000003
 30
0.0
 10
15.956700000000001
 20
-41.013800000000003
 30
0.0
 10
15.956700000000001
 20
-41.013800000000003
 30
0.0
  0
SPLINE
  5
1AD
100
AcDbEntity
  8
0
370
     5
100
AcDbSpline
210
0.0
220
0.0
230
1.0
 70
     0
 71
     3
 72
     8
 73
     4
 74
     0
 42
0.0000000001
 43
0.0000000001
 40
0.0
 40
0.0
 40
0.0
 40
0.0
 40
1.0
 40
1.0
 40
1.0
 40
1.0
 10
101.215
 20
-67.469800000000006
 30
0.0
 10
101.215
 20
-67.469800000000006
 30
0.0
 10
101.215
 20
-71.6691
 30
0.0
 10
101.215
 20
-71.6691
 30
0.0
  0
SPLINE
  5
1AE
100
AcDbEntity
  8
0
370
     5
100
AcDbSpline
210
0.0
220
0.0
230
1.0
 70
     0
 71
     3
 72
     8
 73
     4
 74
     0
 42
0.0000000001
 43
0.0000000001
 40
0.0
 40
0.0
 40
0.0
 40
0.0
 40
1.0
 40
1.0
 40
1.0
 40
1.0
 10
33.456200000000003
 20
-13.157900000000001
 30
0.0
 10
33.456200000000003
 20
-13.157900000000001
 30
0.0
 10
53.055900000000001
 20
-63.830300000000001
 30
0.0
 10
53.055900000000001
 20
-63.830300000000001
 30
0.0
  0
SPLINE
  5
1AF
100
AcDbEntity
  8
0
370
     5
100
AcDbSpline
210
0.0
220
0.0
230
1.0
 70
     0
 71
     3
 72
     8
 73
     4
 74
     0
 42
0.0000000001
 43
0.0000000001
 40
0.0
 40
0.0
 40
0.0
 40
0.0
 40
1.0
 40
1.0
 40
1.0
 40
1.0
 10
45.216100000000004
 20
-24.2163
 30
0.0
 10
45.216100000000004
 20
-24.2163
 30
0.0
 10
50.9559
 20
-39.054000000000002
 30
0.0
 10
50.9559
 20
-39.054000000000002
 30
0.0
  0
SPLINE
  5
1B0
100
AcDbEntity
  8
0
370
     5
100
AcDbSpline
210
0.0
220
0.0
230
1.0
 70
     0
 71
     3
 72
     8
 73
     4
 74
     0
 42
0.0000000001
 43
0.0000000001
 40
0.0
 40
0.0
 40
0.0
 40
0.0
 40
1.0
 40
1.0
 40
1.0
 40
1.0
 10
70.415599999999998
 20
-34.994599999999998
 30
0.0
 10
70.415599999999998
 20
-34.994599999999998
 30
0.0
 10
60.4758
 20
-9.3785000000000007
 30
0.0
 10
60.4758
 20
-9.3785000000000007
 30
0.0
  0
SPLINE
  5
1B1
100
AcDbEntity
  8
0
370
     5
100
AcDbSpline
210
0.0
220
0.0
230
1.0
 70
     0
 71
     3
 72
     8
 73
     4
 74
     0
 42
0.0000000001
 43
0.0000000001
 40
0.0
 40
0.0
 40
0.0
 40
0.0
 40
1.0
 40
1.0
 40
1.0
 40
1.0
 10
66.215699999999998
 20
-4.8992000000000004
 30
0.0
 10
66.215699999999998
 20
-4.8992000000000004
 30
0.0
 10
90.855200000000011
 20
-68.169600000000003
 30
0.0
 10
90.855200000000011
 20
-68.169600000000003
 30
0.0
  0
SPLINE
  5
1B2
100
AcDbEntity
  8
0
370
     5
100
AcDbSpline
210
0.0
220
0.0
230
1.0
 70
     0
 71
     3
 72
     8
 73
     4
 74
     0
 42
0.0000000001
 43
0.0000000001
 40
0.0
 40
0.0
 40
0.0
 40
0.0
 40
1.0
 40
1.0
 40
1.0
 40
1.0
 10
83.995400000000004
 20
-69.849299999999999
 30
0.0
 10
83.995400000000004
 20
-69.849299999999999
 30
0.0
 10
75.1755
 20
-47.032800000000002
 30
0.0
 10
75.1755
 20
-47.032800000000002
 30
0.0
  0
SPLINE
  5
1B3
100
AcDbEntity
  8
0
370
     5
100
AcDbSpline
210
0.0
220
0.0
230
1.0
 70
     0
 71
     3
 72
     8
 73
     4
 74
     0
 42
0.0000000001
 43
0.0000000001
 40
0.0
 40
0.0
 40
0.0
 40
0.0
 40
1.0
 40
1.0
 40
1.0
 40
1.0
 10
68.595600000000005
 20
-84.547200000000004
 30
0.0
 10
68.595600000000005
 20
-84.547200000000004
 30
0.0
 10
55.715900000000005
 20
-51.092200000000005
 30
0.0
 10
55.715900000000005
 20
-51.092200000000005
 30
0.0
  0
SPLINE
  5
1B4
100
AcDbEntity
  8
0
370
     5
100
AcDbSpline
210
0.0
220
0.0
230
1.0
 70
     0
 71
     3
 72
     8
 73
     4
 74
     0
 42
0.0000000001
 43
0.0000000001
 40
0.0
 40
0.0
 40
0.0
 40
0.0
 40
1.0
 40
1.0
 40
1.0
 40
1.0
 10
34.436300000000003
 20
-6.1589
 30
0.0
 10
34.436300000000003
 20
-6.1589
 30
0.0
 10
43.676100000000005
 20
5.3192000000000004
 30
0.0
 10
43.676100000000005
 20
5.3192000000000004
 30
0.0
  0
SPLINE
  5
1B5
100
AcDbEntity
  8
0
370
     5
100
AcDbSpline
210
0.0
220
0.0
230
1.0
 70
     0
 71
     3
 72
     8
 73
     4
 74
     0
 42
0.0000000001
 43
0.0000000001
 40
0.0
 40
0.0
 40
0.0
 40
0.0
 40
1.0
 40
1.0
 40
1.0
 40
1.0
 10
48.295999999999999
 20
-4.6192000000000002
 30
0.0
 10
48.295999999999999
 20
-4.6192000000000002
 30
0.0
 10
55.295900000000003
 20
4.1993999999999998
 30
0.0
 10
55.295900000000003
 20
4.1993999999999998
 30
0.0
  0
SPLINE
  5
1B6
100
AcDbEntity
  8
0
370
     5
100
AcDbSpline
210
0.0
220
0.0
230
1.0
 70
     0
 71
     3
 72
     8
 73
     4
 74
     0
 42
0.0000000001
 43
0.0000000001
 40
0.0
 40
0.0
 40
0.0
 40
0.0
 40
1.0
 40
1.0
 40
1.0
 40
1.0
 10
55.715900000000005
 20
-8.6786000000000012
 30
0.0
 10
55.715900000000005
 20
-8.6786000000000012
 30
0.0
 10
45.636099999999999
 20
-21.416700000000002
 30
0.0
 10
45.636099999999999
 20
-21.416700000000002
 30
0.0
  0
SPLINE
  5
1B7
100
AcDbEntity
  8
0
370
     5
100
AcDbSpline
210
0.0
220
0.0
230
1.0
 70
     0
 71
     3
 72
     8
 73
     4
 74
     0
 42
0.0000000001
 43
0.0000000001
 40
0.0
 40
0.0
 40
0.0
 40
0.0
 40
1.0
 40
1.0
 40
1.0
 40
1.0
 10
54.036000000000001
 20
-40.873800000000003
 30
0.0
 10
54.036000000000001
 20
-40.873800000000003
 30
0.0
 10
68.175600000000003
 20
-38.774100000000004
 30
0.0
 10
68.175600000000003
 20
-38.774100000000004
 30
0.0
  0
SPLINE
  5
1B8
100
AcDbEntity
  8
0
370
     5
100
AcDbSpline
210
0.0
220
0.0
230
1.0
 70
     0
 71
     3
 72
     8
 73
     4
 74
     0
 42
0.0000000001
 43
0.0000000001
 40
0.0
 40
0.0
 40
0.0
 40
0.0
 40
1.0
 40
1.0
 40
1.0
 40
1.0
 10
64.115700000000004
 20
-1.9596
 30
0.0
 10
64.115700000000004
 20
-1.9596
 30
0.0
 10
59.495800000000003
 20
1.6798000000000002
 30
0.0
 10
59.495800000000003
 20
1.6798000000000002
 30
0.0
  0
SPLINE
  5
1B9
100
AcDbEntity
  8
0
370
     5
100
AcDbSpline
210
0.0
220
0.0
230
1.0
 70
     0
 71
     3
 72
     8
 73
     4
 74
     0
 42
0.0000000001
 43
0.0000000001
 40
0.0
 40
0.0
 40
0.0
 40
0.0
 40
1.0
 40
1.0
 40
1.0
 40
1.0
 10
55.155900000000003
 20
5.1793000000000005
 30
0.0
 10
55.155900000000003
 20
5.1793000000000005
 30
0.0
 10
53.475900000000003
 20
6.4392000000000005
 30
0.0
 10
53.475900000000003
 20
6.4392000000000005
 30
0.0
  0
SPLINE
  5
1BA
100
AcDbEntity
  8
0
370
     5
100
AcDbSpline
210
0.0
220
0.0
230
1.0
 70
     0
 71
     3
 72
     8
 73
     4
 74
     0
 42
0.0000000001
 43
0.0000000001
 40
0.0
 40
0.0
 40
0.0
 40
0.0
 40
1.0
 40
1.0
 40
1.0
 40
1.0
 10
51.516000000000005
 20
-7.1389000000000005
 30
0.0
 10
51.516000000000005
 20
-7.1389000000000005
 30
0.0
 10
58.515900000000002
 20
1.5398000000000001
 30
0.0
 10
58.515900000000002
 20
1.5398000000000001
 30
0.0
  0
SPLINE
  5
1BB
100
AcDbEntity
  8
0
370
     5
100
AcDbSpline
210
0.0
220
0.0
230
1.0
 70
     0
 71
     3
 72
     8
 73
     4
 74
     0
 42
0.0000000001
 43
0.0000000001
 40
0.0
 40
0.0
 40
0.0
 40
0.0
 40
1.0
 40
1.0
 40
1.0
 40
1.0
 10
57.955800000000004
 20
-47.312800000000003
 30
0.0
 10
57.955800000000004
 20
-47.312800000000003
 30
0.0
 10
72.095600000000005
 20
-45.353100000000005
 30
0.0
 10
72.095600000000005
 20
-45.353100000000005
 30
0.0
  0
SPLINE
  5
1BC
100
AcDbEntity
  8
0
370
     5
100
AcDbSpline
210
0.0
220
0.0
230
1.0
 70
     0
 71
     3
 72
     8
 73
     4
 74
     0
 42
0.0000000001
 43
0.0000000001
 40
0.0
 40
0.0
 40
0.0
 40
0.0
 40
1.0
 40
1.0
 40
1.0
 40
1.0
 10
73.49560000000001
 20
-85.247100000000003
 30
0.0
 10
73.49560000000001
 20
-85.247100000000003
 30
0.0
 10
83.575400000000002
 20
-72.649000000000001
 30
0.0
 10
83.575400000000002
 20
-72.649000000000001
 30
0.0
  0
SPLINE
  5
1BD
100
AcDbEntity
  8
0
370
     5
100
AcDbSpline
210
0.0
220
0.0
230
1.0
 70
     0
 71
     3
 72
     8
 73
     4
 74
     0
 42
0.0000000001
 43
0.0000000001
 40
0.0
 40
0.0
 40
0.0
 40
0.0
 40
1.0
 40
1.0
 40
1.0
 40
1.0
 10
36.2562
 20
-96.025500000000008
 30
0.0
 10
36.2562
 20
-96.025500000000008
 30
0.0
 10
50.9559
 20
-77.548200000000008
 30
0.0
 10
50.9559
 20
-77.548200000000008
 30
0.0
  0
SPLINE
  5
1BE
100
AcDbEntity
  8
0
370
     5
100
AcDbSpline
210
0.0
220
0.0
230
1.0
 70
     0
 71
     3
 72
     8
 73
     4
 74
     0
 42
0.0000000001
 43
0.0000000001
 40
0.0
 40
0.0
 40
0.0
 40
0.0
 40
1.0
 40
1.0
 40
1.0
 40
1.0
 10
88.755200000000002
 20
-81.887500000000003
 30
0.0
 10
88.755200000000002
 20
-81.887500000000003
 30
0.0
 10
19.596500000000002
 20
-168.67449999999999
 30
0.0
 10
19.596500000000002
 20
-168.67449999999999
 30
0.0
  0
SPLINE
  5
1BF
100
AcDbEntity
  8
0
370
     5
100
AcDbSpline
210
0.0
220
0.0
230
1.0
 70
     0
 71
     3
 72
     8
 73
     4
 74
     0
 42
0.0000000001
 43
0.0000000001
 40
0.0
 40
0.0
 40
0.0
 40
0.0
 40
1.0
 40
1.0
 40
1.0
 40
1.0
 10
34.436300000000003
 20
-97.145300000000006
 30
0.0
 10
34.436300000000003
 20
-97.145300000000006
 30
0.0
 10
28.696400000000001
 20
-97.845200000000006
 30
0.0
 10
28.696400000000001
 20
-97.845200000000006
 30
0.0
  0
SPLINE
  5
1C0
100
AcDbEntity
  8
0
370
     5
100
AcDbSpline
210
0.0
220
0.0
230
1.0
 70
     0
 71
     3
 72
     8
 73
     4
 74
     0
 42
0.0000000001
 43
0.0000000001
 40
0.0
 40
0.0
 40
0.0
 40
0.0
 40
1.0
 40
1.0
 40
1.0
 40
1.0
 10
19.176500000000001
 20
-108.48360000000001
 30
0.0
 10
19.176500000000001
 20
-108.48360000000001
 30
0.0
 10
-4.343
 20
-138.01920000000001
 30
0.0
 10
-4.343
 20
-138.01920000000001
 30
0.0
  0
SPLINE
  5
1C1
100
AcDbEntity
  8
0
370
     5
100
AcDbSpline
210
0.0
220
0.0
230
1.0
 70
     0
 71
     3
 72
     8
 73
     4
 74
     0
 42
0.0000000001
 43
0.0000000001
 40
0.0
 40
0.0
 40
0.0
 40
0.0
 40
1.0
 40
1.0
 40
1.0
 40
1.0
 10
-7.8429000000000002
 20
-142.35850000000002
 30
0.0
 10
-7.8429000000000002
 20
-142.35850000000002
 30
0.0
 10
-12.6028
 20
-148.3776
 30
0.0
 10
-12.6028
 20
-148.3776
 30
0.0
  0
SPLINE
  5
1C2
100
AcDbEntity
  8
0
370
     5
100
AcDbSpline
210
0.0
220
0.0
230
1.0
 70
     0
 71
     3
 72
     8
 73
     4
 74
     0
 42
0.0000000001
 43
0.0000000001
 40
0.0
 40
0.0
 40
0.0
 40
0.0
 40
1.0
 40
1.0
 40
1.0
 40
1.0
 10
26.8764
 20
-98.965000000000003
 30
0.0
 10
26.8764
 20
-98.965000000000003
 30
0.0
 10
22.676500000000001
 20
-104.1443
 30
0.0
 10
22.676500000000001
 20
-104.1443
 30
0.0
  0
SPLINE
  5
1C3
100
AcDbEntity
  8
0
370
     5
100
AcDbSpline
210
0.0
220
0.0
230
1.0
 70
     0
 71
     3
 72
     8
 73
     4
 74
     0
 42
0.0000000001
 43
0.0000000001
 40
0.0
 40
0.0
 40
0.0
 40
0.0
 40
1.0
 40
1.0
 40
1.0
 40
1.0
 10
-12.1829
 20
-152.297
 30
0.0
 10
-12.1829
 20
-152.297
 30
0.0
 10
9.7967000000000013
 20
-169.79430000000002
 30
0.0
 10
9.7967000000000013
 20
-169.79430000000002
 30
0.0
  0
SPLINE
  5
1C4
100
AcDbEntity
  8
0
370
     5
100
AcDbSpline
210
0.0
220
0.0
230
1.0
 70
     0
 71
     3
 72
     8
 73
     4
 74
     0
 42
0.0000000001
 43
0.0000000001
 40
0.0
 40
0.0
 40
0.0
 40
0.0
 40
1.0
 40
1.0
 40
1.0
 40
1.0
 10
5.5968
 20
-146.83780000000002
 30
0.0
 10
5.5968
 20
-146.83780000000002
 30
0.0
 10
-4.2030000000000003
 20
-138.999
 30
0.0
 10
-4.2030000000000003
 20
-138.999
 30
0.0
  0
SPLINE
  5
1C5
100
AcDbEntity
  8
0
370
     5
100
AcDbSpline
210
0.0
220
0.0
230
1.0
 70
     0
 71
     3
 72
     8
 73
     4
 74
     0
 42
0.0000000001
 43
0.0000000001
 40
0.0
 40
0.0
 40
0.0
 40
0.0
 40
1.0
 40
1.0
 40
1.0
 40
1.0
 10
32.756399999999999
 20
-112.9629
 30
0.0
 10
32.756399999999999
 20
-112.9629
 30
0.0
 10
22.816500000000001
 20
-105.1241
 30
0.0
 10
22.816500000000001
 20
-105.1241
 30
0.0
  0
SPLINE
  5
1C6
100
AcDbEntity
  8
0
370
     5
100
AcDbSpline
210
0.0
220
0.0
230
1.0
 70
     0
 71
     3
 72
     8
 73
     4
 74
     0
 42
0.0000000001
 43
0.0000000001
 40
0.0
 40
0.0
 40
0.0
 40
0.0
 40
1.0
 40
1.0
 40
1.0
 40
1.0
 10
3.0769000000000002
 20
-150.19720000000001
 30
0.0
 10
3.0769000000000002
 20
-150.19720000000001
 30
0.0
 10
-6.8630000000000004
 20
-142.35850000000002
 30
0.0
 10
-6.8630000000000004
 20
-142.35850000000002
 30
0.0
  0
SPLINE
  5
1C7
100
AcDbEntity
  8
0
370
     5
100
AcDbSpline
210
0.0
220
0.0
230
1.0
 70
     0
 71
     3
 72
     8
 73
     4
 74
     0
 42
0.0000000001
 43
0.0000000001
 40
0.0
 40
0.0
 40
0.0
 40
0.0
 40
1.0
 40
1.0
 40
1.0
 40
1.0
 10
30.096300000000003
 20
-116.1824
 30
0.0
 10
30.096300000000003
 20
-116.1824
 30
0.0
 10
20.156600000000001
 20
-108.34350000000001
 30
0.0
 10
20.156600000000001
 20
-108.34350000000001
 30
0.0
  0
SPLINE
  5
1C8
100
AcDbEntity
  8
0
370
     5
100
AcDbSpline
210
0.0
220
0.0
230
1.0
 70
     0
 71
     3
 72
     8
 73
     4
 74
     0
 42
0.0000000001
 43
0.0000000001
 40
0.0
 40
0.0
 40
0.0
 40
0.0
 40
1.0
 40
1.0
 40
1.0
 40
1.0
 10
-165.06
 20
-135.49950000000001
 30
0.0
 10
-165.06
 20
-135.49950000000001
 30
0.0
 10
-176.25970000000001
 20
-135.49950000000001
 30
0.0
 10
-176.25970000000001
 20
-135.49950000000001
 30
0.0
  0
SPLINE
  5
1C9
100
AcDbEntity
  8
0
370
     5
100
AcDbSpline
210
0.0
220
0.0
230
1.0
 70
     0
 71
     3
 72
     8
 73
     4
 74
     0
 42
0.0000000001
 43
0.0000000001
 40
0.0
 40
0.0
 40
0.0
 40
0.0
 40
1.0
 40
1.0
 40
1.0
 40
1.0
 10
-166.46000000000001
 20
-143.8982
 30
0.0
 10
-166.46000000000001
 20
-143.8982
 30
0.0
 10
-150.22020000000001
 20
-143.8982
 30
0.0
 10
-150.22020000000001
 20
-143.8982
 30
0.0
  0
SPLINE
  5
1CA
100
AcDbEntity
  8
0
370
     5
100
AcDbSpline
210
0.0
220
0.0
230
1.0
 70
     0
 71
     3
 72
     8
 73
     4
 74
     0
 42
0.0000000001
 43
0.0000000001
 40
0.0
 40
0.0
 40
0.0
 40
0.0
 40
1.0
 40
1.0
 40
1.0
 40
1.0
 10
-150.64020000000002
 20
-172.45400000000001
 30
0.0
 10
-150.64020000000002
 20
-172.45400000000001
 30
0.0
 10
-140.28050000000002
 20
-162.65540000000001
 30
0.0
 10
-140.28050000000002
 20
-162.65540000000001
 30
0.0
  0
SPLINE
  5
1CB
100
AcDbEntity
  8
0
370
     5
100
AcDbSpline
210
0.0
220
0.0
230
1.0
 70
     0
 71
     3
 72
     8
 73
     4
 74
     0
 42
0.0000000001
 43
0.0000000001
 40
0.0
 40
0.0
 40
0.0
 40
0.0
 40
1.0
 40
1.0
 40
1.0
 40
1.0
 10
-155.12010000000001
 20
-125.70100000000001
 30
0.0
 10
-155.12010000000001
 20
-125.70100000000001
 30
0.0
 10
-169.9598
 20
-125.70100000000001
 30
0.0
 10
-169.9598
 20
-125.70100000000001
 30
0.0
  0
SPLINE
  5
1CC
100
AcDbEntity
  8
0
370
     5
100
AcDbSpline
210
0.0
220
0.0
230
1.0
 70
     0
 71
     3
 72
     8
 73
     4
 74
     0
 42
0.0000000001
 43
0.0000000001
 40
0.0
 40
0.0
 40
0.0
 40
0.0
 40
1.0
 40
1.0
 40
1.0
 40
1.0
 10
-165.06
 20
-139.69890000000001
 30
0.0
 10
-165.06
 20
-139.69890000000001
 30
0.0
 10
-176.25970000000001
 20
-139.69890000000001
 30
0.0
 10
-176.25970000000001
 20
-139.69890000000001
 30
0.0
  0
SPLINE
  5
1CD
100
AcDbEntity
  8
0
370
     5
100
AcDbSpline
210
0.0
220
0.0
230
1.0
 70
     0
 71
     3
 72
     8
 73
     4
 74
     0
 42
0.0000000001
 43
0.0000000001
 40
0.0
 40
0.0
 40
0.0
 40
0.0
 40
1.0
 40
1.0
 40
1.0
 40
1.0
 10
-154.98010000000002
 20
-171.89400000000001
 30
0.0
 10
-154.98010000000002
 20
-171.89400000000001
 30
0.0
 10
-168.8399
 20
-148.0976
 30
0.0
 10
-168.8399
 20
-148.0976
 30
0.0
  0
SPLINE
  5
1CE
100
AcDbEntity
  8
0
370
     5
100
AcDbSpline
210
0.0
220
0.0
230
1.0
 70
     0
 71
     3
 72
     8
 73
     4
 74
     0
 42
0.0000000001
 43
0.0000000001
 40
0.0
 40
0.0
 40
0.0
 40
0.0
 40
1.0
 40
1.0
 40
1.0
 40
1.0
 10
-139.72040000000001
 20
-159.1559
 30
0.0
 10
-139.72040000000001
 20
-159.1559
 30
0.0
 10
-147.84030000000001
 20
-145.298
 30
0.0
 10
-147.84030000000001
 20
-145.298
 30
0.0
  0
SPLINE
  5
1CF
100
AcDbEntity
  8
0
370
     5
100
AcDbSpline
210
0.0
220
0.0
230
1.0
 70
     0
 71
     3
 72
     8
 73
     4
 74
     0
 42
0.0000000001
 43
0.0000000001
 40
0.0
 40
0.0
 40
0.0
 40
0.0
 40
1.0
 40
1.0
 40
1.0
 40
1.0
 10
-121.66080000000001
 20
-176.23330000000001
 30
0.0
 10
-121.66080000000001
 20
-176.23330000000001
 30
0.0
 10
-149.1002
 20
-129.2004
 30
0.0
 10
-149.1002
 20
-129.2004
 30
0.0
  0
SPLINE
  5
1D0
100
AcDbEntity
  8
0
370
     5
100
AcDbSpline
210
0.0
220
0.0
230
1.0
 70
     0
 71
     3
 72
     8
 73
     4
 74
     0
 42
0.0000000001
 43
0.0000000001
 40
0.0
 40
0.0
 40
0.0
 40
0.0
 40
1.0
 40
1.0
 40
1.0
 40
1.0
 10
-141.82040000000001
 20
-208.42850000000001
 30
0.0
 10
-141.82040000000001
 20
-208.42850000000001
 30
0.0
 10
-175.97970000000001
 20
-149.7773
 30
0.0
 10
-175.97970000000001
 20
-149.7773
 30
0.0
  0
SPLINE
  5
1D1
100
AcDbEntity
  8
0
370
     5
100
AcDbSpline
210
0.0
220
0.0
230
1.0
 70
     0
 71
     3
 72
     8
 73
     4
 74
     0
 42
0.0000000001
 43
0.0000000001
 40
0.0
 40
0.0
 40
0.0
 40
0.0
 40
1.0
 40
1.0
 40
1.0
 40
1.0
 10
-136.22050000000002
 20
-204.0891
 30
0.0
 10
-136.22050000000002
 20
-204.0891
 30
0.0
 10
-148.5403
 20
-183.09230000000002
 30
0.0
 10
-148.5403
 20
-183.09230000000002
 30
0.0
  0
SPLINE
  5
1D2
100
AcDbEntity
  8
0
370
     5
100
AcDbSpline
210
0.0
220
0.0
230
1.0
 70
     0
 71
     3
 72
     8
 73
     4
 74
     0
 42
0.0000000001
 43
0.0000000001
 40
0.0
 40
0.0
 40
0.0
 40
0.0
 40
1.0
 40
1.0
 40
1.0
 40
1.0
 10
-115.0809
 20
-201.2895
 30
0.0
 10
-115.0809
 20
-201.2895
 30
0.0
 10
-133.28059999999999
 20
-170.35420000000002
 30
0.0
 10
-133.28059999999999
 20
-170.35420000000002
 30
0.0
  0
SPLINE
  5
1D3
100
AcDbEntity
  8
0
370
     5
100
AcDbSpline
210
0.0
220
0.0
230
1.0
 70
     0
 71
     3
 72
     8
 73
     4
 74
     0
 42
0.0000000001
 43
0.0000000001
 40
0.0
 40
0.0
 40
0.0
 40
0.0
 40
1.0
 40
1.0
 40
1.0
 40
1.0
 10
-174.2998
 20
-85.667000000000002
 30
0.0
 10
-174.2998
 20
-85.667000000000002
 30
0.0
 10
-123.6207
 20
-149.91730000000001
 30
0.0
 10
-123.6207
 20
-149.91730000000001
 30
0.0
  0
SPLINE
  5
1D4
100
AcDbEntity
  8
0
370
     5
100
AcDbSpline
210
0.0
220
0.0
230
1.0
 70
     0
 71
     3
 72
     8
 73
     4
 74
     0
 42
0.0000000001
 43
0.0000000001
 40
0.0
 40
0.0
 40
0.0
 40
0.0
 40
1.0
 40
1.0
 40
1.0
 40
1.0
 10
-69.581699999999998
 20
-163.21530000000001
 30
0.0
 10
-69.581699999999998
 20
-163.21530000000001
 30
0.0
 10
-88.481400000000008
 20
-98.685000000000002
 30
0.0
 10
-88.481400000000008
 20
-98.685000000000002
 30
0.0
  0
SPLINE
  5
1D5
100
AcDbEntity
  8
0
370
     5
100
AcDbSpline
210
0.0
220
0.0
230
1.0
 70
     0
 71
     3
 72
     8
 73
     4
 74
     0
 42
0.0000000001
 43
0.0000000001
 40
0.0
 40
0.0
 40
0.0
 40
0.0
 40
1.0
 40
1.0
 40
1.0
 40
1.0
 10
-90.581400000000002
 20
-136.33930000000001
 30
0.0
 10
-90.581400000000002
 20
-136.33930000000001
 30
0.0
 10
-81.061500000000009
 20
-168.67449999999999
 30
0.0
 10
-81.061500000000009
 20
-168.67449999999999
 30
0.0
  0
SPLINE
  5
1D6
100
AcDbEntity
  8
0
370
     5
100
AcDbSpline
210
0.0
220
0.0
230
1.0
 70
     0
 71
     3
 72
     8
 73
     4
 74
     0
 42
0.0000000001
 43
0.0000000001
 40
0.0
 40
0.0
 40
0.0
 40
0.0
 40
1.0
 40
1.0
 40
1.0
 40
1.0
 10
-86.521500000000003
 20
-135.21950000000001
 30
0.0
 10
-86.521500000000003
 20
-135.21950000000001
 30
0.0
 10
-76.721600000000009
 20
-168.53450000000001
 30
0.0
 10
-76.721600000000009
 20
-168.53450000000001
 30
0.0
  0
SPLINE
  5
1D7
100
AcDbEntity
  8
0
370
     5
100
AcDbSpline
210
0.0
220
0.0
230
1.0
 70
     0
 71
     3
 72
     8
 73
     4
 74
     0
 42
0.0000000001
 43
0.0000000001
 40
0.0
 40
0.0
 40
0.0
 40
0.0
 40
1.0
 40
1.0
 40
1.0
 40
1.0
 10
-76.02170000000001
 20
-169.09440000000001
 30
0.0
 10
-76.02170000000001
 20
-169.09440000000001
 30
0.0
 10
-72.801699999999997
 20
-168.53450000000001
 30
0.0
 10
-72.801699999999997
 20
-168.53450000000001
 30
0.0
  0
SPLINE
  5
1D8
100
AcDbEntity
  8
0
370
     5
100
AcDbSpline
210
0.0
220
0.0
230
1.0
 70
     0
 71
     3
 72
     8
 73
     4
 74
     0
 42
0.0000000001
 43
0.0000000001
 40
0.0
 40
0.0
 40
0.0
 40
0.0
 40
1.0
 40
1.0
 40
1.0
 40
1.0
 10
-84.001500000000007
 20
-182.39240000000001
 30
0.0
 10
-84.001500000000007
 20
-182.39240000000001
 30
0.0
 10
-79.801600000000008
 20
-178.333
 30
0.0
 10
-79.801600000000008
 20
-178.333
 30
0.0
  0
SPLINE
  5
1D9
100
AcDbEntity
  8
0
370
     5
100
AcDbSpline
210
0.0
220
0.0
230
1.0
 70
     0
 71
     3
 72
     8
 73
     4
 74
     0
 42
0.0000000001
 43
0.0000000001
 40
0.0
 40
0.0
 40
0.0
 40
0.0
 40
1.0
 40
1.0
 40
1.0
 40
1.0
 10
-70.561700000000002
 20
-178.19310000000002
 30
0.0
 10
-70.561700000000002
 20
-178.19310000000002
 30
0.0
 10
-70.561700000000002
 20
-190.7912
 30
0.0
 10
-70.561700000000002
 20
-190.7912
 30
0.0
  0
SPLINE
  5
1DA
100
AcDbEntity
  8
0
370
     5
100
AcDbSpline
210
0.0
220
0.0
230
1.0
 70
     0
 71
     3
 72
     8
 73
     4
 74
     0
 42
0.0000000001
 43
0.0000000001
 40
0.0
 40
0.0
 40
0.0
 40
0.0
 40
1.0
 40
1.0
 40
1.0
 40
1.0
 10
-66.361800000000002
 20
-190.7912
 30
0.0
 10
-66.361800000000002
 20
-190.7912
 30
0.0
 10
-66.361800000000002
 20
-178.19310000000002
 30
0.0
 10
-66.361800000000002
 20
-178.19310000000002
 30
0.0
  0
SPLINE
  5
1DB
100
AcDbEntity
  8
0
370
     5
100
AcDbSpline
210
0.0
220
0.0
230
1.0
 70
     0
 71
     3
 72
     8
 73
     4
 74
     0
 42
0.0000000001
 43
0.0000000001
 40
0.0
 40
0.0
 40
0.0
 40
0.0
 40
1.0
 40
1.0
 40
1.0
 40
1.0
 10
-27.162600000000001
 20
-190.7912
 30
0.0
 10
-27.162600000000001
 20
-190.7912
 30
0.0
 10
-27.162600000000001
 20
-178.19310000000002
 30
0.0
 10
-27.162600000000001
 20
-178.19310000000002
 30
0.0
  0
SPLINE
  5
1DC
100
AcDbEntity
  8
0
370
     5
100
AcDbSpline
210
0.0
220
0.0
230
1.0
 70
     0
 71
     3
 72
     8
 73
     4
 74
     0
 42
0.0000000001
 43
0.0000000001
 40
0.0
 40
0.0
 40
0.0
 40
0.0
 40
1.0
 40
1.0
 40
1.0
 40
1.0
 10
-22.962700000000002
 20
-190.7912
 30
0.0
 10
-22.962700000000002
 20
-190.7912
 30
0.0
 10
-22.962700000000002
 20
-178.19310000000002
 30
0.0
 10
-22.962700000000002
 20
-178.19310000000002
 30
0.0
  0
SPLINE
  5
1DD
100
AcDbEntity
  8
0
370
     5
100
AcDbSpline
210
0.0
220
0.0
230
1.0
 70
     0
 71
     3
 72
     8
 73
     4
 74
     0
 42
0.0000000001
 43
0.0000000001
 40
0.0
 40
0.0
 40
0.0
 40
0.0
 40
1.0
 40
1.0
 40
1.0
 40
1.0
 10
-27.8626
 20
-177.4932
 30
0.0
 10
-27.8626
 20
-177.4932
 30
0.0
 10
-65.661799999999999
 20
-177.4932
 30
0.0
 10
-65.661799999999999
 20
-177.4932
 30
0.0
  0
SPLINE
  5
1DE
100
AcDbEntity
  8
0
370
     5
100
AcDbSpline
210
0.0
220
0.0
230
1.0
 70
     0
 71
     3
 72
     8
 73
     4
 74
     0
 42
0.0000000001
 43
0.0000000001
 40
0.0
 40
0.0
 40
0.0
 40
0.0
 40
1.0
 40
1.0
 40
1.0
 40
1.0
 10
-71.261700000000005
 20
-177.4932
 30
0.0
 10
-71.261700000000005
 20
-177.4932
 30
0.0
 10
-77.841500000000011
 20
-177.4932
 30
0.0
 10
-77.841500000000011
 20
-177.4932
 30
0.0
  0
SPLINE
  5
1DF
100
AcDbEntity
  8
0
370
     5
100
AcDbSpline
210
0.0
220
0.0
230
1.0
 70
     0
 71
     3
 72
     8
 73
     4
 74
     0
 42
0.0000000001
 43
0.0000000001
 40
0.0
 40
0.0
 40
0.0
 40
0.0
 40
1.0
 40
1.0
 40
1.0
 40
1.0
 10
-129.78059999999999
 20
-215.28750000000002
 30
0.0
 10
-129.78059999999999
 20
-215.28750000000002
 30
0.0
 10
-18.762700000000002
 20
-215.28750000000002
 30
0.0
 10
-18.762700000000002
 20
-215.28750000000002
 30
0.0
  0
SPLINE
  5
1E0
100
AcDbEntity
  8
0
370
     5
100
AcDbSpline
210
0.0
220
0.0
230
1.0
 70
     0
 71
     3
 72
     8
 73
     4
 74
     0
 42
0.0000000001
 43
0.0000000001
 40
0.0
 40
0.0
 40
0.0
 40
0.0
 40
1.0
 40
1.0
 40
1.0
 40
1.0
 10
-109.62100000000001
 20
-183.09230000000002
 30
0.0
 10
-109.62100000000001
 20
-183.09230000000002
 30
0.0
 10
-85.961399999999998
 20
-183.09230000000002
 30
0.0
 10
-85.961399999999998
 20
-183.09230000000002
 30
0.0
  0
SPLINE
  5
1E1
100
AcDbEntity
  8
0
370
     5
100
AcDbSpline
210
0.0
220
0.0
230
1.0
 70
     0
 71
     3
 72
     8
 73
     4
 74
     0
 42
0.0000000001
 43
0.0000000001
 40
0.0
 40
0.0
 40
0.0
 40
0.0
 40
1.0
 40
1.0
 40
1.0
 40
1.0
 10
-117.60090000000001
 20
-205.4889
 30
0.0
 10
-117.60090000000001
 20
-205.4889
 30
0.0
 10
-133.84050000000002
 20
-205.4889
 30
0.0
 10
-133.84050000000002
 20
-205.4889
 30
0.0
  0
SPLINE
  5
1E2
100
AcDbEntity
  8
0
370
     5
100
AcDbSpline
210
0.0
220
0.0
230
1.0
 70
     0
 71
     3
 72
     8
 73
     4
 74
     0
 42
0.0000000001
 43
0.0000000001
 40
0.0
 40
0.0
 40
0.0
 40
0.0
 40
1.0
 40
1.0
 40
1.0
 40
1.0
 10
-137.62040000000002
 20
-169.65430000000001
 30
0.0
 10
-137.62040000000002
 20
-169.65430000000001
 30
0.0
 10
-147.9802
 20
-179.59280000000001
 30
0.0
 10
-147.9802
 20
-179.59280000000001
 30
0.0
  0
SPLINE
  5
1E3
100
AcDbEntity
  8
0
370
     5
100
AcDbSpline
210
0.0
220
0.0
230
1.0
 70
     0
 71
     3
 72
     8
 73
     4
 74
     0
 42
0.0000000001
 43
0.0000000001
 40
0.0
 40
0.0
 40
0.0
 40
0.0
 40
1.0
 40
1.0
 40
1.0
 40
1.0
 10
-11.7629
 20
-208.2885
 30
0.0
 10
-11.7629
 20
-208.2885
 30
0.0
 10
-11.7629
 20
-180.2927
 30
0.0
 10
-11.7629
 20
-180.2927
 30
0.0
  0
SPLINE
  5
1E4
100
AcDbEntity
  8
0
370
     5
100
AcDbSpline
210
0.0
220
0.0
230
1.0
 70
     0
 71
     3
 72
     8
 73
     4
 74
     0
 42
0.0000000001
 43
0.0000000001
 40
0.0
 40
0.0
 40
0.0
 40
0.0
 40
1.0
 40
1.0
 40
1.0
 40
1.0
 10
-22.262700000000002
 20
-177.4932
 30
0.0
 10
-22.262700000000002
 20
-177.4932
 30
0.0
 10
-14.562800000000001
 20
-177.4932
 30
0.0
 10
-14.562800000000001
 20
-177.4932
 30
0.0
  0
SPLINE
  5
1E5
100
AcDbEntity
  8
0
370
     5
100
AcDbSpline
210
0.0
220
0.0
230
1.0
 70
     0
 71
     3
 72
     8
 73
     4
 74
     0
 42
0.0000000001
 43
0.0000000001
 40
0.0
 40
0.0
 40
0.0
 40
0.0
 40
1.0
 40
1.0
 40
1.0
 40
1.0
 10
-59.361900000000006
 20
-97.705200000000005
 30
0.0
 10
-59.361900000000006
 20
-97.705200000000005
 30
0.0
 10
-71.681700000000006
 20
-85.667000000000002
 30
0.0
 10
-71.681700000000006
 20
-85.667000000000002
 30
0.0
  0
SPLINE
  5
1E6
100
AcDbEntity
  8
0
370
     5
100
AcDbSpline
210
0.0
220
0.0
230
1.0
 70
     0
 71
     3
 72
     8
 73
     4
 74
     0
 42
0.0000000001
 43
0.0000000001
 40
0.0
 40
0.0
 40
0.0
 40
0.0
 40
1.0
 40
1.0
 40
1.0
 40
1.0
 10
-31.922500000000003
 20
-97.285300000000007
 30
0.0
 10
-31.922500000000003
 20
-97.285300000000007
 30
0.0
 10
-16.942700000000002
 20
-111.983
 30
0.0
 10
-16.942700000000002
 20
-111.983
 30
0.0
  0
SPLINE
  5
1E7
100
AcDbEntity
  8
0
370
     5
100
AcDbSpline
210
0.0
220
0.0
230
1.0
 70
     0
 71
     3
 72
     8
 73
     4
 74
     0
 42
0.0000000001
 43
0.0000000001
 40
0.0
 40
0.0
 40
0.0
 40
0.0
 40
1.0
 40
1.0
 40
1.0
 40
1.0
 10
-62.301900000000003
 20
-100.6448
 30
0.0
 10
-62.301900000000003
 20
-100.6448
 30
0.0
 10
-71.821700000000007
 20
-91.406199999999998
 30
0.0
 10
-71.821700000000007
 20
-91.406199999999998
 30
0.0
  0
SPLINE
  5
1E8
100
AcDbEntity
  8
0
370
     5
100
AcDbSpline
210
0.0
220
0.0
230
1.0
 70
     0
 71
     3
 72
     8
 73
     4
 74
     0
 42
0.0000000001
 43
0.0000000001
 40
0.0
 40
0.0
 40
0.0
 40
0.0
 40
1.0
 40
1.0
 40
1.0
 40
1.0
 10
-64.121899999999997
 20
-157.1962
 30
0.0
 10
-64.121899999999997
 20
-157.1962
 30
0.0
 10
-72.66170000000001
 20
-101.3447
 30
0.0
 10
-72.66170000000001
 20
-101.3447
 30
0.0
  0
SPLINE
  5
1E9
100
AcDbEntity
  8
0
370
     5
100
AcDbSpline
210
0.0
220
0.0
230
1.0
 70
     0
 71
     3
 72
     8
 73
     4
 74
     0
 42
0.0000000001
 43
0.0000000001
 40
0.0
 40
0.0
 40
0.0
 40
0.0
 40
1.0
 40
1.0
 40
1.0
 40
1.0
 10
-14.002800000000001
 20
-109.04350000000001
 30
0.0
 10
-14.002800000000001
 20
-109.04350000000001
 30
0.0
 10
-28.982600000000001
 20
-94.205700000000007
 30
0.0
 10
-28.982600000000001
 20
-94.205700000000007
 30
0.0
  0
SPLINE
  5
1EA
100
AcDbEntity
  8
0
370
     5
100
AcDbSpline
210
0.0
220
0.0
230
1.0
 70
     0
 71
     3
 72
     8
 73
     4
 74
     0
 42
0.0000000001
 43
0.0000000001
 40
0.0
 40
0.0
 40
0.0
 40
0.0
 40
1.0
 40
1.0
 40
1.0
 40
1.0
 10
-176.9597
 20
-134.7996
 30
0.0
 10
-176.9597
 20
-134.7996
 30
0.0
 10
-176.9597
 20
-132.69990000000001
 30
0.0
 10
-176.9597
 20
-132.69990000000001
 30
0.0
  0
SPLINE
  5
1EB
100
AcDbEntity
  8
0
370
     5
100
AcDbSpline
210
0.0
220
0.0
230
1.0
 70
     0
 71
     3
 72
     8
 73
     4
 74
     0
 42
0.0000000001
 43
0.0000000001
 40
0.0
 40
0.0
 40
0.0
 40
0.0
 40
1.0
 40
1.0
 40
1.0
 40
1.0
 10
-176.9597
 20
-146.27780000000001
 30
0.0
 10
-176.9597
 20
-146.27780000000001
 30
0.0
 10
-176.9597
 20
-140.39870000000002
 30
0.0
 10
-176.9597
 20
-140.39870000000002
 30
0.0
  0
SPLINE
  5
1EC
100
AcDbEntity
  8
0
370
     5
100
AcDbSpline
210
0.0
220
0.0
230
1.0
 70
     0
 71
     3
 72
     8
 73
     4
 74
     0
 42
0.0000000001
 43
0.0000000001
 40
0.0
 40
0.0
 40
0.0
 40
0.0
 40
1.0
 40
1.0
 40
1.0
 40
1.0
 10
-28.982600000000001
 20
-66.769900000000007
 30
0.0
 10
-28.982600000000001
 20
-66.769900000000007
 30
0.0
 10
-41.162300000000002
 20
-54.731700000000004
 30
0.0
 10
-41.162300000000002
 20
-54.731700000000004
 30
0.0
  0
SPLINE
  5
1ED
100
AcDbEntity
  8
0
370
     5
100
AcDbSpline
210
0.0
220
0.0
230
1.0
 70
     0
 71
     3
 72
     8
 73
     4
 74
     0
 42
0.0000000001
 43
0.0000000001
 40
0.0
 40
0.0
 40
0.0
 40
0.0
 40
1.0
 40
1.0
 40
1.0
 40
1.0
 10
-25.482600000000001
 20
-53.471900000000005
 30
0.0
 10
-25.482600000000001
 20
-53.471900000000005
 30
0.0
 10
30.376300000000001
 20
-61.030700000000003
 30
0.0
 10
30.376300000000001
 20
-61.030700000000003
 30
0.0
  0
SPLINE
  5
1EE
100
AcDbEntity
  8
0
370
     5
100
AcDbSpline
210
0.0
220
0.0
230
1.0
 70
     0
 71
     3
 72
     8
 73
     4
 74
     0
 42
0.0000000001
 43
0.0000000001
 40
0.0
 40
0.0
 40
0.0
 40
0.0
 40
1.0
 40
1.0
 40
1.0
 40
1.0
 10
-26.0426
 20
-63.830300000000001
 30
0.0
 10
-26.0426
 20
-63.830300000000001
 30
0.0
 10
-35.422400000000003
 20
-54.451700000000002
 30
0.0
 10
-35.422400000000003
 20
-54.451700000000002
 30
0.0
  0
SPLINE
  5
1EF
100
AcDbEntity
  8
0
370
     5
100
AcDbSpline
210
0.0
220
0.0
230
1.0
 70
     0
 71
     3
 72
     8
 73
     4
 74
     0
 42
0.0000000001
 43
0.0000000001
 40
0.0
 40
0.0
 40
0.0
 40
0.0
 40
1.0
 40
1.0
 40
1.0
 40
1.0
 10
-157.36010000000002
 20
19.597200000000001
 30
0.0
 10
-157.36010000000002
 20
19.597200000000001
 30
0.0
 10
-157.36010000000002
 20
13.2981
 30
0.0
 10
-157.36010000000002
 20
13.2981
 30
0.0
  0
SPLINE
  5
1F0
100
AcDbEntity
  8
0
370
     5
100
AcDbSpline
210
0.0
220
0.0
230
1.0
 70
     0
 71
     3
 72
     8
 73
     4
 74
     0
 42
0.0000000001
 43
0.0000000001
 40
0.0
 40
0.0
 40
0.0
 40
0.0
 40
1.0
 40
1.0
 40
1.0
 40
1.0
 10
-157.36010000000002
 20
7.6989000000000001
 30
0.0
 10
-157.36010000000002
 20
7.6989000000000001
 30
0.0
 10
-157.36010000000002
 20
-0.0027
 30
0.0
 10
-157.36010000000002
 20
-0.0027
 30
0.0
  0
SPLINE
  5
1F1
100
AcDbEntity
  8
0
370
     5
100
AcDbSpline
210
0.0
220
0.0
230
1.0
 70
     0
 71
     3
 72
     8
 73
     4
 74
     0
 42
0.0000000001
 43
0.0000000001
 40
0.0
 40
0.0
 40
0.0
 40
0.0
 40
1.0
 40
1.0
 40
1.0
 40
1.0
 10
-176.9597
 20
-22.256500000000003
 30
0.0
 10
-176.9597
 20
-22.256500000000003
 30
0.0
 10
-176.9597
 20
-30.095400000000001
 30
0.0
 10
-176.9597
 20
-30.095400000000001
 30
0.0
  0
SPLINE
  5
1F2
100
AcDbEntity
  8
0
370
     5
100
AcDbSpline
210
0.0
220
0.0
230
1.0
 70
     0
 71
     3
 72
     8
 73
     4
 74
     0
 42
0.0000000001
 43
0.0000000001
 40
0.0
 40
0.0
 40
0.0
 40
0.0
 40
1.0
 40
1.0
 40
1.0
 40
1.0
 10
-176.9597
 20
-35.694500000000005
 30
0.0
 10
-176.9597
 20
-35.694500000000005
 30
0.0
 10
-176.9597
 20
-43.3934
 30
0.0
 10
-176.9597
 20
-43.3934
 30
0.0
  0
SPLINE
  5
1F3
100
AcDbEntity
  8
0
370
     5
100
AcDbSpline
210
0.0
220
0.0
230
1.0
 70
     0
 71
     3
 72
     8
 73
     4
 74
     0
 42
0.0000000001
 43
0.0000000001
 40
0.0
 40
0.0
 40
0.0
 40
0.0
 40
1.0
 40
1.0
 40
1.0
 40
1.0
 10
-176.25970000000001
 20
-34.994599999999998
 30
0.0
 10
-176.25970000000001
 20
-34.994599999999998
 30
0.0
 10
-159.46010000000001
 20
-34.994599999999998
 30
0.0
 10
-159.46010000000001
 20
-34.994599999999998
 30
0.0
  0
SPLINE
  5
1F4
100
AcDbEntity
  8
0
370
     5
100
AcDbSpline
210
0.0
220
0.0
230
1.0
 70
     0
 71
     3
 72
     8
 73
     4
 74
     0
 42
0.0000000001
 43
0.0000000001
 40
0.0
 40
0.0
 40
0.0
 40
0.0
 40
1.0
 40
1.0
 40
1.0
 40
1.0
 10
-156.6601
 20
8.3987999999999996
 30
0.0
 10
-156.6601
 20
8.3987999999999996
 30
0.0
 10
-142.66040000000001
 20
8.3987999999999996
 30
0.0
 10
-142.66040000000001
 20
8.3987999999999996
 30
0.0
  0
SPLINE
  5
1F5
100
AcDbEntity
  8
0
370
     5
100
AcDbSpline
210
0.0
220
0.0
230
1.0
 70
     0
 71
     3
 72
     8
 73
     4
 74
     0
 42
0.0000000001
 43
0.0000000001
 40
0.0
 40
0.0
 40
0.0
 40
0.0
 40
1.0
 40
1.0
 40
1.0
 40
1.0
 10
-142.66040000000001
 20
12.5982
 30
0.0
 10
-142.66040000000001
 20
12.5982
 30
0.0
 10
-156.6601
 20
12.5982
 30
0.0
 10
-156.6601
 20
12.5982
 30
0.0
  0
SPLINE
  5
1F6
100
AcDbEntity
  8
0
370
     5
100
AcDbSpline
210
0.0
220
0.0
230
1.0
 70
     0
 71
     3
 72
     8
 73
     4
 74
     0
 42
0.0000000001
 43
0.0000000001
 40
0.0
 40
0.0
 40
0.0
 40
0.0
 40
1.0
 40
1.0
 40
1.0
 40
1.0
 10
-159.46000000000001
 20
-30.795300000000001
 30
0.0
 10
-159.46000000000001
 20
-30.795300000000001
 30
0.0
 10
-176.25970000000001
 20
-30.795300000000001
 30
0.0
 10
-176.25970000000001
 20
-30.795300000000001
 30
0.0
  0
SPLINE
  5
1F7
100
AcDbEntity
  8
0
370
     5
100
AcDbSpline
210
0.0
220
0.0
230
1.0
 70
     0
 71
     3
 72
     8
 73
     4
 74
     0
 42
0.0000000001
 43
0.0000000001
 40
0.0
 40
0.0
 40
0.0
 40
0.0
 40
1.0
 40
1.0
 40
1.0
 40
1.0
 10
-154.56010000000001
 20
-46.193000000000005
 30
0.0
 10
-154.56010000000001
 20
-46.193000000000005
 30
0.0
 10
-174.15980000000002
 20
-46.193000000000005
 30
0.0
 10
-174.15980000000002
 20
-46.193000000000005
 30
0.0
  0
ENDSEC
  0
SECTION
  2
OBJECTS
  0
DICTIONARY
  5
19
100
AcDbDictionary
280
     0
281
     1
  3
ACAD_GROUP
350
1A
  3
ACAD_MLINESTYLE
350
1B
  3
ACAD_LAYOUT
350
1E
  3
ACAD_PLOTSETTINGS
350
22
  3
ACAD_PLOTSTYLENAME
350
1F
  3
ACAD_WIPEOUT_VARS
350
23
  0
DICTIONARY
  5
1A
102
{ACAD_REACTORS
330
19
102
}
100
AcDbDictionary
280
     0
281
     1
  0
DICTIONARY
  5
1B
102
{ACAD_REACTORS
330
19
102
}
100
AcDbDictionary
280
     0
281
     1
  3
Standard
350
1C
  0
MLINESTYLE
  5
1C
102
{ACAD_REACTORS
330
1B
102
}
100
AcDbMlineStyle
  2
Standard
 70
     0
  3

 62
     0
 51
90.0
 52
90.0
 71
     2
 49
0.5
 62
   256
  6
BYLAYER
 49
-0.5
 62
   256
  6
BYLAYER
  0
ACDBDICTIONARYWDFLT
  5
1F
102
{ACAD_REACTORS
330
19
102
}
100
AcDbDictionary
281
     1
  3
Normal
350
1D
100
AcDbDictionaryWithDefault
340
1D
  0
ACDBPLACEHOLDER
  5
1D
102
{ACAD_REACTORS
330
1F
102
}
  0
LAYOUT
  5
20
102
{ACAD_REACTORS
330
1E
102
}
100
AcDbPlotSettings
  1

  2

  4

  6

 40
0.0
 41
0.0
 42
0.0
 43
0.0
 44
0.0
 45
0.0
 46
0.0
 47
0.0
 48
0.0
 49
0.0
140
0.0
141
0.0
142
1.0
143
1.0
 70
  1024
 72
     0
 73
     0
 74
     0
  7

 75
     0
147
1.0
148
0.0
149
0.0
100
AcDbLayout
  1
Model
 70
     0
 71
     0
 10
0.0
 20
0.0
 11
0.0
 21
0.0
 12
0.0
 22
0.0
 32
0.0
 14
0.0
 24
0.0
 34
0.0
 15
0.0
 25
0.0
 35
0.0
146
0.0
 13
0.0
 23
0.0
 33
0.0
 16
0.0
 26
0.0
 36
0.0
 17
0.0
 27
0.0
 37
0.0
 76
     0
330
A
331
0
345
0
346
0
  0
LAYOUT
  5
21
102
{ACAD_REACTORS
330
1E
102
}
100
AcDbPlotSettings
  1

  2

  4

  6

 40
0.0
 41
0.0
 42
0.0
 43
0.0
 44
0.0
 45
0.0
 46
0.0
 47
0.0
 48
0.0
 49
0.0
140
0.0
141
0.0
142
1.0
143
1.0
 70
     0
 72
     0
 73
     0
 74
     0
  7

 75
     0
147
1.0
148
0.0
149
0.0
100
AcDbLayout
  1
Layout1
 70
     0
 71
     0
 10
0.0
 20
0.0
 11
0.0
 21
0.0
 12
0.0
 22
0.0
 32
0.0
 14
0.0
 24
0.0
 34
0.0
 15
0.0
 25
0.0
 35
0.0
146
0.0
 13
0.0
 23
0.0
 33
0.0
 16
0.0
 26
0.0
 36
0.0
 17
0.0
 27
0.0
 37
0.0
 76
     0
330
B
331
0
345
0
346
0
  0
DICTIONARY
  5
1E
102
{ACAD_REACTORS
330
19
102
}
100
AcDbDictionary
280
     0
281
     1
  3
Layout1
350
21
  3
Model
350
20
  0
DICTIONARY
  5
22
102
{ACAD_REACTORS
330
19
102
}
100
AcDbDictionary
280
     0
281
     1
  0
WIPEOUTVARIABLES
  5
23
100
AcDbWipeoutVariables
 70
     1
  0
ENDSEC
  0
EOF
