  0
SECTION
  2
HEADER
  9
$ACADVER
  1
AC1015
  9
$ACADMAINTVER
 70
     6
  9
$DWGCODEPAGE
  3
DOS850
  9
$INSBASE
 10
0.0
 20
0.0
 30
0.0
  9
$EXTMIN
 10
-230.1383
 20
-180.9946
 30
1.000000E+20
  9
$EXTMAX
 10
230.1387
 20
180.9948
 30
-1.000000E+20
  9
$LIMMIN
 10
0.0
 20
0.0
  9
$LIMMAX
 10
0.0
 20
0.0
  9
$ORTHOMODE
 70
     0
  9
$REGENMODE
 70
     1
  9
$FILLMODE
 70
     1
  9
$QTEXTMODE
 70
     0
  9
$MIRRTEXT
 70
     1
  9
$LTSCALE
 40
1.0
  9
$ATTMODE
 70
     1
  9
$TEXTSIZE
 40
0.2
  9
$TRACEWID
 40
0.05
  9
$TEXTSTYLE
  7
Standard
  9
$CLAYER
  8
0
  9
$CELTYPE
  6
Continuous
  9
$CECOLOR
 62
   256
  9
$CELTSCALE
 40
1.0
  9
$DISPSILH
 70
     0
  9
$DIMSCALE
 40
1.0
  9
$DIMASZ
 40
0.18
  9
$DIMEXO
 40
0.0625
  9
$DIMDLI
 40
0.38
  9
$DIMRND
 40
0.0
  9
$DIMDLE
 40
0.0
  9
$DIMEXE
 40
0.18
  9
$DIMTP
 40
0.0
  9
$DIMTM
 40
0.0
  9
$DIMTXT
 40
0.18
  9
$DIMCEN
 40
0.09
  9
$DIMTSZ
 40
0.0
  9
$DIMTOL
 70
     0
  9
$DIMLIM
 70
     0
  9
$DIMTIH
 70
     1
  9
$DIMTOH
 70
     1
  9
$DIMSE1
 70
     0
  9
$DIMSE2
 70
     0
  9
$DIMTAD
 70
     0
  9
$DIMZIN
 70
     0
  9
$DIMBLK
  1

  9
$DIMASO
 70
     1
  9
$DIMSHO
 70
     1
  9
$DIMPOST
  1

  9
$DIMAPOST
  1

  9
$DIMALT
 70
     0
  9
$DIMALTD
 70
     2
  9
$DIMALTF
 40
25.4
  9
$DIMLFAC
 40
1.0
  9
$DIMTOFL
 70
     0
  9
$DIMTVP
 40
0.0
  9
$DIMTIX
 70
     0
  9
$DIMSOXD
 70
     0
  9
$DIMSAH
 70
     0
  9
$DIMBLK1
  1

  9
$DIMBLK2
  1

  9
$DIMSTYLE
  2
Standard
  9
$DIMCLRD
 70
     0
  9
$DIMCLRE
 70
     0
  9
$DIMCLRT
 70
     0
  9
$DIMTFAC
 40
1.0
  9
$DIMGAP
 40
0.09
  9
$DIMJUST
 70
     0
  9
$DIMSD1
 70
     0
  9
$DIMSD2
 70
     0
  9
$DIMTOLJ
 70
     1
  9
$DIMTZIN
 70
     0
  9
$DIMALTZ
 70
     0
  9
$DIMALTTZ
 70
     0
  9
$DIMUPT
 70
     0
  9
$DIMDEC
 70
     4
  9
$DIMTDEC
 70
     4
  9
$DIMALTU
 70
     2
  9
$DIMALTTD
 70
     2
  9
$DIMTXSTY
  7
Standard
  9
$DIMAUNIT
 70
     0
  9
$DIMADEC
 70
     0
  9
$DIMALTRND
 40
0.0
  9
$DIMAZIN
 70
     0
  9
$DIMDSEP
 70
     0
  9
$DIMATFIT
 70
     3
  9
$DIMFRAC
 70
     0
  9
$DIMLDRBLK
  1

  9
$DIMLUNIT
 70
     2
  9
$DIMLWD
 70
     0
  9
$DIMLWE
 70
     0
  9
$DIMTMOVE
 70
     0
  9
$LUNITS
 70
     2
  9
$LUPREC
 70
     4
  9
$SKETCHINC
 40
0.1
  9
$FILLETRAD
 40
0.0
  9
$AUNITS
 70
     0
  9
$AUPREC
 70
     0
  9
$MENU
  1
acad
  9
$ELEVATION
 40
0.0
  9
$PELEVATION
 40
0.0
  9
$THICKNESS
 40
0.0
  9
$LIMCHECK
 70
     0
  9
$CHAMFERA
 40
0.0
  9
$CHAMFERB
 40
0.0
  9
$CHAMFERC
 40
0.0
  9
$CHAMFERD
 40
0.0
  9
$SKPOLY
 70
     0
  9
$TDCREATE
 40
0.000000000
  9
$TDUCREATE
 40
0.000000000
  9
$TDUPDATE
 40
0.000000000
  9
$TDUUPDATE
 40
0.000000000
  9
$TDINDWG
 40
0.0000000000
  9
$TDUSRTIMER
 40
0.0000000000
  9
$USRTIMER
 70
     1
  9
$ANGBASE
 50
0.0
  9
$ANGDIR
 70
     0
  9
$PDMODE
 70
     0
  9
$PDSIZE
 40
0.0
  9
$PLINEWID
 40
0.0
  9
$SPLFRAME
 70
     0
  9
$SPLINETYPE
 70
     6
  9
$SPLINESEGS
 70
     8
  9
$HANDSEED
  5
3A
  9
$SURFTAB1
 70
     6
  9
$SURFTAB2
 70
     6
  9
$SURFTYPE
 70
     6
  9
$SURFU
 70
     6
  9
$SURFV
 70
     6
  9
$UCSBASE
  2

  9
$UCSNAME
  2

  9
$UCSORG
 10
0.0
 20
0.0
 30
0.0
  9
$UCSXDIR
 10
1.0
 20
0.0
 30
0.0
  9
$UCSYDIR
 10
0.0
 20
1.0
 30
0.0
  9
$UCSORTHOREF
  2

  9
$UCSORTHOVIEW
 70
     0
  9
$UCSORGTOP
 10
0.0
 20
0.0
 30
0.0
  9
$UCSORGBOTTOM
 10
0.0
 20
0.0
 30
0.0
  9
$UCSORGLEFT
 10
0.0
 20
0.0
 30
0.0
  9
$UCSORGRIGHT
 10
0.0
 20
0.0
 30
0.0
  9
$UCSORGFRONT
 10
0.0
 20
0.0
 30
0.0
  9
$UCSORGBACK
 10
0.0
 20
0.0
 30
0.0
  9
$PUCSBASE
  2

  9
$PUCSNAME
  2

  9
$PUCSORG
 10
0.0
 20
0.0
 30
0.0
  9
$PUCSXDIR
 10
1.0
 20
0.0
 30
0.0
  9
$PUCSYDIR
 10
0.0
 20
1.0
 30
0.0
  9
$PUCSORTHOREF
  2

  9
$PUCSORTHOVIEW
 70
     0
  9
$PUCSORGTOP
 10
0.0
 20
0.0
 30
0.0
  9
$PUCSORGBOTTOM
 10
0.0
 20
0.0
 30
0.0
  9
$PUCSORGLEFT
 10
0.0
 20
0.0
 30
0.0
  9
$PUCSORGRIGHT
 10
0.0
 20
0.0
 30
0.0
  9
$PUCSORGFRONT
 10
0.0
 20
0.0
 30
0.0
  9
$PUCSORGBACK
 10
0.0
 20
0.0
 30
0.0
  9
$USERI1
 70
     0
  9
$USERI2
 70
     0
  9
$USERI3
 70
     0
  9
$USERI4
 70
     0
  9
$USERI5
 70
     0
  9
$USERR1
 40
0.0
  9
$USERR2
 40
0.0
  9
$USERR3
 40
0.0
  9
$USERR4
 40
0.0
  9
$USERR5
 40
0.0
  9
$WORLDVIEW
 70
     1
  9
$SHADEDGE
 70
     3
  9
$SHADEDIF
 70
    70
  9
$TILEMODE
 70
     1
  9
$MAXACTVP
 70
    16
  9
$PINSBASE
 10
0.0
 20
0.0
 30
0.0
  9
$PLIMCHECK
 70
     0
  9
$PEXTMIN
 10
1.000000E+20
 20
1.000000E+20
 30
1.000000E+20
  9
$PEXTMAX
 10
-1.000000E+20
 20
-1.000000E+20
 30
-1.000000E+20
  9
$PLIMMIN
 10
0.0
 20
0.0
  9
$PLIMMAX
 10
12.0
 20
9.0
  9
$UNITMODE
 70
     0
  9
$VISRETAIN
 70
     0
  9
$PLINEGEN
 70
     1
  9
$PSLTSCALE
 70
     0
  9
$TREEDEPTH
 70
  3020
  9
$CMLSTYLE
  2
Standard
  9
$CMLJUST
 70
     0
  9
$CMLSCALE
 40
1.0
  9
$PROXYGRAPHICS
 70
     0
  9
$MEASUREMENT
 70
     0
  9
$CELWEIGHT
370
     0
  9
$ENDCAPS
280
     0
  9
$JOINSTYLE
280
     0
  9
$LWDISPLAY
290
     0
  9
$INSUNITS
 70
     4
  9
$HYPERLINKBASE
  1

  9
$XEDIT
290
     1
  9
$CEPSNTYPE
380
     0
  9
$PSTYLEMODE
290
     1
  9
$FINGERPRINTGUID
  2

  9
$VERSIONGUID
  2

  9
$EXTNAMES
290
     1
  9
$PSVPSCALE
 40
0.0
  0
ENDSEC
  0
SECTION
  2
CLASSES
  0
CLASS
  1
LWPOLYLINE
  2
AcDbPolyline
  3
AutoCAD 2000
 90
    32768
280
     0
281
     1
  0
CLASS
  1
IMAGE
  2
AcDbRasterImage
  3
ISM
 90
    32895
280
     0
281
     1
  0
CLASS
  1
OLE2FRAME
  2
AcDbOle2Frame
  3
AutoCAD 2000
 90
    32768
280
     0
281
     1
  0
CLASS
  1
HATCH
  2
AcDbHatch
  3
AutoCAD 2000
 90
    32768
280
     0
281
     1
  0
CLASS
  1
DICTIONARYVAR
  2
AcDbDictionaryVar
  3
AutoCAD 2000
 90
    32768
280
     0
281
     0
  0
CLASS
  1
RASTERVARIABLES
  2
AcDbRasterVariables
  3
ISM
 90
    32768
280
     0
281
     0
  0
CLASS
  1
IMAGEDEF
  2
AcDbRasterImageDef
  3
ISM
 90
    32768
280
     0
281
     0
  0
CLASS
  1
IMAGEDEF_REACTOR
  2
AcDbRasterImageDefReactor
  3
ISM
 90
    32769
280
     0
281
     0
  0
CLASS
  1
IDBUFFER
  2
AcDbIdBuffer
  3
AutoCAD 2000
 90
    32768
280
     0
281
     0
  0
CLASS
  1
SPATIAL_FILTER
  2
AcDbSpatialFilter
  3
AutoCAD 2000
 90
    32768
280
     0
281
     0
  0
CLASS
  1
XRECORD
  2
AcDbXrecord
  3
AutoCAD 2000
 90
    32768
280
     0
281
     0
  0
CLASS
  1
SORTENTSTABLE
  2
AcDbSortentsTable
  3
AutoCAD 2000
 90
    32768
280
     0
281
     0
  0
CLASS
  1
LAYER_INDEX
  2
AcDbLayerIndex
  3
AutoCAD 2000
 90
    32768
280
     0
281
     0
  0
CLASS
  1
SPATIAL_INDEX
  2
AcDbSpatialIndex
  3
AutoCAD 2000
 90
    32768
280
     0
281
     0
  0
CLASS
  1
OBJECT_PTR
  2
CAseDLPNTableRecord
  3
"ASE-LPNTableRecord"
 90
    32769
280
     0
281
     0
  0
CLASS
  1
LAYOUT
  2
AcDbLayout
  3
AutoCAD 2000
 90
        0
280
     0
281
     0
  0
CLASS
  1
PLOTSETTINGS
  2
AcDbPlotSettings
  3
AutoCAD 2000
 90
    32768
280
     0
281
     0
  0
CLASS
  1
ACDBDICTIONARYWDFLT
  2
AcDbDictionaryWithDefault
  3
AutoCAD 2000
 90
        0
280
     0
281
     0
  0
CLASS
  1
ACDBPLACEHOLDER
  2
AcDbPlaceHolder
  3
AutoCAD 2000
 90
        0
280
     0
281
     0
  0
CLASS
  1
VBA_PROJECT
  2
AcDbVbaProject
  3
acadvba
 90
    32768
280
     0
281
     0
  0
CLASS
  1
WIPEOUT
  2
AcDbWipeout
  3
WipeOut|AutoCAD Express Tool|expresstools@autodesk.com
 90
    32895
280
     0
281
     1
  0
CLASS
  1
WIPEOUTVARIABLES
  2
AcDbWipeoutVariables
  3
WipeOut|AutoCAD Express Tool|expresstools@autodesk.com
 90
        0
280
     0
281
     0
  0
CLASS
  1
RTEXT
  2
RText
  3
RText|AutoCAD Express Tool|expresstools@autodesk.com
 90
    32768
280
     0
281
     1
  0
CLASS
  1
ARCALIGNEDTEXT
  2
AcDbArcAlignedText
  3
ATEXT|AutoCAD Express Tool|expresstools@autodesk.com
 90
    32768
280
     0
281
     1
  0
ENDSEC
  0
SECTION
  2
TABLES
  0
TABLE
  2
VPORT
  5
7
100
AcDbSymbolTable
 70
     1
  0
VPORT
  5
15
100
AcDbSymbolTableRecord
100
AcDbViewportTableRecord
  2
*ACTIVE
 70
     0
 10
0.0
 20
0.0
 11
1.0
 21
1.0
 12
6.591288
 22
4.579184
 13
0.0
 23
0.0
 14
1.0
 24
1.0
 15
0.0
 25
0.0
 16
0.0
 26
0.0
 36
1.0
 17
0.0
 27
0.0
 37
0.0
 40
9.158369
 41
0.688564
 42
50.0
 43
0.0
 44
0.0
 50
0.0
 51
0.0
 71
     0
 72
   100
 73
     1
 74
     1
 75
     0
 76
     0
 77
     0
 78
     0
281
     0
 65
     0
110
0.0
120
0.0
130
0.0
111
1.0
121
0.0
131
0.0
112
0.0
122
1.0
132
0.0
345
0
346
0
 79
     0
146
0.0
  0
ENDTAB
  0
TABLE
  2
LTYPE
  5
4
100
AcDbSymbolTable
 70
     3
  0
LTYPE
  5
11
100
AcDbSymbolTableRecord
100
AcDbLinetypeTableRecord
  2
ByBlock
 70
    64
  3

 72
    65
 73
     0
 40
0.0
  0
LTYPE
  5
12
100
AcDbSymbolTableRecord
100
AcDbLinetypeTableRecord
  2
ByLayer
 70
    64
  3

 72
    65
 73
     0
 40
0.0
  0
LTYPE
  5
13
100
AcDbSymbolTableRecord
100
AcDbLinetypeTableRecord
  2
Continuous
 70
    64
  3
Solid line
 72
    65
 73
     0
 40
0.0
  0
ENDTAB
  0
TABLE
  2
LAYER
  5
2
100
AcDbSymbolTable
 70
     2
  0
LAYER
  5
14
100
AcDbSymbolTableRecord
100
AcDbLayerTableRecord
  2
0
 70
     0
 62
     7
  6
Continuous
290
     1
370
    -3
390
1D
  0
LAYER
  5
24
100
AcDbSymbolTableRecord
100
AcDbLayerTableRecord
  2
Layer 1
 70
     0
 62
     7
  6
Continuous
290
     1
370
    -3
390
1F
  0
ENDTAB
  0
TABLE
  2
STYLE
  5
3
100
AcDbSymbolTable
 70
     1
  0
STYLE
  5
17
100
AcDbSymbolTableRecord
100
AcDbTextStyleTableRecord
  2
Standard
 70
     0
 40
0.0
 41
1.0
 50
0.0
 71
     0
 42
0.0
  3
txt
  4

  0
ENDTAB
  0
TABLE
  2
VIEW
  5
5
100
AcDbSymbolTable
 70
     0
  0
ENDTAB
  0
TABLE
  2
UCS
  5
6
100
AcDbSymbolTable
 70
     0
  0
ENDTAB
  0
TABLE
  2
APPID
  5
8
100
AcDbSymbolTable
 70
     1
  0
APPID
  5
16
100
AcDbSymbolTableRecord
100
AcDbRegAppTableRecord
  2
ACAD
 70
     0
  0
ENDTAB
  0
TABLE
  2
DIMSTYLE
  5
9
100
AcDbSymbolTable
 70
     1
100
AcDbDimStyleTable
 71
     0
  0
DIMSTYLE
105
18
100
AcDbSymbolTableRecord
100
AcDbDimStyleTableRecord
  2
Standard
 70
     0
  3

  4

 40
1.0
 41
0.18
 42
0.0625
 43
0.38
 44
0.18
 45
0.0
 46
0.0
 47
0.0
 48
0.0
 71
     0
 72
     0
 73
     1
 74
     1
 75
     0
 76
     0
 77
     0
 78
     0
 79
     0
140
0.18
141
0.09
142
0.0
143
25.4
144
1.0
145
0.0
146
1.0
147
0.09
148
0.0
170
     0
171
     2
172
     0
173
     0
174
     0
175
     0
176
     0
177
     0
178
     0
179
     0
271
     4
272
     4
273
     2
274
     2
275
     0
276
     0
277
     2
278
    46
279
     0
280
     0
281
     0
282
     0
283
     1
284
     0
285
     0
286
     0
288
     0
340
17
341
0
342
0
343
0
344
0
371
    -2
372
    -2
  0
ENDTAB
  0
TABLE
  2
BLOCK_RECORD
  5
1
100
AcDbSymbolTable
 70
     0
  0
BLOCK_RECORD
  5
A
100
AcDbSymbolTableRecord
100
AcDbBlockTableRecord
  2
*MODEL_SPACE
340
20
  0
BLOCK_RECORD
  5
B
100
AcDbSymbolTableRecord
100
AcDbBlockTableRecord
  2
*PAPER_SPACE
340
21
  0
ENDTAB
  0
ENDSEC
  0
SECTION
  2
BLOCKS
  0
BLOCK
  5
D
100
AcDbEntity
  8
0
100
AcDbBlockBegin
  2
*MODEL_SPACE
 70
     0
 10
0.0
 20
0.0
 30
0.0
  3
*MODEL_SPACE
  1

  0
ENDBLK
  5
E
100
AcDbEntity
  8
0
100
AcDbBlockEnd
  0
BLOCK
  5
F
100
AcDbEntity
 67
     1
  8
0
100
AcDbBlockBegin
  2
*PAPER_SPACE
 70
     0
 10
0.0
 20
0.0
 30
0.0
  3
*PAPER_SPACE
  1

  0
ENDBLK
  5
10
100
AcDbEntity
 67
     1
  8
0
100
AcDbBlockEnd
  0
ENDSEC
  0
SECTION
  2
ENTITIES
  0
SPLINE
  5
25
100
AcDbEntity
  8
Layer 1
370
     5
100
AcDbSpline
210
0.0
220
0.0
230
1.0
 70
     1
 71
     3
 72
   268
 73
   264
 74
     0
 42
0.0000000001
 43
0.0000000001
 40
0.0
 40
0.0
 40
0.0
 40
0.0
 40
0.0151515151515152
 40
0.0151515151515152
 40
0.0151515151515152
 40
0.0151515151515152
 40
0.0303030303030303
 40
0.0303030303030303
 40
0.0303030303030303
 40
0.0303030303030303
 40
0.0454545454545455
 40
0.0454545454545455
 40
0.0454545454545455
 40
0.0454545454545455
 40
0.0606060606060606
 40
0.0606060606060606
 40
0.0606060606060606
 40
0.0606060606060606
 40
0.0757575757575758
 40
0.0757575757575758
 40
0.0757575757575758
 40
0.0757575757575758
 40
0.0909090909090909
 40
0.0909090909090909
 40
0.0909090909090909
 40
0.0909090909090909
 40
0.1060606060606061
 40
0.1060606060606061
 40
0.1060606060606061
 40
0.1060606060606061
 40
0.1212121212121212
 40
0.1212121212121212
 40
0.1212121212121212
 40
0.1212121212121212
 40
0.1363636363636364
 40
0.1363636363636364
 40
0.1363636363636364
 40
0.1363636363636364
 40
0.1515151515151515
 40
0.1515151515151515
 40
0.1515151515151515
 40
0.1515151515151515
 40
0.1666666666666666
 40
0.1666666666666666
 40
0.1666666666666666
 40
0.1666666666666666
 40
0.1818181818181818
 40
0.1818181818181818
 40
0.1818181818181818
 40
0.1818181818181818
 40
0.1969696969696969
 40
0.1969696969696969
 40
0.1969696969696969
 40
0.1969696969696969
 40
0.212121212121212
 40
0.212121212121212
 40
0.212121212121212
 40
0.212121212121212
 40
0.2272727272727272
 40
0.2272727272727272
 40
0.2272727272727272
 40
0.2272727272727272
 40
0.2424242424242423
 40
0.2424242424242423
 40
0.2424242424242423
 40
0.2424242424242423
 40
0.2575757575757575
 40
0.2575757575757575
 40
0.2575757575757575
 40
0.2575757575757575
 40
0.2727272727272726
 40
0.2727272727272726
 40
0.2727272727272726
 40
0.2727272727272726
 40
0.2878787878787877
 40
0.2878787878787877
 40
0.2878787878787877
 40
0.2878787878787877
 40
0.3030303030303029
 40
0.3030303030303029
 40
0.3030303030303029
 40
0.3030303030303029
 40
0.318181818181818
 40
0.318181818181818
 40
0.318181818181818
 40
0.318181818181818
 40
0.3333333333333332
 40
0.3333333333333332
 40
0.3333333333333332
 40
0.3333333333333332
 40
0.3484848484848483
 40
0.3484848484848483
 40
0.3484848484848483
 40
0.3484848484848483
 40
0.3636363636363634
 40
0.3636363636363634
 40
0.3636363636363634
 40
0.3636363636363634
 40
0.3787878787878786
 40
0.3787878787878786
 40
0.3787878787878786
 40
0.3787878787878786
 40
0.3939393939393937
 40
0.3939393939393937
 40
0.3939393939393937
 40
0.3939393939393937
 40
0.4090909090909088
 40
0.4090909090909088
 40
0.4090909090909088
 40
0.4090909090909088
 40
0.424242424242424
 40
0.424242424242424
 40
0.424242424242424
 40
0.424242424242424
 40
0.4393939393939391
 40
0.4393939393939391
 40
0.4393939393939391
 40
0.4393939393939391
 40
0.4545454545454543
 40
0.4545454545454543
 40
0.4545454545454543
 40
0.4545454545454543
 40
0.4696969696969694
 40
0.4696969696969694
 40
0.4696969696969694
 40
0.4696969696969694
 40
0.4848484848484845
 40
0.4848484848484845
 40
0.4848484848484845
 40
0.4848484848484845
 40
0.4999999999999997
 40
0.4999999999999997
 40
0.4999999999999997
 40
0.4999999999999997
 40
0.5151515151515148
 40
0.5151515151515148
 40
0.5151515151515148
 40
0.5151515151515148
 40
0.5303030303030299
 40
0.5303030303030299
 40
0.5303030303030299
 40
0.5303030303030299
 40
0.5454545454545451
 40
0.5454545454545451
 40
0.5454545454545451
 40
0.5454545454545451
 40
0.5606060606060602
 40
0.5606060606060602
 40
0.5606060606060602
 40
0.5606060606060602
 40
0.5757575757575754
 40
0.5757575757575754
 40
0.5757575757575754
 40
0.5757575757575754
 40
0.5909090909090905
 40
0.5909090909090905
 40
0.5909090909090905
 40
0.5909090909090905
 40
0.6060606060606056
 40
0.6060606060606056
 40
0.6060606060606056
 40
0.6060606060606056
 40
0.6212121212121208
 40
0.6212121212121208
 40
0.6212121212121208
 40
0.6212121212121208
 40
0.6363636363636359
 40
0.6363636363636359
 40
0.6363636363636359
 40
0.6363636363636359
 40
0.6515151515151511
 40
0.6515151515151511
 40
0.6515151515151511
 40
0.6515151515151511
 40
0.6666666666666662
 40
0.6666666666666662
 40
0.6666666666666662
 40
0.6666666666666662
 40
0.6818181818181813
 40
0.6818181818181813
 40
0.6818181818181813
 40
0.6818181818181813
 40
0.6969696969696965
 40
0.6969696969696965
 40
0.6969696969696965
 40
0.6969696969696965
 40
0.7121212121212116
 40
0.7121212121212116
 40
0.7121212121212116
 40
0.7121212121212116
 40
0.7272727272727267
 40
0.7272727272727267
 40
0.7272727272727267
 40
0.7272727272727267
 40
0.7424242424242419
 40
0.7424242424242419
 40
0.7424242424242419
 40
0.7424242424242419
 40
0.757575757575757
 40
0.757575757575757
 40
0.757575757575757
 40
0.757575757575757
 40
0.7727272727272722
 40
0.7727272727272722
 40
0.7727272727272722
 40
0.7727272727272722
 40
0.7878787878787873
 40
0.7878787878787873
 40
0.7878787878787873
 40
0.7878787878787873
 40
0.8030303030303024
 40
0.8030303030303024
 40
0.8030303030303024
 40
0.8030303030303024
 40
0.8181818181818176
 40
0.8181818181818176
 40
0.8181818181818176
 40
0.8181818181818176
 40
0.8333333333333327
 40
0.8333333333333327
 40
0.8333333333333327
 40
0.8333333333333327
 40
0.8484848484848478
 40
0.8484848484848478
 40
0.8484848484848478
 40
0.8484848484848478
 40
0.863636363636363
 40
0.863636363636363
 40
0.863636363636363
 40
0.863636363636363
 40
0.8787878787878781
 40
0.8787878787878781
 40
0.8787878787878781
 40
0.8787878787878781
 40
0.8939393939393933
 40
0.8939393939393933
 40
0.8939393939393933
 40
0.8939393939393933
 40
0.9090909090909084
 40
0.9090909090909084
 40
0.9090909090909084
 40
0.9090909090909084
 40
0.9242424242424235
 40
0.9242424242424235
 40
0.9242424242424235
 40
0.9242424242424235
 40
0.9393939393939387
 40
0.9393939393939387
 40
0.9393939393939387
 40
0.9393939393939387
 40
0.9545454545454538
 40
0.9545454545454538
 40
0.9545454545454538
 40
0.9545454545454538
 40
0.969696969696969
 40
0.969696969696969
 40
0.969696969696969
 40
0.969696969696969
 40
0.9848484848484841
 40
0.9848484848484841
 40
0.9848484848484841
 40
0.9848484848484841
 40
1.0
 40
1.0
 40
1.0
 40
1.0
 10
86.465000000000003
 20
67.885199999999998
 30
0.0
 10
86.784900000000007
 20
65.99430000000001
 30
0.0
 10
88.476700000000008
 20
64.650199999999998
 30
0.0
 10
90.386800000000008
 20
64.769000000000005
 30
0.0
 10
90.386800000000008
 20
64.769000000000005
 30
0.0
 10
90.386800000000008
 20
64.769000000000005
 30
0.0
 10
101.12860000000001
 20
64.697299999999998
 30
0.0
 10
101.12860000000001
 20
64.697299999999998
 30
0.0
 10
101.12860000000001
 20
64.697299999999998
 30
0.0
 10
101.12860000000001
 20
64.697299999999998
 30
0.0
 10
102.29350000000001
 20
61.718700000000005
 30
0.0
 10
102.29350000000001
 20
61.718700000000005
 30
0.0
 10
102.29350000000001
 20
61.718700000000005
 30
0.0
 10
102.29350000000001
 20
61.718700000000005
 30
0.0
 10
110.67920000000001
 20
61.660299999999999
 30
0.0
 10
110.67920000000001
 20
61.660299999999999
 30
0.0
 10
110.67920000000001
 20
61.660299999999999
 30
0.0
 10
114.7723
 20
61.632000000000005
 30
0.0
 10
118.1127
 20
64.933000000000007
 30
0.0
 10
118.1409
 20
69.031300000000002
 30
0.0
 10
118.1409
 20
69.031300000000002
 30
0.0
 10
118.1409
 20
69.031300000000002
 30
0.0
 10
118.22370000000001
 20
81.145499999999998
 30
0.0
 10
118.22370000000001
 20
81.145499999999998
 30
0.0
 10
118.22370000000001
 20
81.145499999999998
 30
0.0
 10
118.22370000000001
 20
81.145499999999998
 30
0.0
 10
145.78390000000002
 20
123.7788
 30
0.0
 10
145.78390000000002
 20
123.7788
 30
0.0
 10
145.78390000000002
 20
123.7788
 30
0.0
 10
149.52700000000002
 20
122.24990000000001
 30
0.0
 10
153.50720000000001
 20
121.3827
 30
0.0
 10
157.54570000000001
 20
121.21870000000001
 30
0.0
 10
157.54570000000001
 20
121.21870000000001
 30
0.0
 10
161.5504
 20
121.3262
 30
0.0
 10
165.5061
 20
122.1217
 30
0.0
 10
169.2398
 20
123.57140000000001
 30
0.0
 10
169.2398
 20
123.57140000000001
 30
0.0
 10
169.2398
 20
123.57140000000001
 30
0.0
 10
196.3126
 20
80.60260000000001
 30
0.0
 10
196.3126
 20
80.60260000000001
 30
0.0
 10
196.3126
 20
80.60260000000001
 30
0.0
 10
196.3126
 20
80.60260000000001
 30
0.0
 10
196.22980000000001
 20
68.490300000000005
 30
0.0
 10
196.22980000000001
 20
68.490300000000005
 30
0.0
 10
196.22980000000001
 20
68.490300000000005
 30
0.0
 10
196.2166
 20
66.522199999999998
 30
0.0
 10
196.98440000000002
 20
64.629400000000004
 30
0.0
 10
198.3638
 20
63.226900000000001
 30
0.0
 10
198.3638
 20
63.226900000000001
 30
0.0
 10
199.7433
 20
61.8262
 30
0.0
 10
201.6233
 20
61.0306
 30
0.0
 10
203.58790000000002
 20
61.017400000000002
 30
0.0
 10
203.58790000000002
 20
61.017400000000002
 30
0.0
 10
203.58790000000002
 20
61.017400000000002
 30
0.0
 10
211.98870000000002
 20
60.960900000000002
 30
0.0
 10
211.98870000000002
 20
60.960900000000002
 30
0.0
 10
211.98870000000002
 20
60.960900000000002
 30
0.0
 10
211.98870000000002
 20
60.960900000000002
 30
0.0
 10
213.19500000000002
 20
63.9206
 30
0.0
 10
213.19500000000002
 20
63.9206
 30
0.0
 10
213.19500000000002
 20
63.9206
 30
0.0
 10
213.19500000000002
 20
63.9206
 30
0.0
 10
223.92170000000002
 20
63.845200000000006
 30
0.0
 10
223.92170000000002
 20
63.845200000000006
 30
0.0
 10
223.92170000000002
 20
63.845200000000006
 30
0.0
 10
225.83000000000001
 20
63.700100000000006
 30
0.0
 10
227.54060000000001
 20
65.0197
 30
0.0
 10
227.88500000000002
 20
66.906700000000001
 30
0.0
 10
227.88500000000002
 20
66.906700000000001
 30
0.0
 10
227.88500000000002
 20
66.906700000000001
 30
0.0
 10
227.89630000000002
 20
68.614699999999999
 30
0.0
 10
227.89630000000002
 20
68.614699999999999
 30
0.0
 10
227.89630000000002
 20
68.614699999999999
 30
0.0
 10
227.89630000000002
 20
68.614699999999999
 30
0.0
 10
216.48830000000001
 20
68.692000000000007
 30
0.0
 10
216.48830000000001
 20
68.692000000000007
 30
0.0
 10
216.48830000000001
 20
68.692000000000007
 30
0.0
 10
215.95760000000001
 20
68.695800000000006
 30
0.0
 10
215.4495
 20
68.908799999999999
 30
0.0
 10
215.07690000000002
 20
69.287700000000001
 30
0.0
 10
215.07690000000002
 20
69.287700000000001
 30
0.0
 10
214.70430000000002
 20
69.666600000000003
 30
0.0
 10
214.501
 20
70.177500000000009
 30
0.0
 10
214.501
 20
70.709100000000007
 30
0.0
 10
214.501
 20
70.709100000000007
 30
0.0
 10
214.501
 20
71.240800000000007
 30
0.0
 10
214.7193
 20
71.749800000000008
 30
0.0
 10
215.09570000000002
 20
72.123000000000005
 30
0.0
 10
215.09570000000002
 20
72.123000000000005
 30
0.0
 10
215.47390000000001
 20
72.496300000000005
 30
0.0
 10
215.98390000000001
 20
72.703699999999998
 30
0.0
 10
216.5146
 20
72.6999
 30
0.0
 10
216.5146
 20
72.6999
 30
0.0
 10
216.5146
 20
72.6999
 30
0.0
 10
227.92450000000002
 20
72.620699999999999
 30
0.0
 10
227.92450000000002
 20
72.620699999999999
 30
0.0
 10
227.92450000000002
 20
72.620699999999999
 30
0.0
 10
227.92450000000002
 20
72.620699999999999
 30
0.0
 10
227.9358
 20
74.326800000000006
 30
0.0
 10
227.9358
 20
74.326800000000006
 30
0.0
 10
227.9358
 20
74.326800000000006
 30
0.0
 10
227.61960000000002
 20
76.217600000000004
 30
0.0
 10
225.92780000000002
 20
77.563699999999997
 30
0.0
 10
224.01770000000002
 20
77.442999999999998
 30
0.0
 10
224.01770000000002
 20
77.442999999999998
 30
0.0
 10
224.01770000000002
 20
77.442999999999998
 30
0.0
 10
213.28910000000002
 20
77.516500000000008
 30
0.0
 10
213.28910000000002
 20
77.516500000000008
 30
0.0
 10
213.28910000000002
 20
77.516500000000008
 30
0.0
 10
213.28910000000002
 20
77.516500000000008
 30
0.0
 10
212.1242
 20
80.493200000000002
 30
0.0
 10
212.1242
 20
80.493200000000002
 30
0.0
 10
212.1242
 20
80.493200000000002
 30
0.0
 10
212.1242
 20
80.493200000000002
 30
0.0
 10
209.64760000000001
 20
80.512100000000004
 30
0.0
 10
209.64760000000001
 20
80.512100000000004
 30
0.0
 10
209.64760000000001
 20
80.512100000000004
 30
0.0
 10
209.64760000000001
 20
80.512100000000004
 30
0.0
 10
194.8955
 20
111.3253
 30
0.0
 10
194.8955
 20
111.3253
 30
0.0
 10
194.8955
 20
111.3253
 30
0.0
 10
194.8955
 20
111.3253
 30
0.0
 10
186.8297
 20
128.15620000000001
 30
0.0
 10
186.8297
 20
128.15620000000001
 30
0.0
 10
186.8297
 20
128.15620000000001
 30
0.0
 10
189.46250000000001
 20
140.42870000000002
 30
0.0
 10
190.91910000000001
 20
152.92359999999999
 30
0.0
 10
191.1788
 20
165.47320000000002
 30
0.0
 10
191.1788
 20
165.47320000000002
 30
0.0
 10
188.9111
 20
168.65170000000001
 30
0.0
 10
186.1542
 20
171.44740000000002
 30
0.0
 10
183.01140000000001
 20
173.7567
 30
0.0
 10
183.01140000000001
 20
173.7567
 30
0.0
 10
183.01140000000001
 20
173.7567
 30
0.0
 10
182.86080000000001
 20
151.84530000000001
 30
0.0
 10
182.86080000000001
 20
151.84530000000001
 30
0.0
 10
182.86080000000001
 20
151.84530000000001
 30
0.0
 10
182.86080000000001
 20
151.31370000000001
 30
0.0
 10
182.64260000000002
 20
150.8047
 30
0.0
 10
182.26430000000002
 20
150.4314
 30
0.0
 10
182.26430000000002
 20
150.4314
 30
0.0
 10
181.8879
 20
150.0581
 30
0.0
 10
181.376
 20
149.85080000000002
 30
0.0
 10
180.84530000000001
 20
149.8545
 30
0.0
 10
180.84530000000001
 20
149.8545
 30
0.0
 10
180.31470000000002
 20
149.85830000000001
 30
0.0
 10
179.80840000000001
 20
150.07320000000001
 30
0.0
 10
179.4358
 20
150.4522
 30
0.0
 10
179.4358
 20
150.4522
 30
0.0
 10
179.06319999999999
 20
150.82920000000001
 30
0.0
 10
178.85810000000001
 20
151.34200000000001
 30
0.0
 10
178.85810000000001
 20
151.87360000000001
 30
0.0
 10
178.85810000000001
 20
151.87360000000001
 30
0.0
 10
178.85810000000001
 20
151.87360000000001
 30
0.0
 10
179.0274
 20
176.31300000000002
 30
0.0
 10
179.0274
 20
176.31300000000002
 30
0.0
 10
179.0274
 20
176.31300000000002
 30
0.0
 10
173.2011
 20
179.5367
 30
0.0
 10
166.61080000000001
 20
181.1183
 30
0.0
 10
159.95830000000001
 20
180.88650000000001
 30
0.0
 10
159.95830000000001
 20
180.88650000000001
 30
0.0
 10
159.95830000000001
 20
180.88650000000001
 30
0.0
 10
159.75880000000001
 20
152.00550000000001
 30
0.0
 10
159.75880000000001
 20
152.00550000000001
 30
0.0
 10
159.75880000000001
 20
152.00550000000001
 30
0.0
 10
159.75130000000001
 20
150.8989
 30
0.0
 10
158.84990000000002
 20
150.00720000000001
 30
0.0
 10
157.74520000000001
 20
150.01480000000001
 30
0.0
 10
157.74520000000001
 20
150.01480000000001
 30
0.0
 10
156.6405
 20
150.0223
 30
0.0
 10
155.75040000000001
 20
150.92530000000002
 30
0.0
 10
155.75790000000001
 20
152.03380000000001
 30
0.0
 10
155.75790000000001
 20
152.03380000000001
 30
0.0
 10
155.75790000000001
 20
152.03380000000001
 30
0.0
 10
155.95740000000001
 20
180.91470000000001
 30
0.0
 10
155.95740000000001
 20
180.91470000000001
 30
0.0
 10
155.95740000000001
 20
180.91470000000001
 30
0.0
 10
149.3143
 20
181.23330000000001
 30
0.0
 10
142.7089
 20
179.744
 30
0.0
 10
136.84120000000001
 20
176.60330000000002
 30
0.0
 10
136.84120000000001
 20
176.60330000000002
 30
0.0
 10
136.84120000000001
 20
176.60330000000002
 30
0.0
 10
136.6737
 20
152.16390000000001
 30
0.0
 10
136.6737
 20
152.16390000000001
 30
0.0
 10
136.6737
 20
152.16390000000001
 30
0.0
 10
136.6737
 20
151.63230000000001
 30
0.0
 10
136.4554
 20
151.12520000000001
 30
0.0
 10
136.07900000000001
 20
150.75190000000001
 30
0.0
 10
136.07900000000001
 20
150.75190000000001
 30
0.0
 10
135.70080000000002
 20
150.37860000000001
 30
0.0
 10
135.1908
 20
150.1713
 30
0.0
 10
134.6601
 20
150.17310000000001
 30
0.0
 10
134.6601
 20
150.17310000000001
 30
0.0
 10
134.1294
 20
150.17690000000002
 30
0.0
 10
133.62130000000002
 20
150.39180000000002
 30
0.0
 10
133.24870000000001
 20
150.77070000000001
 30
0.0
 10
133.24870000000001
 20
150.77070000000001
 30
0.0
 10
132.87610000000001
 20
151.1497
 30
0.0
 10
132.6728
 20
151.66050000000001
 30
0.0
 10
132.6728
 20
152.19220000000001
 30
0.0
 10
132.6728
 20
152.19220000000001
 30
0.0
 10
132.6728
 20
152.19220000000001
 30
0.0
 10
132.82339999999999
 20
174.10550000000001
 30
0.0
 10
132.82339999999999
 20
174.10550000000001
 30
0.0
 10
132.82339999999999
 20
174.10550000000001
 30
0.0
 10
129.643
 20
171.83950000000002
 30
0.0
 10
126.8446
 20
169.08150000000001
 30
0.0
 10
124.52800000000001
 20
165.93510000000001
 30
0.0
 10
124.52800000000001
 20
165.93510000000001
 30
0.0
 10
124.6183
 20
153.3836
 30
0.0
 10
125.90740000000001
 20
140.86790000000002
 30
0.0
 10
128.37460000000002
 20
128.55960000000002
 30
0.0
 10
128.37460000000002
 20
128.55960000000002
 30
0.0
 10
128.37460000000002
 20
128.55960000000002
 30
0.0
 10
104.88860000000001
 20
81.236000000000004
 30
0.0
 10
104.88860000000001
 20
81.236000000000004
 30
0.0
 10
104.88860000000001
 20
81.236000000000004
 30
0.0
 10
104.88860000000001
 20
81.236000000000004
 30
0.0
 10
102.429
 20
81.252899999999997
 30
0.0
 10
102.429
 20
81.252899999999997
 30
0.0
 10
102.429
 20
81.252899999999997
 30
0.0
 10
102.429
 20
81.252899999999997
 30
0.0
 10
101.2227
 20
78.293199999999999
 30
0.0
 10
101.2227
 20
78.293199999999999
 30
0.0
 10
101.2227
 20
78.293199999999999
 30
0.0
 10
101.2227
 20
78.293199999999999
 30
0.0
 10
90.478999999999999
 20
78.366700000000009
 30
0.0
 10
90.478999999999999
 20
78.366700000000009
 30
0.0
 10
90.478999999999999
 20
78.366700000000009
 30
0.0
 10
88.570800000000006
 20
78.513800000000003
 30
0.0
 10
86.860200000000006
 20
77.192300000000003
 30
0.0
 10
86.517700000000005
 20
75.305199999999999
 30
0.0
 10
86.517700000000005
 20
75.305199999999999
 30
0.0
 10
86.517700000000005
 20
75.305199999999999
 30
0.0
 10
86.504500000000007
 20
73.600999999999999
 30
0.0
 10
86.504500000000007
 20
73.600999999999999
 30
0.0
 10
86.504500000000007
 20
73.600999999999999
 30
0.0
 10
86.504500000000007
 20
73.600999999999999
 30
0.0
 10
97.914400000000001
 20
73.519900000000007
 30
0.0
 10
97.914400000000001
 20
73.519900000000007
 30
0.0
 10
97.914400000000001
 20
73.519900000000007
 30
0.0
 10
98.445100000000011
 20
73.516199999999998
 30
0.0
 10
98.95320000000001
 20
73.301299999999998
 30
0.0
 10
99.325800000000001
 20
72.922300000000007
 30
0.0
 10
99.325800000000001
 20
72.922300000000007
 30
0.0
 10
99.698400000000007
 20
72.545299999999997
 30
0.0
 10
99.901600000000002
 20
72.034400000000005
 30
0.0
 10
99.901600000000002
 20
71.502800000000008
 30
0.0
 10
99.901600000000002
 20
71.502800000000008
 30
0.0
 10
99.901600000000002
 20
70.97120000000001
 30
0.0
 10
99.683300000000003
 20
70.46220000000001
 30
0.0
 10
99.30510000000001
 20
70.08890000000001
 30
0.0
 10
99.30510000000001
 20
70.08890000000001
 30
0.0
 10
98.928700000000006
 20
69.715699999999998
 30
0.0
 10
98.416800000000009
 20
69.508300000000006
 30
0.0
 10
97.886099999999999
 20
69.512100000000004
 30
0.0
 10
97.886099999999999
 20
69.512100000000004
 30
0.0
 10
97.886099999999999
 20
69.512100000000004
 30
0.0
 10
86.478200000000001
 20
69.593100000000007
 30
0.0
 10
86.478200000000001
 20
69.593100000000007
 30
0.0
 10
86.478200000000001
 20
69.593100000000007
 30
0.0
 10
86.478200000000001
 20
69.593100000000007
 30
0.0
 10
86.465000000000003
 20
67.885199999999998
 30
0.0
 10
86.465000000000003
 20
67.885199999999998
 30
0.0
  0
SPLINE
  5
26
100
AcDbEntity
  8
Layer 1
370
     5
100
AcDbSpline
210
0.0
220
0.0
230
1.0
 70
     1
 71
     3
 72
   132
 73
   128
 74
     0
 42
0.0000000001
 43
0.0000000001
 40
0.0
 40
0.0
 40
0.0
 40
0.0
 40
0.03125
 40
0.03125
 40
0.03125
 40
0.03125
 40
0.0625
 40
0.0625
 40
0.0625
 40
0.0625
 40
0.09375
 40
0.09375
 40
0.09375
 40
0.09375
 40
0.125
 40
0.125
 40
0.125
 40
0.125
 40
0.15625
 40
0.15625
 40
0.15625
 40
0.15625
 40
0.1875
 40
0.1875
 40
0.1875
 40
0.1875
 40
0.21875
 40
0.21875
 40
0.21875
 40
0.21875
 40
0.25
 40
0.25
 40
0.25
 40
0.25
 40
0.28125
 40
0.28125
 40
0.28125
 40
0.28125
 40
0.3125
 40
0.3125
 40
0.3125
 40
0.3125
 40
0.34375
 40
0.34375
 40
0.34375
 40
0.34375
 40
0.375
 40
0.375
 40
0.375
 40
0.375
 40
0.40625
 40
0.40625
 40
0.40625
 40
0.40625
 40
0.4375
 40
0.4375
 40
0.4375
 40
0.4375
 40
0.46875
 40
0.46875
 40
0.46875
 40
0.46875
 40
0.5
 40
0.5
 40
0.5
 40
0.5
 40
0.53125
 40
0.53125
 40
0.53125
 40
0.53125
 40
0.5625
 40
0.5625
 40
0.5625
 40
0.5625
 40
0.59375
 40
0.59375
 40
0.59375
 40
0.59375
 40
0.625
 40
0.625
 40
0.625
 40
0.625
 40
0.65625
 40
0.65625
 40
0.65625
 40
0.65625
 40
0.6875
 40
0.6875
 40
0.6875
 40
0.6875
 40
0.71875
 40
0.71875
 40
0.71875
 40
0.71875
 40
0.75
 40
0.75
 40
0.75
 40
0.75
 40
0.78125
 40
0.78125
 40
0.78125
 40
0.78125
 40
0.8125
 40
0.8125
 40
0.8125
 40
0.8125
 40
0.84375
 40
0.84375
 40
0.84375
 40
0.84375
 40
0.875
 40
0.875
 40
0.875
 40
0.875
 40
0.90625
 40
0.90625
 40
0.90625
 40
0.90625
 40
0.9375
 40
0.9375
 40
0.9375
 40
0.9375
 40
0.96875
 40
0.96875
 40
0.96875
 40
0.96875
 40
1.0
 40
1.0
 40
1.0
 40
1.0
 10
59.377100000000006
 20
-150.32980000000001
 30
0.0
 10
59.377100000000006
 20
-151.43640000000002
 30
0.0
 10
60.2729
 20
-152.33369999999999
 30
0.0
 10
61.377600000000001
 20
-152.33369999999999
 30
0.0
 10
61.377600000000001
 20
-152.33369999999999
 30
0.0
 10
62.482200000000006
 20
-152.33369999999999
 30
0.0
 10
63.378
 20
-151.43640000000002
 30
0.0
 10
63.378
 20
-150.32980000000001
 30
0.0
 10
63.378
 20
-150.32980000000001
 30
0.0
 10
63.378
 20
-150.32980000000001
 30
0.0
 10
63.378
 20
-130.88419999999999
 30
0.0
 10
63.378
 20
-130.88419999999999
 30
0.0
 10
63.378
 20
-130.88419999999999
 30
0.0
 10
63.378
 20
-130.88419999999999
 30
0.0
 10
67.393900000000002
 20
-130.88419999999999
 30
0.0
 10
67.393900000000002
 20
-130.88419999999999
 30
0.0
 10
67.393900000000002
 20
-130.88419999999999
 30
0.0
 10
67.393900000000002
 20
-130.88419999999999
 30
0.0
 10
80.730900000000005
 20
-115.58030000000001
 30
0.0
 10
80.730900000000005
 20
-115.58030000000001
 30
0.0
 10
80.730900000000005
 20
-115.58030000000001
 30
0.0
 10
81.291700000000006
 20
-114.9337
 30
0.0
 10
82.104600000000005
 20
-114.56230000000001
 30
0.0
 10
82.960900000000009
 20
-114.56230000000001
 30
0.0
 10
82.960900000000009
 20
-114.56230000000001
 30
0.0
 10
83.815300000000008
 20
-114.56230000000001
 30
0.0
 10
84.62830000000001
 20
-114.9337
 30
0.0
 10
85.190899999999999
 20
-115.58030000000001
 30
0.0
 10
85.190899999999999
 20
-115.58030000000001
 30
0.0
 10
85.190899999999999
 20
-115.58030000000001
 30
0.0
 10
98.510900000000007
 20
-130.88419999999999
 30
0.0
 10
98.510900000000007
 20
-130.88419999999999
 30
0.0
 10
98.510900000000007
 20
-130.88419999999999
 30
0.0
 10
98.510900000000007
 20
-130.88419999999999
 30
0.0
 10
102.5419
 20
-130.88419999999999
 30
0.0
 10
102.5419
 20
-130.88419999999999
 30
0.0
 10
102.5419
 20
-130.88419999999999
 30
0.0
 10
102.5419
 20
-130.88419999999999
 30
0.0
 10
102.5419
 20
-150.32980000000001
 30
0.0
 10
102.5419
 20
-150.32980000000001
 30
0.0
 10
102.5419
 20
-150.32980000000001
 30
0.0
 10
102.5419
 20
-151.43640000000002
 30
0.0
 10
103.43770000000001
 20
-152.33369999999999
 30
0.0
 10
104.5424
 20
-152.33369999999999
 30
0.0
 10
104.5424
 20
-152.33369999999999
 30
0.0
 10
105.64700000000001
 20
-152.33369999999999
 30
0.0
 10
106.5428
 20
-151.43640000000002
 30
0.0
 10
106.5428
 20
-150.32980000000001
 30
0.0
 10
106.5428
 20
-150.32980000000001
 30
0.0
 10
106.5428
 20
-150.32980000000001
 30
0.0
 10
106.5428
 20
-130.88419999999999
 30
0.0
 10
106.5428
 20
-130.88419999999999
 30
0.0
 10
106.5428
 20
-130.88419999999999
 30
0.0
 10
106.5428
 20
-130.88419999999999
 30
0.0
 10
111.84790000000001
 20
-130.88419999999999
 30
0.0
 10
111.84790000000001
 20
-130.88419999999999
 30
0.0
 10
111.84790000000001
 20
-130.88419999999999
 30
0.0
 10
112.6345
 20
-130.88419999999999
 30
0.0
 10
113.38720000000001
 20
-131.19710000000001
 30
0.0
 10
113.9443
 20
-131.7533
 30
0.0
 10
113.9443
 20
-131.7533
 30
0.0
 10
114.49940000000001
 20
-132.30940000000001
 30
0.0
 10
114.81180000000001
 20
-133.06530000000001
 30
0.0
 10
114.81180000000001
 20
-133.85330000000002
 30
0.0
 10
114.81180000000001
 20
-133.85330000000002
 30
0.0
 10
114.81180000000001
 20
-133.85330000000002
 30
0.0
 10
114.81180000000001
 20
-156.11920000000001
 30
0.0
 10
114.81180000000001
 20
-156.11920000000001
 30
0.0
 10
114.81180000000001
 20
-156.11920000000001
 30
0.0
 10
114.81180000000001
 20
-156.11920000000001
 30
0.0
 10
110.3819
 20
-173.93219999999999
 30
0.0
 10
110.3819
 20
-173.93219999999999
 30
0.0
 10
110.3819
 20
-173.93219999999999
 30
0.0
 10
110.3819
 20
-173.93219999999999
 30
0.0
 10
96.273400000000009
 20
-173.93219999999999
 30
0.0
 10
96.273400000000009
 20
-173.93219999999999
 30
0.0
 10
96.273400000000009
 20
-173.93219999999999
 30
0.0
 10
96.273400000000009
 20
-173.93219999999999
 30
0.0
 10
84.953800000000001
 20
-173.93219999999999
 30
0.0
 10
84.953800000000001
 20
-173.93219999999999
 30
0.0
 10
84.953800000000001
 20
-173.93219999999999
 30
0.0
 10
84.953800000000001
 20
-173.93219999999999
 30
0.0
 10
84.953800000000001
 20
-157.6028
 30
0.0
 10
84.953800000000001
 20
-157.6028
 30
0.0
 10
84.953800000000001
 20
-157.6028
 30
0.0
 10
84.953800000000001
 20
-156.49620000000002
 30
0.0
 10
84.058000000000007
 20
-155.59890000000001
 30
0.0
 10
82.953400000000002
 20
-155.59890000000001
 30
0.0
 10
82.953400000000002
 20
-155.59890000000001
 30
0.0
 10
81.848700000000008
 20
-155.59890000000001
 30
0.0
 10
80.9529
 20
-156.49620000000002
 30
0.0
 10
80.9529
 20
-157.6028
 30
0.0
 10
80.9529
 20
-157.6028
 30
0.0
 10
80.9529
 20
-157.6028
 30
0.0
 10
80.9529
 20
-173.93219999999999
 30
0.0
 10
80.9529
 20
-173.93219999999999
 30
0.0
 10
80.9529
 20
-173.93219999999999
 30
0.0
 10
80.9529
 20
-173.93219999999999
 30
0.0
 10
68.49860000000001
 20
-173.93219999999999
 30
0.0
 10
68.49860000000001
 20
-173.93219999999999
 30
0.0
 10
68.49860000000001
 20
-173.93219999999999
 30
0.0
 10
68.49860000000001
 20
-173.93219999999999
 30
0.0
 10
55.524900000000002
 20
-173.93219999999999
 30
0.0
 10
55.524900000000002
 20
-173.93219999999999
 30
0.0
 10
55.524900000000002
 20
-173.93219999999999
 30
0.0
 10
55.524900000000002
 20
-173.93219999999999
 30
0.0
 10
51.094900000000003
 20
-156.11920000000001
 30
0.0
 10
51.094900000000003
 20
-156.11920000000001
 30
0.0
 10
51.094900000000003
 20
-156.11920000000001
 30
0.0
 10
51.094900000000003
 20
-156.11920000000001
 30
0.0
 10
51.094900000000003
 20
-133.85330000000002
 30
0.0
 10
51.094900000000003
 20
-133.85330000000002
 30
0.0
 10
51.094900000000003
 20
-133.85330000000002
 30
0.0
 10
51.094900000000003
 20
-133.06530000000001
 30
0.0
 10
51.4054
 20
-132.30940000000001
 30
0.0
 10
51.962500000000006
 20
-131.7533
 30
0.0
 10
51.962500000000006
 20
-131.7533
 30
0.0
 10
52.517600000000002
 20
-131.19710000000001
 30
0.0
 10
53.272300000000001
 20
-130.88419999999999
 30
0.0
 10
54.057000000000002
 20
-130.88419999999999
 30
0.0
 10
54.057000000000002
 20
-130.88419999999999
 30
0.0
 10
54.057000000000002
 20
-130.88419999999999
 30
0.0
 10
59.377100000000006
 20
-130.88419999999999
 30
0.0
 10
59.377100000000006
 20
-130.88419999999999
 30
0.0
 10
59.377100000000006
 20
-130.88419999999999
 30
0.0
 10
59.377100000000006
 20
-130.88419999999999
 30
0.0
 10
59.377100000000006
 20
-150.32980000000001
 30
0.0
 10
59.377100000000006
 20
-150.32980000000001
 30
0.0
  0
SPLINE
  5
27
100
AcDbEntity
  8
Layer 1
370
     5
100
AcDbSpline
210
0.0
220
0.0
230
1.0
 70
     1
 71
     3
 72
    76
 73
    72
 74
     0
 42
0.0000000001
 43
0.0000000001
 40
0.0
 40
0.0
 40
0.0
 40
0.0
 40
0.0555555555555556
 40
0.0555555555555556
 40
0.0555555555555556
 40
0.0555555555555556
 40
0.1111111111111111
 40
0.1111111111111111
 40
0.1111111111111111
 40
0.1111111111111111
 40
0.1666666666666667
 40
0.1666666666666667
 40
0.1666666666666667
 40
0.1666666666666667
 40
0.2222222222222222
 40
0.2222222222222222
 40
0.2222222222222222
 40
0.2222222222222222
 40
0.2777777777777778
 40
0.2777777777777778
 40
0.2777777777777778
 40
0.2777777777777778
 40
0.3333333333333334
 40
0.3333333333333334
 40
0.3333333333333334
 40
0.3333333333333334
 40
0.388888888888889
 40
0.388888888888889
 40
0.388888888888889
 40
0.388888888888889
 40
0.4444444444444445
 40
0.4444444444444445
 40
0.4444444444444445
 40
0.4444444444444445
 40
0.5000000000000001
 40
0.5000000000000001
 40
0.5000000000000001
 40
0.5000000000000001
 40
0.5555555555555557
 40
0.5555555555555557
 40
0.5555555555555557
 40
0.5555555555555557
 40
0.6111111111111113
 40
0.6111111111111113
 40
0.6111111111111113
 40
0.6111111111111113
 40
0.6666666666666669
 40
0.6666666666666669
 40
0.6666666666666669
 40
0.6666666666666669
 40
0.7222222222222224
 40
0.7222222222222224
 40
0.7222222222222224
 40
0.7222222222222224
 40
0.777777777777778
 40
0.777777777777778
 40
0.777777777777778
 40
0.777777777777778
 40
0.8333333333333336
 40
0.8333333333333336
 40
0.8333333333333336
 40
0.8333333333333336
 40
0.8888888888888892
 40
0.8888888888888892
 40
0.8888888888888892
 40
0.8888888888888892
 40
0.9444444444444448
 40
0.9444444444444448
 40
0.9444444444444448
 40
0.9444444444444448
 40
1.0
 40
1.0
 40
1.0
 40
1.0
 10
-69.599900000000005
 20
-171.35140000000001
 30
0.0
 10
-67.142099999999999
 20
-171.71340000000001
 30
0.0
 10
-64.644900000000007
 20
-171.0215
 30
0.0
 10
-62.721600000000002
 20
-169.44550000000001
 30
0.0
 10
-62.721600000000002
 20
-169.44550000000001
 30
0.0
 10
-60.798300000000005
 20
-167.86950000000002
 30
0.0
 10
-59.625900000000001
 20
-165.55450000000002
 30
0.0
 10
-59.494100000000003
 20
-163.06790000000001
 30
0.0
 10
-59.494100000000003
 20
-163.06790000000001
 30
0.0
 10
-59.347300000000004
 20
-161.98400000000001
 30
0.0
 10
-59.362400000000001
 20
-160.88300000000001
 30
0.0
 10
-59.539300000000004
 20
-159.80280000000002
 30
0.0
 10
-59.539300000000004
 20
-159.80280000000002
 30
0.0
 10
-59.810300000000005
 20
-157.42180000000002
 30
0.0
 10
-61.035400000000003
 20
-155.25390000000002
 30
0.0
 10
-62.930500000000002
 20
-153.7929
 30
0.0
 10
-62.930500000000002
 20
-153.7929
 30
0.0
 10
-64.827399999999997
 20
-152.33369999999999
 30
0.0
 10
-67.232500000000002
 20
-151.70600000000002
 30
0.0
 10
-69.599900000000005
 20
-152.0547
 30
0.0
 10
-69.599900000000005
 20
-152.0547
 30
0.0
 10
-69.599900000000005
 20
-152.0547
 30
0.0
 10
-72.23830000000001
 20
-152.0547
 30
0.0
 10
-72.23830000000001
 20
-152.0547
 30
0.0
 10
-72.23830000000001
 20
-152.0547
 30
0.0
 10
-72.23830000000001
 20
-152.0547
 30
0.0
 10
-72.8292
 20
-155.02200000000002
 30
0.0
 10
-72.8292
 20
-155.02200000000002
 30
0.0
 10
-72.8292
 20
-155.02200000000002
 30
0.0
 10
-72.8292
 20
-155.02200000000002
 30
0.0
 10
-83.202100000000002
 20
-155.02200000000002
 30
0.0
 10
-83.202100000000002
 20
-155.02200000000002
 30
0.0
 10
-83.202100000000002
 20
-155.02200000000002
 30
0.0
 10
-83.202100000000002
 20
-155.02200000000002
 30
0.0
 10
-83.202100000000002
 20
-159.69910000000002
 30
0.0
 10
-83.202100000000002
 20
-159.69910000000002
 30
0.0
 10
-83.202100000000002
 20
-159.69910000000002
 30
0.0
 10
-83.202100000000002
 20
-159.69910000000002
 30
0.0
 10
-72.8292
 20
-159.69910000000002
 30
0.0
 10
-72.8292
 20
-159.69910000000002
 30
0.0
 10
-72.8292
 20
-159.69910000000002
 30
0.0
 10
-71.724500000000006
 20
-159.69910000000002
 30
0.0
 10
-70.828699999999998
 20
-160.59650000000002
 30
0.0
 10
-70.828699999999998
 20
-161.70310000000001
 30
0.0
 10
-70.828699999999998
 20
-161.70310000000001
 30
0.0
 10
-70.828699999999998
 20
-162.80970000000002
 30
0.0
 10
-71.724500000000006
 20
-163.70700000000002
 30
0.0
 10
-72.8292
 20
-163.70700000000002
 30
0.0
 10
-72.8292
 20
-163.70700000000002
 30
0.0
 10
-72.8292
 20
-163.70700000000002
 30
0.0
 10
-83.202100000000002
 20
-163.70700000000002
 30
0.0
 10
-83.202100000000002
 20
-163.70700000000002
 30
0.0
 10
-83.202100000000002
 20
-163.70700000000002
 30
0.0
 10
-83.202100000000002
 20
-163.70700000000002
 30
0.0
 10
-83.202100000000002
 20
-168.38220000000001
 30
0.0
 10
-83.202100000000002
 20
-168.38220000000001
 30
0.0
 10
-83.202100000000002
 20
-168.38220000000001
 30
0.0
 10
-83.202100000000002
 20
-168.38220000000001
 30
0.0
 10
-79.186199999999999
 20
-168.38220000000001
 30
0.0
 10
-79.186199999999999
 20
-168.38220000000001
 30
0.0
 10
-79.186199999999999
 20
-168.38220000000001
 30
0.0
 10
-79.186199999999999
 20
-168.38220000000001
 30
0.0
 10
-72.8292
 20
-168.38220000000001
 30
0.0
 10
-72.8292
 20
-168.38220000000001
 30
0.0
 10
-72.8292
 20
-168.38220000000001
 30
0.0
 10
-72.8292
 20
-168.38220000000001
 30
0.0
 10
-72.23830000000001
 20
-171.35140000000001
 30
0.0
 10
-72.23830000000001
 20
-171.35140000000001
 30
0.0
 10
-72.23830000000001
 20
-171.35140000000001
 30
0.0
 10
-72.23830000000001
 20
-171.35140000000001
 30
0.0
 10
-69.599900000000005
 20
-171.35140000000001
 30
0.0
 10
-69.599900000000005
 20
-171.35140000000001
 30
0.0
  0
SPLINE
  5
28
100
AcDbEntity
  8
Layer 1
370
     5
100
AcDbSpline
210
0.0
220
0.0
230
1.0
 70
     1
 71
     3
 72
    76
 73
    72
 74
     0
 42
0.0000000001
 43
0.0000000001
 40
0.0
 40
0.0
 40
0.0
 40
0.0
 40
0.0555555555555556
 40
0.0555555555555556
 40
0.0555555555555556
 40
0.0555555555555556
 40
0.1111111111111111
 40
0.1111111111111111
 40
0.1111111111111111
 40
0.1111111111111111
 40
0.1666666666666667
 40
0.1666666666666667
 40
0.1666666666666667
 40
0.1666666666666667
 40
0.2222222222222222
 40
0.2222222222222222
 40
0.2222222222222222
 40
0.2222222222222222
 40
0.2777777777777778
 40
0.2777777777777778
 40
0.2777777777777778
 40
0.2777777777777778
 40
0.3333333333333334
 40
0.3333333333333334
 40
0.3333333333333334
 40
0.3333333333333334
 40
0.388888888888889
 40
0.388888888888889
 40
0.388888888888889
 40
0.388888888888889
 40
0.4444444444444445
 40
0.4444444444444445
 40
0.4444444444444445
 40
0.4444444444444445
 40
0.5000000000000001
 40
0.5000000000000001
 40
0.5000000000000001
 40
0.5000000000000001
 40
0.5555555555555557
 40
0.5555555555555557
 40
0.5555555555555557
 40
0.5555555555555557
 40
0.6111111111111113
 40
0.6111111111111113
 40
0.6111111111111113
 40
0.6111111111111113
 40
0.6666666666666669
 40
0.6666666666666669
 40
0.6666666666666669
 40
0.6666666666666669
 40
0.7222222222222224
 40
0.7222222222222224
 40
0.7222222222222224
 40
0.7222222222222224
 40
0.777777777777778
 40
0.777777777777778
 40
0.777777777777778
 40
0.777777777777778
 40
0.8333333333333336
 40
0.8333333333333336
 40
0.8333333333333336
 40
0.8333333333333336
 40
0.8888888888888892
 40
0.8888888888888892
 40
0.8888888888888892
 40
0.8888888888888892
 40
0.9444444444444448
 40
0.9444444444444448
 40
0.9444444444444448
 40
0.9444444444444448
 40
1.0
 40
1.0
 40
1.0
 40
1.0
 10
-58.502400000000002
 20
-43.504300000000001
 30
0.0
 10
-56.0428
 20
-43.866300000000003
 30
0.0
 10
-53.547400000000003
 20
-43.174399999999999
 30
0.0
 10
-51.624100000000006
 20
-41.598400000000005
 30
0.0
 10
-51.624100000000006
 20
-41.598400000000005
 30
0.0
 10
-49.700800000000001
 20
-40.022400000000005
 30
0.0
 10
-48.528400000000005
 20
-37.7074
 30
0.0
 10
-48.396700000000003
 20
-35.222700000000003
 30
0.0
 10
-48.396700000000003
 20
-35.222700000000003
 30
0.0
 10
-48.249900000000004
 20
-34.136900000000004
 30
0.0
 10
-48.264900000000004
 20
-33.035899999999998
 30
0.0
 10
-48.439900000000002
 20
-31.9557
 30
0.0
 10
-48.439900000000002
 20
-31.9557
 30
0.0
 10
-48.712800000000001
 20
-29.576600000000003
 30
0.0
 10
-49.936
 20
-27.4068
 30
0.0
 10
-51.833000000000006
 20
-25.947700000000001
 30
0.0
 10
-51.833000000000006
 20
-25.947700000000001
 30
0.0
 10
-53.729900000000001
 20
-24.486700000000003
 30
0.0
 10
-56.135000000000005
 20
-23.858900000000002
 30
0.0
 10
-58.502400000000002
 20
-24.207700000000003
 30
0.0
 10
-58.502400000000002
 20
-24.207700000000003
 30
0.0
 10
-58.502400000000002
 20
-24.207700000000003
 30
0.0
 10
-61.1389
 20
-24.207700000000003
 30
0.0
 10
-61.1389
 20
-24.207700000000003
 30
0.0
 10
-61.1389
 20
-24.207700000000003
 30
0.0
 10
-61.1389
 20
-24.207700000000003
 30
0.0
 10
-61.731700000000004
 20
-27.1768
 30
0.0
 10
-61.731700000000004
 20
-27.1768
 30
0.0
 10
-61.731700000000004
 20
-27.1768
 30
0.0
 10
-61.731700000000004
 20
-27.1768
 30
0.0
 10
-72.104700000000008
 20
-27.1768
 30
0.0
 10
-72.104700000000008
 20
-27.1768
 30
0.0
 10
-72.104700000000008
 20
-27.1768
 30
0.0
 10
-72.104700000000008
 20
-27.1768
 30
0.0
 10
-72.104700000000008
 20
-31.852
 30
0.0
 10
-72.104700000000008
 20
-31.852
 30
0.0
 10
-72.104700000000008
 20
-31.852
 30
0.0
 10
-72.104700000000008
 20
-31.852
 30
0.0
 10
-61.731700000000004
 20
-31.852
 30
0.0
 10
-61.731700000000004
 20
-31.852
 30
0.0
 10
-61.731700000000004
 20
-31.852
 30
0.0
 10
-60.627000000000002
 20
-31.852
 30
0.0
 10
-59.731300000000005
 20
-32.749400000000001
 30
0.0
 10
-59.731300000000005
 20
-33.856000000000002
 30
0.0
 10
-59.731300000000005
 20
-33.856000000000002
 30
0.0
 10
-59.731300000000005
 20
-34.962600000000002
 30
0.0
 10
-60.627000000000002
 20
-35.859900000000003
 30
0.0
 10
-61.731700000000004
 20
-35.859900000000003
 30
0.0
 10
-61.731700000000004
 20
-35.859900000000003
 30
0.0
 10
-61.731700000000004
 20
-35.859900000000003
 30
0.0
 10
-72.104700000000008
 20
-35.859900000000003
 30
0.0
 10
-72.104700000000008
 20
-35.859900000000003
 30
0.0
 10
-72.104700000000008
 20
-35.859900000000003
 30
0.0
 10
-72.104700000000008
 20
-35.859900000000003
 30
0.0
 10
-72.104700000000008
 20
-40.537100000000002
 30
0.0
 10
-72.104700000000008
 20
-40.537100000000002
 30
0.0
 10
-72.104700000000008
 20
-40.537100000000002
 30
0.0
 10
-72.104700000000008
 20
-40.537100000000002
 30
0.0
 10
-68.088700000000003
 20
-40.537100000000002
 30
0.0
 10
-68.088700000000003
 20
-40.537100000000002
 30
0.0
 10
-68.088700000000003
 20
-40.537100000000002
 30
0.0
 10
-68.088700000000003
 20
-40.537100000000002
 30
0.0
 10
-61.731700000000004
 20
-40.537100000000002
 30
0.0
 10
-61.731700000000004
 20
-40.537100000000002
 30
0.0
 10
-61.731700000000004
 20
-40.537100000000002
 30
0.0
 10
-61.731700000000004
 20
-40.537100000000002
 30
0.0
 10
-61.1389
 20
-43.504300000000001
 30
0.0
 10
-61.1389
 20
-43.504300000000001
 30
0.0
 10
-61.1389
 20
-43.504300000000001
 30
0.0
 10
-61.1389
 20
-43.504300000000001
 30
0.0
 10
-58.502400000000002
 20
-43.504300000000001
 30
0.0
 10
-58.502400000000002
 20
-43.504300000000001
 30
0.0
  0
SPLINE
  5
29
100
AcDbEntity
  8
Layer 1
370
     5
100
AcDbSpline
210
0.0
220
0.0
230
1.0
 70
     1
 71
     3
 72
    68
 73
    64
 74
     0
 42
0.0000000001
 43
0.0000000001
 40
0.0
 40
0.0
 40
0.0
 40
0.0
 40
0.0625
 40
0.0625
 40
0.0625
 40
0.0625
 40
0.125
 40
0.125
 40
0.125
 40
0.125
 40
0.1875
 40
0.1875
 40
0.1875
 40
0.1875
 40
0.25
 40
0.25
 40
0.25
 40
0.25
 40
0.3125
 40
0.3125
 40
0.3125
 40
0.3125
 40
0.375
 40
0.375
 40
0.375
 40
0.375
 40
0.4375
 40
0.4375
 40
0.4375
 40
0.4375
 40
0.5
 40
0.5
 40
0.5
 40
0.5
 40
0.5625
 40
0.5625
 40
0.5625
 40
0.5625
 40
0.625
 40
0.625
 40
0.625
 40
0.625
 40
0.6875
 40
0.6875
 40
0.6875
 40
0.6875
 40
0.75
 40
0.75
 40
0.75
 40
0.75
 40
0.8125
 40
0.8125
 40
0.8125
 40
0.8125
 40
0.875
 40
0.875
 40
0.875
 40
0.875
 40
0.9375
 40
0.9375
 40
0.9375
 40
0.9375
 40
1.0
 40
1.0
 40
1.0
 40
1.0
 10
-142.64340000000001
 20
-86.746499999999997
 30
0.0
 10
-134.0112
 20
-86.8596
 30
0.0
 10
-125.8438
 20
-82.832900000000009
 30
0.0
 10
-120.66860000000001
 20
-75.910499999999999
 30
0.0
 10
-120.66860000000001
 20
-75.910499999999999
 30
0.0
 10
-119.87820000000001
 20
-74.854799999999997
 30
0.0
 10
-119.87820000000001
 20
-73.403199999999998
 30
0.0
 10
-120.66860000000001
 20
-72.347499999999997
 30
0.0
 10
-120.66860000000001
 20
-72.347499999999997
 30
0.0
 10
-125.84950000000001
 20
-65.42710000000001
 30
0.0
 10
-134.02250000000001
 20
-61.406000000000006
 30
0.0
 10
-142.6585
 20
-61.526600000000002
 30
0.0
 10
-142.6585
 20
-61.526600000000002
 30
0.0
 10
-142.6585
 20
-61.526600000000002
 30
0.0
 10
-143.82900000000001
 20
-61.526600000000002
 30
0.0
 10
-143.82900000000001
 20
-61.526600000000002
 30
0.0
 10
-143.82900000000001
 20
-61.526600000000002
 30
0.0
 10
-143.82900000000001
 20
-61.526600000000002
 30
0.0
 10
-143.82900000000001
 20
-67.4499
 30
0.0
 10
-143.82900000000001
 20
-67.4499
 30
0.0
 10
-143.82900000000001
 20
-67.4499
 30
0.0
 10
-143.82900000000001
 20
-67.4499
 30
0.0
 10
-149.37120000000002
 20
-67.4499
 30
0.0
 10
-149.37120000000002
 20
-67.4499
 30
0.0
 10
-149.37120000000002
 20
-67.4499
 30
0.0
 10
-149.37120000000002
 20
-67.4499
 30
0.0
 10
-154.202
 20
-67.4499
 30
0.0
 10
-154.202
 20
-67.4499
 30
0.0
 10
-154.202
 20
-67.4499
 30
0.0
 10
-154.202
 20
-67.4499
 30
0.0
 10
-154.202
 20
-72.125100000000003
 30
0.0
 10
-154.202
 20
-72.125100000000003
 30
0.0
 10
-154.202
 20
-72.125100000000003
 30
0.0
 10
-154.202
 20
-72.125100000000003
 30
0.0
 10
-143.82900000000001
 20
-72.125100000000003
 30
0.0
 10
-143.82900000000001
 20
-72.125100000000003
 30
0.0
 10
-143.82900000000001
 20
-72.125100000000003
 30
0.0
 10
-142.7243
 20
-72.125100000000003
 30
0.0
 10
-141.82850000000002
 20
-73.022400000000005
 30
0.0
 10
-141.82850000000002
 20
-74.129000000000005
 30
0.0
 10
-141.82850000000002
 20
-74.129000000000005
 30
0.0
 10
-141.82850000000002
 20
-75.235600000000005
 30
0.0
 10
-142.7243
 20
-76.13300000000001
 30
0.0
 10
-143.82900000000001
 20
-76.13300000000001
 30
0.0
 10
-143.82900000000001
 20
-76.13300000000001
 30
0.0
 10
-143.82900000000001
 20
-76.13300000000001
 30
0.0
 10
-154.202
 20
-76.13300000000001
 30
0.0
 10
-154.202
 20
-76.13300000000001
 30
0.0
 10
-154.202
 20
-76.13300000000001
 30
0.0
 10
-154.202
 20
-76.13300000000001
 30
0.0
 10
-154.202
 20
-80.808199999999999
 30
0.0
 10
-154.202
 20
-80.808199999999999
 30
0.0
 10
-154.202
 20
-80.808199999999999
 30
0.0
 10
-154.202
 20
-80.808199999999999
 30
0.0
 10
-143.82900000000001
 20
-80.808199999999999
 30
0.0
 10
-143.82900000000001
 20
-80.808199999999999
 30
0.0
 10
-143.82900000000001
 20
-80.808199999999999
 30
0.0
 10
-143.82900000000001
 20
-80.808199999999999
 30
0.0
 10
-143.82900000000001
 20
-86.746499999999997
 30
0.0
 10
-143.82900000000001
 20
-86.746499999999997
 30
0.0
 10
-143.82900000000001
 20
-86.746499999999997
 30
0.0
 10
-143.82900000000001
 20
-86.746499999999997
 30
0.0
 10
-142.64340000000001
 20
-86.746499999999997
 30
0.0
 10
-142.64340000000001
 20
-86.746499999999997
 30
0.0
  0
SPLINE
  5
2A
100
AcDbEntity
  8
Layer 1
370
     5
100
AcDbSpline
210
0.0
220
0.0
230
1.0
 70
     1
 71
     3
 72
   232
 73
   228
 74
     0
 42
0.0000000001
 43
0.0000000001
 40
0.0
 40
0.0
 40
0.0
 40
0.0
 40
0.0175438596491228
 40
0.0175438596491228
 40
0.0175438596491228
 40
0.0175438596491228
 40
0.0350877192982456
 40
0.0350877192982456
 40
0.0350877192982456
 40
0.0350877192982456
 40
0.0526315789473684
 40
0.0526315789473684
 40
0.0526315789473684
 40
0.0526315789473684
 40
0.0701754385964912
 40
0.0701754385964912
 40
0.0701754385964912
 40
0.0701754385964912
 40
0.087719298245614
 40
0.087719298245614
 40
0.087719298245614
 40
0.087719298245614
 40
0.1052631578947368
 40
0.1052631578947368
 40
0.1052631578947368
 40
0.1052631578947368
 40
0.1228070175438596
 40
0.1228070175438596
 40
0.1228070175438596
 40
0.1228070175438596
 40
0.1403508771929825
 40
0.1403508771929825
 40
0.1403508771929825
 40
0.1403508771929825
 40
0.1578947368421053
 40
0.1578947368421053
 40
0.1578947368421053
 40
0.1578947368421053
 40
0.1754385964912281
 40
0.1754385964912281
 40
0.1754385964912281
 40
0.1754385964912281
 40
0.1929824561403509
 40
0.1929824561403509
 40
0.1929824561403509
 40
0.1929824561403509
 40
0.2105263157894737
 40
0.2105263157894737
 40
0.2105263157894737
 40
0.2105263157894737
 40
0.2280701754385965
 40
0.2280701754385965
 40
0.2280701754385965
 40
0.2280701754385965
 40
0.2456140350877193
 40
0.2456140350877193
 40
0.2456140350877193
 40
0.2456140350877193
 40
0.2631578947368421
 40
0.2631578947368421
 40
0.2631578947368421
 40
0.2631578947368421
 40
0.2807017543859649
 40
0.2807017543859649
 40
0.2807017543859649
 40
0.2807017543859649
 40
0.2982456140350877
 40
0.2982456140350877
 40
0.2982456140350877
 40
0.2982456140350877
 40
0.3157894736842105
 40
0.3157894736842105
 40
0.3157894736842105
 40
0.3157894736842105
 40
0.3333333333333333
 40
0.3333333333333333
 40
0.3333333333333333
 40
0.3333333333333333
 40
0.3508771929824561
 40
0.3508771929824561
 40
0.3508771929824561
 40
0.3508771929824561
 40
0.3684210526315789
 40
0.3684210526315789
 40
0.3684210526315789
 40
0.3684210526315789
 40
0.3859649122807017
 40
0.3859649122807017
 40
0.3859649122807017
 40
0.3859649122807017
 40
0.4035087719298245
 40
0.4035087719298245
 40
0.4035087719298245
 40
0.4035087719298245
 40
0.4210526315789474
 40
0.4210526315789474
 40
0.4210526315789474
 40
0.4210526315789474
 40
0.4385964912280702
 40
0.4385964912280702
 40
0.4385964912280702
 40
0.4385964912280702
 40
0.456140350877193
 40
0.456140350877193
 40
0.456140350877193
 40
0.456140350877193
 40
0.4736842105263158
 40
0.4736842105263158
 40
0.4736842105263158
 40
0.4736842105263158
 40
0.4912280701754386
 40
0.4912280701754386
 40
0.4912280701754386
 40
0.4912280701754386
 40
0.5087719298245614
 40
0.5087719298245614
 40
0.5087719298245614
 40
0.5087719298245614
 40
0.5263157894736843
 40
0.5263157894736843
 40
0.5263157894736843
 40
0.5263157894736843
 40
0.5438596491228072
 40
0.5438596491228072
 40
0.5438596491228072
 40
0.5438596491228072
 40
0.56140350877193
 40
0.56140350877193
 40
0.56140350877193
 40
0.56140350877193
 40
0.5789473684210529
 40
0.5789473684210529
 40
0.5789473684210529
 40
0.5789473684210529
 40
0.5964912280701757
 40
0.5964912280701757
 40
0.5964912280701757
 40
0.5964912280701757
 40
0.6140350877192986
 40
0.6140350877192986
 40
0.6140350877192986
 40
0.6140350877192986
 40
0.6315789473684215
 40
0.6315789473684215
 40
0.6315789473684215
 40
0.6315789473684215
 40
0.6491228070175443
 40
0.6491228070175443
 40
0.6491228070175443
 40
0.6491228070175443
 40
0.6666666666666672
 40
0.6666666666666672
 40
0.6666666666666672
 40
0.6666666666666672
 40
0.6842105263157901
 40
0.6842105263157901
 40
0.6842105263157901
 40
0.6842105263157901
 40
0.7017543859649129
 40
0.7017543859649129
 40
0.7017543859649129
 40
0.7017543859649129
 40
0.7192982456140358
 40
0.7192982456140358
 40
0.7192982456140358
 40
0.7192982456140358
 40
0.7368421052631586
 40
0.7368421052631586
 40
0.7368421052631586
 40
0.7368421052631586
 40
0.7543859649122815
 40
0.7543859649122815
 40
0.7543859649122815
 40
0.7543859649122815
 40
0.7719298245614044
 40
0.7719298245614044
 40
0.7719298245614044
 40
0.7719298245614044
 40
0.7894736842105272
 40
0.7894736842105272
 40
0.7894736842105272
 40
0.7894736842105272
 40
0.8070175438596501
 40
0.8070175438596501
 40
0.8070175438596501
 40
0.8070175438596501
 40
0.8245614035087729
 40
0.8245614035087729
 40
0.8245614035087729
 40
0.8245614035087729
 40
0.8421052631578958
 40
0.8421052631578958
 40
0.8421052631578958
 40
0.8421052631578958
 40
0.8596491228070187
 40
0.8596491228070187
 40
0.8596491228070187
 40
0.8596491228070187
 40
0.8771929824561415
 40
0.8771929824561415
 40
0.8771929824561415
 40
0.8771929824561415
 40
0.8947368421052644
 40
0.8947368421052644
 40
0.8947368421052644
 40
0.8947368421052644
 40
0.9122807017543873
 40
0.9122807017543873
 40
0.9122807017543873
 40
0.9122807017543873
 40
0.9298245614035101
 40
0.9298245614035101
 40
0.9298245614035101
 40
0.9298245614035101
 40
0.947368421052633
 40
0.947368421052633
 40
0.947368421052633
 40
0.947368421052633
 40
0.9649122807017558
 40
0.9649122807017558
 40
0.9649122807017558
 40
0.9649122807017558
 40
0.9824561403508787
 40
0.9824561403508787
 40
0.9824561403508787
 40
0.9824561403508787
 40
1.0
 40
1.0
 40
1.0
 40
1.0
 10
-222.13990000000001
 20
-32.826700000000002
 30
0.0
 10
-222.13990000000001
 20
-32.826700000000002
 30
0.0
 10
-222.13050000000001
 20
-22.925700000000003
 30
0.0
 10
-222.13050000000001
 20
-22.925700000000003
 30
0.0
 10
-222.13050000000001
 20
-22.925700000000003
 30
0.0
 10
-222.13050000000001
 20
-22.925700000000003
 30
0.0
 10
-145.07670000000002
 20
-23.003
 30
0.0
 10
-145.07670000000002
 20
-23.003
 30
0.0
 10
-145.07670000000002
 20
-23.003
 30
0.0
 10
-145.07670000000002
 20
-23.003
 30
0.0
 10
-145.0729
 20
-18.995100000000001
 30
0.0
 10
-145.0729
 20
-18.995100000000001
 30
0.0
 10
-145.0729
 20
-18.995100000000001
 30
0.0
 10
-145.0729
 20
-18.995100000000001
 30
0.0
 10
-220.5761
 20
-18.919700000000002
 30
0.0
 10
-220.5761
 20
-18.919700000000002
 30
0.0
 10
-220.5761
 20
-18.919700000000002
 30
0.0
 10
-219.3604
 20
-16.548200000000001
 30
0.0
 10
-217.8793
 20
-14.323700000000001
 30
0.0
 10
-216.16310000000001
 20
-12.287700000000001
 30
0.0
 10
-216.16310000000001
 20
-12.287700000000001
 30
0.0
 10
-215.2071
 20
-10.977500000000001
 30
0.0
 10
-214.1344
 20
-9.7577999999999996
 30
0.0
 10
-212.95820000000001
 20
-8.6399000000000008
 30
0.0
 10
-212.95820000000001
 20
-8.6399000000000008
 30
0.0
 10
-210.12790000000001
 20
-5.5878000000000005
 30
0.0
 10
-206.38850000000002
 20
-3.5310000000000001
 30
0.0
 10
-202.29920000000001
 20
-2.7732000000000001
 30
0.0
 10
-202.29920000000001
 20
-2.7732000000000001
 30
0.0
 10
-202.29920000000001
 20
-2.7732000000000001
 30
0.0
 10
-189.98410000000001
 20
-2.2962000000000002
 30
0.0
 10
-189.98410000000001
 20
-2.2962000000000002
 30
0.0
 10
-189.98410000000001
 20
-2.2962000000000002
 30
0.0
 10
-189.98410000000001
 20
-2.2962000000000002
 30
0.0
 10
-191.8604
 20
4.1907000000000005
 30
0.0
 10
-191.8604
 20
4.1907000000000005
 30
0.0
 10
-191.8604
 20
4.1907000000000005
 30
0.0
 10
-197.37810000000002
 20
2.5562
 30
0.0
 10
-203.27210000000002
 20
5.1276000000000002
 30
0.0
 10
-205.839
 20
10.2873
 30
0.0
 10
-205.839
 20
10.2873
 30
0.0
 10
-208.404
 20
15.447100000000001
 30
0.0
 10
-206.90040000000002
 20
21.709600000000002
 30
0.0
 10
-202.27290000000002
 20
25.136900000000001
 30
0.0
 10
-202.27290000000002
 20
25.136900000000001
 30
0.0
 10
-197.64530000000002
 20
28.5641
 30
0.0
 10
-191.23000000000002
 20
28.168200000000002
 30
0.0
 10
-187.05590000000001
 20
24.198
 30
0.0
 10
-187.05590000000001
 20
24.198
 30
0.0
 10
-182.88380000000001
 20
20.227900000000002
 30
0.0
 10
-182.1574
 20
13.8315
 30
0.0
 10
-185.33590000000001
 20
9.0243000000000002
 30
0.0
 10
-185.33590000000001
 20
9.0243000000000002
 30
0.0
 10
-185.33590000000001
 20
9.0243000000000002
 30
0.0
 10
-177.96080000000001
 20
3.4347000000000003
 30
0.0
 10
-177.96080000000001
 20
3.4347000000000003
 30
0.0
 10
-177.96080000000001
 20
3.4347000000000003
 30
0.0
 10
-162.57820000000001
 20
9.655800000000001
 30
0.0
 10
-146.6292
 20
14.3687
 30
0.0
 10
-130.33780000000002
 20
17.503800000000002
 30
0.0
 10
-130.33780000000002
 20
17.503800000000002
 30
0.0
 10
-124.76740000000001
 20
18.836600000000001
 30
0.0
 10
-119.0634
 20
19.5228
 30
0.0
 10
-113.3387
 20
19.551100000000002
 30
0.0
 10
-113.3387
 20
19.551100000000002
 30
0.0
 10
-113.3387
 20
19.551100000000002
 30
0.0
 10
-61.712900000000005
 20
19.4983
 30
0.0
 10
-61.712900000000005
 20
19.4983
 30
0.0
 10
-61.712900000000005
 20
19.4983
 30
0.0
 10
-61.712900000000005
 20
19.4983
 30
0.0
 10
-61.709100000000007
 20
23.5062
 30
0.0
 10
-61.709100000000007
 20
23.5062
 30
0.0
 10
-61.709100000000007
 20
23.5062
 30
0.0
 10
-61.709100000000007
 20
23.5062
 30
0.0
 10
-94.267600000000002
 20
23.5382
 30
0.0
 10
-94.267600000000002
 20
23.5382
 30
0.0
 10
-94.267600000000002
 20
23.5382
 30
0.0
 10
-93.82350000000001
 20
28.419
 30
0.0
 10
-90.052199999999999
 20
32.334499999999998
 30
0.0
 10
-85.200699999999998
 20
32.954700000000003
 30
0.0
 10
-85.200699999999998
 20
32.954700000000003
 30
0.0
 10
-85.200699999999998
 20
32.954700000000003
 30
0.0
 10
-34.107500000000002
 20
32.903800000000004
 30
0.0
 10
-34.107500000000002
 20
32.903800000000004
 30
0.0
 10
-34.107500000000002
 20
32.903800000000004
 30
0.0
 10
-34.107500000000002
 20
32.903800000000004
 30
0.0
 10
-34.141400000000004
 20
-1.2349000000000001
 30
0.0
 10
-34.141400000000004
 20
-1.2349000000000001
 30
0.0
 10
-34.141400000000004
 20
-1.2349000000000001
 30
0.0
 10
-34.141400000000004
 20
-1.2349000000000001
 30
0.0
 10
-30.140500000000003
 20
-1.2387000000000001
 30
0.0
 10
-30.140500000000003
 20
-1.2387000000000001
 30
0.0
 10
-30.140500000000003
 20
-1.2387000000000001
 30
0.0
 10
-30.140500000000003
 20
-1.2387000000000001
 30
0.0
 10
-30.1066
 20
32.899999999999999
 30
0.0
 10
-30.1066
 20
32.899999999999999
 30
0.0
 10
-30.1066
 20
32.899999999999999
 30
0.0
 10
-30.1066
 20
32.899999999999999
 30
0.0
 10
-17.659800000000001
 20
32.886800000000001
 30
0.0
 10
-17.659800000000001
 20
32.886800000000001
 30
0.0
 10
-17.659800000000001
 20
32.886800000000001
 30
0.0
 10
-17.266500000000001
 20
32.886800000000001
 30
0.0
 10
-16.8901
 20
32.730400000000003
 30
0.0
 10
-16.613500000000002
 20
32.4514
 30
0.0
 10
-16.613500000000002
 20
32.4514
 30
0.0
 10
-16.335000000000001
 20
32.1723
 30
0.0
 10
-16.180600000000002
 20
31.795300000000001
 30
0.0
 10
-16.180600000000002
 20
31.401300000000003
 30
0.0
 10
-16.180600000000002
 20
31.401300000000003
 30
0.0
 10
-16.180600000000002
 20
31.401300000000003
 30
0.0
 10
-16.1844
 20
26.784500000000001
 30
0.0
 10
-16.1844
 20
26.784500000000001
 30
0.0
 10
-16.1844
 20
26.784500000000001
 30
0.0
 10
3.1576
 20
23.949200000000001
 30
0.0
 10
19.3626
 20
10.654900000000001
 30
0.0
 10
25.951000000000001
 20
-7.7821000000000007
 30
0.0
 10
25.951000000000001
 20
-7.7821000000000007
 30
0.0
 10
25.951000000000001
 20
-7.7821000000000007
 30
0.0
 10
31.152600000000003
 20
-7.7878000000000007
 30
0.0
 10
31.152600000000003
 20
-7.7878000000000007
 30
0.0
 10
31.152600000000003
 20
-7.7878000000000007
 30
0.0
 10
31.9373
 20
-7.7878000000000007
 30
0.0
 10
32.692
 20
-8.1006999999999998
 30
0.0
 10
33.247100000000003
 20
-8.6586999999999996
 30
0.0
 10
33.247100000000003
 20
-8.6586999999999996
 30
0.0
 10
33.802300000000002
 20
-9.2167000000000012
 30
0.0
 10
34.1128
 20
-9.9708000000000006
 30
0.0
 10
34.1128
 20
-10.758800000000001
 30
0.0
 10
34.1128
 20
-10.758800000000001
 30
0.0
 10
34.1128
 20
-10.758800000000001
 30
0.0
 10
34.110900000000001
 20
-12.4649
 30
0.0
 10
34.110900000000001
 20
-12.4649
 30
0.0
 10
34.110900000000001
 20
-12.4649
 30
0.0
 10
34.110900000000001
 20
-12.4649
 30
0.0
 10
26.701900000000002
 20
-12.4573
 30
0.0
 10
26.701900000000002
 20
-12.4573
 30
0.0
 10
26.701900000000002
 20
-12.4573
 30
0.0
 10
26.701900000000002
 20
-12.4573
 30
0.0
 10
26.6981
 20
-16.465199999999999
 30
0.0
 10
26.6981
 20
-16.465199999999999
 30
0.0
 10
26.6981
 20
-16.465199999999999
 30
0.0
 10
26.6981
 20
-16.465199999999999
 30
0.0
 10
34.107100000000003
 20
-16.472799999999999
 30
0.0
 10
34.107100000000003
 20
-16.472799999999999
 30
0.0
 10
34.107100000000003
 20
-16.472799999999999
 30
0.0
 10
34.107100000000003
 20
-16.472799999999999
 30
0.0
 10
34.1053
 20
-18.180700000000002
 30
0.0
 10
34.1053
 20
-18.180700000000002
 30
0.0
 10
34.1053
 20
-18.180700000000002
 30
0.0
 10
34.1053
 20
-18.968700000000002
 30
0.0
 10
33.792900000000003
 20
-19.722799999999999
 30
0.0
 10
33.235800000000005
 20
-20.2789
 30
0.0
 10
33.235800000000005
 20
-20.2789
 30
0.0
 10
32.678800000000003
 20
-20.837
 30
0.0
 10
31.924100000000003
 20
-21.148
 30
0.0
 10
31.137500000000003
 20
-21.148
 30
0.0
 10
31.137500000000003
 20
-21.148
 30
0.0
 10
31.137500000000003
 20
-21.148
 30
0.0
 10
26.694400000000002
 20
-21.142400000000002
 30
0.0
 10
26.694400000000002
 20
-21.142400000000002
 30
0.0
 10
26.694400000000002
 20
-21.142400000000002
 30
0.0
 10
24.550900000000002
 20
-25.485800000000001
 30
0.0
 10
20.348700000000001
 20
-28.441800000000001
 30
0.0
 10
15.542300000000001
 20
-28.982800000000001
 30
0.0
 10
15.542300000000001
 20
-28.982800000000001
 30
0.0
 10
15.542300000000001
 20
-28.982800000000001
 30
0.0
 10
-34.005900000000004
 20
-28.933800000000002
 30
0.0
 10
-34.005900000000004
 20
-28.933800000000002
 30
0.0
 10
-34.005900000000004
 20
-28.933800000000002
 30
0.0
 10
-34.005900000000004
 20
-28.933800000000002
 30
0.0
 10
-44.047600000000003
 20
-7.7105000000000006
 30
0.0
 10
-44.047600000000003
 20
-7.7105000000000006
 30
0.0
 10
-44.047600000000003
 20
-7.7105000000000006
 30
0.0
 10
-44.047600000000003
 20
-7.7105000000000006
 30
0.0
 10
-81.2393
 20
-7.6746000000000008
 30
0.0
 10
-81.2393
 20
-7.6746000000000008
 30
0.0
 10
-81.2393
 20
-7.6746000000000008
 30
0.0
 10
-81.2393
 20
-7.6746000000000008
 30
0.0
 10
-81.229900000000001
 20
1.9718
 30
0.0
 10
-81.229900000000001
 20
1.9718
 30
0.0
 10
-81.229900000000001
 20
1.9718
 30
0.0
 10
-81.229900000000001
 20
2.5034000000000001
 30
0.0
 10
-81.440700000000007
 20
3.0143
 30
0.0
 10
-81.815200000000004
 20
3.3895
 30
0.0
 10
-81.815200000000004
 20
3.3895
 30
0.0
 10
-82.189700000000002
 20
3.7665000000000002
 30
0.0
 10
-82.697800000000001
 20
3.9776000000000002
 30
0.0
 10
-83.228500000000011
 20
3.9776000000000002
 30
0.0
 10
-83.228500000000011
 20
3.9776000000000002
 30
0.0
 10
-83.759200000000007
 20
3.9795000000000003
 30
0.0
 10
-84.269199999999998
 20
3.7684000000000002
 30
0.0
 10
-84.64370000000001
 20
3.3932000000000002
 30
0.0
 10
-84.64370000000001
 20
3.3932000000000002
 30
0.0
 10
-85.02000000000001
 20
3.0181
 30
0.0
 10
-85.230800000000002
 20
2.5072000000000001
 30
0.0
 10
-85.230800000000002
 20
1.9756
 30
0.0
 10
-85.230800000000002
 20
1.9756
 30
0.0
 10
-85.230800000000002
 20
1.9756
 30
0.0
 10
-85.264700000000005
 20
-31.448600000000003
 30
0.0
 10
-85.264700000000005
 20
-31.448600000000003
 30
0.0
 10
-85.264700000000005
 20
-31.448600000000003
 30
0.0
 10
-85.264700000000005
 20
-32.236600000000003
 30
0.0
 10
-85.579000000000008
 20
-32.992600000000003
 30
0.0
 10
-86.13600000000001
 20
-33.548700000000004
 30
0.0
 10
-86.13600000000001
 20
-33.548700000000004
 30
0.0
 10
-86.691200000000009
 20
-34.104800000000004
 30
0.0
 10
-87.445800000000006
 20
-34.415900000000001
 30
0.0
 10
-88.232399999999998
 20
-34.415900000000001
 30
0.0
 10
-88.232399999999998
 20
-34.415900000000001
 30
0.0
 10
-88.232399999999998
 20
-34.415900000000001
 30
0.0
 10
-119.4529
 20
-34.383800000000001
 30
0.0
 10
-119.4529
 20
-34.383800000000001
 30
0.0
 10
-119.4529
 20
-34.383800000000001
 30
0.0
 10
-119.4529
 20
-34.383800000000001
 30
0.0
 10
-159.35830000000001
 20
-34.344300000000004
 30
0.0
 10
-159.35830000000001
 20
-34.344300000000004
 30
0.0
 10
-159.35830000000001
 20
-34.344300000000004
 30
0.0
 10
-166.0146
 20
-38.672600000000003
 30
0.0
 10
-170.96960000000001
 20
-45.178400000000003
 30
0.0
 10
-173.38030000000001
 20
-52.751100000000001
 30
0.0
 10
-173.38030000000001
 20
-52.751100000000001
 30
0.0
 10
-176.46470000000002
 20
-63.300600000000003
 30
0.0
 10
-187.167
 20
-69.661200000000008
 30
0.0
 10
-197.88810000000001
 20
-67.319800000000001
 30
0.0
 10
-197.88810000000001
 20
-67.319800000000001
 30
0.0
 10
-212.77000000000001
 20
-62.559700000000007
 30
0.0
 10
-222.6782
 20
-48.468000000000004
 30
0.0
 10
-222.13990000000001
 20
-32.826700000000002
 30
0.0
  0
SPLINE
  5
2B
100
AcDbEntity
  8
Layer 1
370
     5
100
AcDbSpline
210
0.0
220
0.0
230
1.0
 70
     1
 71
     3
 72
    92
 73
    88
 74
     0
 42
0.0000000001
 43
0.0000000001
 40
0.0
 40
0.0
 40
0.0
 40
0.0
 40
0.0454545454545455
 40
0.0454545454545455
 40
0.0454545454545455
 40
0.0454545454545455
 40
0.0909090909090909
 40
0.0909090909090909
 40
0.0909090909090909
 40
0.0909090909090909
 40
0.1363636363636364
 40
0.1363636363636364
 40
0.1363636363636364
 40
0.1363636363636364
 40
0.1818181818181818
 40
0.1818181818181818
 40
0.1818181818181818
 40
0.1818181818181818
 40
0.2272727272727273
 40
0.2272727272727273
 40
0.2272727272727273
 40
0.2272727272727273
 40
0.2727272727272728
 40
0.2727272727272728
 40
0.2727272727272728
 40
0.2727272727272728
 40
0.3181818181818182
 40
0.3181818181818182
 40
0.3181818181818182
 40
0.3181818181818182
 40
0.3636363636363637
 40
0.3636363636363637
 40
0.3636363636363637
 40
0.3636363636363637
 40
0.4090909090909092
 40
0.4090909090909092
 40
0.4090909090909092
 40
0.4090909090909092
 40
0.4545454545454546
 40
0.4545454545454546
 40
0.4545454545454546
 40
0.4545454545454546
 40
0.5000000000000001
 40
0.5000000000000001
 40
0.5000000000000001
 40
0.5000000000000001
 40
0.5454545454545455
 40
0.5454545454545455
 40
0.5454545454545455
 40
0.5454545454545455
 40
0.5909090909090909
 40
0.5909090909090909
 40
0.5909090909090909
 40
0.5909090909090909
 40
0.6363636363636364
 40
0.6363636363636364
 40
0.6363636363636364
 40
0.6363636363636364
 40
0.6818181818181818
 40
0.6818181818181818
 40
0.6818181818181818
 40
0.6818181818181818
 40
0.7272727272727272
 40
0.7272727272727272
 40
0.7272727272727272
 40
0.7272727272727272
 40
0.7727272727272726
 40
0.7727272727272726
 40
0.7727272727272726
 40
0.7727272727272726
 40
0.818181818181818
 40
0.818181818181818
 40
0.818181818181818
 40
0.818181818181818
 40
0.8636363636363634
 40
0.8636363636363634
 40
0.8636363636363634
 40
0.8636363636363634
 40
0.9090909090909088
 40
0.9090909090909088
 40
0.9090909090909088
 40
0.9090909090909088
 40
0.9545454545454543
 40
0.9545454545454543
 40
0.9545454545454543
 40
0.9545454545454543
 40
1.0
 40
1.0
 40
1.0
 40
1.0
 10
-43.703200000000002
 20
-58.874200000000002
 30
0.0
 10
-43.703200000000002
 20
-58.874200000000002
 30
0.0
 10
-33.522200000000005
 20
-58.861000000000004
 30
0.0
 10
-33.522200000000005
 20
-58.861000000000004
 30
0.0
 10
-33.522200000000005
 20
-58.861000000000004
 30
0.0
 10
-31.612100000000002
 20
-64.314800000000005
 30
0.0
 10
-27.4832
 20
-68.701599999999999
 30
0.0
 10
-22.157500000000002
 20
-70.929900000000004
 30
0.0
 10
-22.157500000000002
 20
-70.929900000000004
 30
0.0
 10
-16.589000000000002
 20
-72.445599999999999
 30
0.0
 10
-10.661100000000001
 20
-71.883800000000008
 30
0.0
 10
-5.4746000000000006
 20
-69.350099999999998
 30
0.0
 10
-5.4746000000000006
 20
-69.350099999999998
 30
0.0
 10
-0.401
 20
-66.952200000000005
 30
0.0
 10
3.9970000000000003
 20
-63.3307
 30
0.0
 10
7.3279000000000005
 20
-58.812000000000005
 30
0.0
 10
7.3279000000000005
 20
-58.812000000000005
 30
0.0
 10
7.3279000000000005
 20
-58.812000000000005
 30
0.0
 10
16.308299999999999
 20
-58.800700000000006
 30
0.0
 10
16.308299999999999
 20
-58.800700000000006
 30
0.0
 10
16.308299999999999
 20
-58.800700000000006
 30
0.0
 10
16.308299999999999
 20
-58.800700000000006
 30
0.0
 10
16.3459
 20
-62.936700000000002
 30
0.0
 10
16.3459
 20
-62.936700000000002
 30
0.0
 10
16.3459
 20
-62.936700000000002
 30
0.0
 10
16.3459
 20
-62.936700000000002
 30
0.0
 10
25.209600000000002
 20
-62.995200000000004
 30
0.0
 10
25.209600000000002
 20
-62.995200000000004
 30
0.0
 10
25.209600000000002
 20
-62.995200000000004
 30
0.0
 10
25.209600000000002
 20
-62.995200000000004
 30
0.0
 10
25.2529
 20
-103.321
 30
0.0
 10
25.2529
 20
-103.321
 30
0.0
 10
25.2529
 20
-103.321
 30
0.0
 10
25.2529
 20
-103.321
 30
0.0
 10
16.882200000000001
 20
-103.3323
 30
0.0
 10
16.882200000000001
 20
-103.3323
 30
0.0
 10
16.882200000000001
 20
-103.3323
 30
0.0
 10
16.882200000000001
 20
-103.3323
 30
0.0
 10
16.855900000000002
 20
-82.5501
 30
0.0
 10
16.855900000000002
 20
-82.5501
 30
0.0
 10
16.855900000000002
 20
-82.5501
 30
0.0
 10
16.855900000000002
 20
-82.5501
 30
0.0
 10
12.855
 20
-82.555800000000005
 30
0.0
 10
12.855
 20
-82.555800000000005
 30
0.0
 10
12.855
 20
-82.555800000000005
 30
0.0
 10
12.855
 20
-82.555800000000005
 30
0.0
 10
12.881300000000001
 20
-103.33800000000001
 30
0.0
 10
12.881300000000001
 20
-103.33800000000001
 30
0.0
 10
12.881300000000001
 20
-103.33800000000001
 30
0.0
 10
12.881300000000001
 20
-103.33800000000001
 30
0.0
 10
-13.879100000000001
 20
-103.3681
 30
0.0
 10
-13.879100000000001
 20
-103.3681
 30
0.0
 10
-13.879100000000001
 20
-103.3681
 30
0.0
 10
-13.879100000000001
 20
-103.3681
 30
0.0
 10
-37.391400000000004
 20
-103.39830000000001
 30
0.0
 10
-37.391400000000004
 20
-103.39830000000001
 30
0.0
 10
-37.391400000000004
 20
-103.39830000000001
 30
0.0
 10
-37.391400000000004
 20
-103.39830000000001
 30
0.0
 10
-37.415800000000004
 20
-82.616100000000003
 30
0.0
 10
-37.415800000000004
 20
-82.616100000000003
 30
0.0
 10
-37.415800000000004
 20
-82.616100000000003
 30
0.0
 10
-37.415800000000004
 20
-82.616100000000003
 30
0.0
 10
-41.416699999999999
 20
-82.619900000000001
 30
0.0
 10
-41.416699999999999
 20
-82.619900000000001
 30
0.0
 10
-41.416699999999999
 20
-82.619900000000001
 30
0.0
 10
-41.416699999999999
 20
-82.619900000000001
 30
0.0
 10
-41.392299999999999
 20
-103.4021
 30
0.0
 10
-41.392299999999999
 20
-103.4021
 30
0.0
 10
-41.392299999999999
 20
-103.4021
 30
0.0
 10
-41.392299999999999
 20
-103.4021
 30
0.0
 10
-49.5747
 20
-103.4115
 30
0.0
 10
-49.5747
 20
-103.4115
 30
0.0
 10
-49.5747
 20
-103.4115
 30
0.0
 10
-49.5747
 20
-103.4115
 30
0.0
 10
-49.587900000000005
 20
-93.763199999999998
 30
0.0
 10
-49.599200000000003
 20
-84.114800000000002
 30
0.0
 10
-49.599200000000003
 20
-84.114800000000002
 30
0.0
 10
-49.610500000000002
 20
-74.466500000000011
 30
0.0
 10
-49.623600000000003
 20
-64.818100000000001
 30
0.0
 10
-49.623600000000003
 20
-64.818100000000001
 30
0.0
 10
-49.623600000000003
 20
-64.818100000000001
 30
0.0
 10
-49.623600000000003
 20
-63.244
 30
0.0
 10
-49.002600000000001
 20
-61.732100000000003
 30
0.0
 10
-47.892299999999999
 20
-60.618000000000002
 30
0.0
 10
-47.892299999999999
 20
-60.618000000000002
 30
0.0
 10
-46.782000000000004
 20
-59.503800000000005
 30
0.0
 10
-45.2746
 20
-58.876100000000001
 30
0.0
 10
-43.703200000000002
 20
-58.874200000000002
 30
0.0
  0
SPLINE
  5
2C
100
AcDbEntity
  8
Layer 1
370
     5
100
AcDbSpline
210
0.0
220
0.0
230
1.0
 70
     1
 71
     3
 72
    92
 73
    88
 74
     0
 42
0.0000000001
 43
0.0000000001
 40
0.0
 40
0.0
 40
0.0
 40
0.0
 40
0.0454545454545455
 40
0.0454545454545455
 40
0.0454545454545455
 40
0.0454545454545455
 40
0.0909090909090909
 40
0.0909090909090909
 40
0.0909090909090909
 40
0.0909090909090909
 40
0.1363636363636364
 40
0.1363636363636364
 40
0.1363636363636364
 40
0.1363636363636364
 40
0.1818181818181818
 40
0.1818181818181818
 40
0.1818181818181818
 40
0.1818181818181818
 40
0.2272727272727273
 40
0.2272727272727273
 40
0.2272727272727273
 40
0.2272727272727273
 40
0.2727272727272728
 40
0.2727272727272728
 40
0.2727272727272728
 40
0.2727272727272728
 40
0.3181818181818182
 40
0.3181818181818182
 40
0.3181818181818182
 40
0.3181818181818182
 40
0.3636363636363637
 40
0.3636363636363637
 40
0.3636363636363637
 40
0.3636363636363637
 40
0.4090909090909092
 40
0.4090909090909092
 40
0.4090909090909092
 40
0.4090909090909092
 40
0.4545454545454546
 40
0.4545454545454546
 40
0.4545454545454546
 40
0.4545454545454546
 40
0.5000000000000001
 40
0.5000000000000001
 40
0.5000000000000001
 40
0.5000000000000001
 40
0.5454545454545455
 40
0.5454545454545455
 40
0.5454545454545455
 40
0.5454545454545455
 40
0.5909090909090909
 40
0.5909090909090909
 40
0.5909090909090909
 40
0.5909090909090909
 40
0.6363636363636364
 40
0.6363636363636364
 40
0.6363636363636364
 40
0.6363636363636364
 40
0.6818181818181818
 40
0.6818181818181818
 40
0.6818181818181818
 40
0.6818181818181818
 40
0.7272727272727272
 40
0.7272727272727272
 40
0.7272727272727272
 40
0.7272727272727272
 40
0.7727272727272726
 40
0.7727272727272726
 40
0.7727272727272726
 40
0.7727272727272726
 40
0.818181818181818
 40
0.818181818181818
 40
0.818181818181818
 40
0.818181818181818
 40
0.8636363636363634
 40
0.8636363636363634
 40
0.8636363636363634
 40
0.8636363636363634
 40
0.9090909090909088
 40
0.9090909090909088
 40
0.9090909090909088
 40
0.9090909090909088
 40
0.9545454545454543
 40
0.9545454545454543
 40
0.9545454545454543
 40
0.9545454545454543
 40
1.0
 40
1.0
 40
1.0
 40
1.0
 10
-45.468400000000003
 20
-108.93130000000001
 30
0.0
 10
-45.468400000000003
 20
-108.93130000000001
 30
0.0
 10
-35.289300000000004
 20
-108.91810000000001
 30
0.0
 10
-35.289300000000004
 20
-108.91810000000001
 30
0.0
 10
-35.289300000000004
 20
-108.91810000000001
 30
0.0
 10
-33.379200000000004
 20
-114.37190000000001
 30
0.0
 10
-29.2485
 20
-118.7587
 30
0.0
 10
-23.924600000000002
 20
-120.98700000000001
 30
0.0
 10
-23.924600000000002
 20
-120.98700000000001
 30
0.0
 10
-18.356100000000001
 20
-122.5027
 30
0.0
 10
-12.4282
 20
-121.9409
 30
0.0
 10
-7.2398000000000007
 20
-119.4072
 30
0.0
 10
-7.2398000000000007
 20
-119.4072
 30
0.0
 10
-2.1680999999999999
 20
-117.00930000000001
 30
0.0
 10
2.2299000000000002
 20
-113.3879
 30
0.0
 10
5.5627000000000004
 20
-108.8691
 30
0.0
 10
5.5627000000000004
 20
-108.8691
 30
0.0
 10
5.5627000000000004
 20
-108.8691
 30
0.0
 10
14.5412
 20
-108.85780000000001
 30
0.0
 10
14.5412
 20
-108.85780000000001
 30
0.0
 10
14.5412
 20
-108.85780000000001
 30
0.0
 10
14.5412
 20
-108.85780000000001
 30
0.0
 10
14.578800000000001
 20
-112.992
 30
0.0
 10
14.578800000000001
 20
-112.992
 30
0.0
 10
14.578800000000001
 20
-112.992
 30
0.0
 10
14.578800000000001
 20
-112.992
 30
0.0
 10
20.535
 20
-113.00700000000001
 30
0.0
 10
20.535
 20
-113.00700000000001
 30
0.0
 10
20.535
 20
-113.00700000000001
 30
0.0
 10
20.535
 20
-113.00700000000001
 30
0.0
 10
23.442500000000003
 20
-113.0146
 30
0.0
 10
23.442500000000003
 20
-113.0146
 30
0.0
 10
23.442500000000003
 20
-113.0146
 30
0.0
 10
23.442500000000003
 20
-113.0146
 30
0.0
 10
23.485800000000001
 20
-153.37810000000002
 30
0.0
 10
23.485800000000001
 20
-153.37810000000002
 30
0.0
 10
23.485800000000001
 20
-153.37810000000002
 30
0.0
 10
23.485800000000001
 20
-153.37810000000002
 30
0.0
 10
15.1151
 20
-153.38939999999999
 30
0.0
 10
15.1151
 20
-153.38939999999999
 30
0.0
 10
15.1151
 20
-153.38939999999999
 30
0.0
 10
15.1151
 20
-153.38939999999999
 30
0.0
 10
15.088800000000001
 20
-132.60720000000001
 30
0.0
 10
15.088800000000001
 20
-132.60720000000001
 30
0.0
 10
15.088800000000001
 20
-132.60720000000001
 30
0.0
 10
15.088800000000001
 20
-132.60720000000001
 30
0.0
 10
11.087900000000001
 20
-132.6129
 30
0.0
 10
11.087900000000001
 20
-132.6129
 30
0.0
 10
11.087900000000001
 20
-132.6129
 30
0.0
 10
11.087900000000001
 20
-132.6129
 30
0.0
 10
11.1142
 20
-153.39320000000001
 30
0.0
 10
11.1142
 20
-153.39320000000001
 30
0.0
 10
11.1142
 20
-153.39320000000001
 30
0.0
 10
11.1142
 20
-153.39320000000001
 30
0.0
 10
-15.6462
 20
-153.42530000000002
 30
0.0
 10
-15.6462
 20
-153.42530000000002
 30
0.0
 10
-15.6462
 20
-153.42530000000002
 30
0.0
 10
-15.6462
 20
-153.42530000000002
 30
0.0
 10
-39.156600000000005
 20
-153.4554
 30
0.0
 10
-39.156600000000005
 20
-153.4554
 30
0.0
 10
-39.156600000000005
 20
-153.4554
 30
0.0
 10
-39.156600000000005
 20
-153.4554
 30
0.0
 10
-39.182900000000004
 20
-132.67320000000001
 30
0.0
 10
-39.182900000000004
 20
-132.67320000000001
 30
0.0
 10
-39.182900000000004
 20
-132.67320000000001
 30
0.0
 10
-39.182900000000004
 20
-132.67320000000001
 30
0.0
 10
-43.183800000000005
 20
-132.67699999999999
 30
0.0
 10
-43.183800000000005
 20
-132.67699999999999
 30
0.0
 10
-43.183800000000005
 20
-132.67699999999999
 30
0.0
 10
-43.183800000000005
 20
-132.67699999999999
 30
0.0
 10
-43.157499999999999
 20
-153.45920000000001
 30
0.0
 10
-43.157499999999999
 20
-153.45920000000001
 30
0.0
 10
-43.157499999999999
 20
-153.45920000000001
 30
0.0
 10
-43.157499999999999
 20
-153.45920000000001
 30
0.0
 10
-51.341799999999999
 20
-153.46860000000001
 30
0.0
 10
-51.341799999999999
 20
-153.46860000000001
 30
0.0
 10
-51.341799999999999
 20
-153.46860000000001
 30
0.0
 10
-51.341799999999999
 20
-153.46860000000001
 30
0.0
 10
-51.3889
 20
-114.87530000000001
 30
0.0
 10
-51.3889
 20
-114.87530000000001
 30
0.0
 10
-51.3889
 20
-114.87530000000001
 30
0.0
 10
-51.3889
 20
-113.2993
 30
0.0
 10
-50.767800000000001
 20
-111.78920000000001
 30
0.0
 10
-49.657499999999999
 20
-110.6751
 30
0.0
 10
-49.657499999999999
 20
-110.6751
 30
0.0
 10
-48.549100000000003
 20
-109.5591
 30
0.0
 10
-47.041699999999999
 20
-108.9332
 30
0.0
 10
-45.468400000000003
 20
-108.93130000000001
 30
0.0
  0
SPLINE
  5
2D
100
AcDbEntity
  8
Layer 1
370
     5
100
AcDbSpline
210
0.0
220
0.0
230
1.0
 70
     1
 71
     3
 72
   140
 73
   136
 74
     0
 42
0.0000000001
 43
0.0000000001
 40
0.0
 40
0.0
 40
0.0
 40
0.0
 40
0.0294117647058824
 40
0.0294117647058824
 40
0.0294117647058824
 40
0.0294117647058824
 40
0.0588235294117647
 40
0.0588235294117647
 40
0.0588235294117647
 40
0.0588235294117647
 40
0.0882352941176471
 40
0.0882352941176471
 40
0.0882352941176471
 40
0.0882352941176471
 40
0.1176470588235294
 40
0.1176470588235294
 40
0.1176470588235294
 40
0.1176470588235294
 40
0.1470588235294118
 40
0.1470588235294118
 40
0.1470588235294118
 40
0.1470588235294118
 40
0.1764705882352941
 40
0.1764705882352941
 40
0.1764705882352941
 40
0.1764705882352941
 40
0.2058823529411765
 40
0.2058823529411765
 40
0.2058823529411765
 40
0.2058823529411765
 40
0.2352941176470589
 40
0.2352941176470589
 40
0.2352941176470589
 40
0.2352941176470589
 40
0.2647058823529412
 40
0.2647058823529412
 40
0.2647058823529412
 40
0.2647058823529412
 40
0.2941176470588235
 40
0.2941176470588235
 40
0.2941176470588235
 40
0.2941176470588235
 40
0.3235294117647059
 40
0.3235294117647059
 40
0.3235294117647059
 40
0.3235294117647059
 40
0.3529411764705883
 40
0.3529411764705883
 40
0.3529411764705883
 40
0.3529411764705883
 40
0.3823529411764706
 40
0.3823529411764706
 40
0.3823529411764706
 40
0.3823529411764706
 40
0.411764705882353
 40
0.411764705882353
 40
0.411764705882353
 40
0.411764705882353
 40
0.4411764705882353
 40
0.4411764705882353
 40
0.4411764705882353
 40
0.4411764705882353
 40
0.4705882352941177
 40
0.4705882352941177
 40
0.4705882352941177
 40
0.4705882352941177
 40
0.5
 40
0.5
 40
0.5
 40
0.5
 40
0.5294117647058824
 40
0.5294117647058824
 40
0.5294117647058824
 40
0.5294117647058824
 40
0.5588235294117647
 40
0.5588235294117647
 40
0.5588235294117647
 40
0.5588235294117647
 40
0.5882352941176471
 40
0.5882352941176471
 40
0.5882352941176471
 40
0.5882352941176471
 40
0.6176470588235294
 40
0.6176470588235294
 40
0.6176470588235294
 40
0.6176470588235294
 40
0.6470588235294118
 40
0.6470588235294118
 40
0.6470588235294118
 40
0.6470588235294118
 40
0.6764705882352942
 40
0.6764705882352942
 40
0.6764705882352942
 40
0.6764705882352942
 40
0.7058823529411765
 40
0.7058823529411765
 40
0.7058823529411765
 40
0.7058823529411765
 40
0.7352941176470589
 40
0.7352941176470589
 40
0.7352941176470589
 40
0.7352941176470589
 40
0.7647058823529412
 40
0.7647058823529412
 40
0.7647058823529412
 40
0.7647058823529412
 40
0.7941176470588236
 40
0.7941176470588236
 40
0.7941176470588236
 40
0.7941176470588236
 40
0.823529411764706
 40
0.823529411764706
 40
0.823529411764706
 40
0.823529411764706
 40
0.8529411764705883
 40
0.8529411764705883
 40
0.8529411764705883
 40
0.8529411764705883
 40
0.8823529411764707
 40
0.8823529411764707
 40
0.8823529411764707
 40
0.8823529411764707
 40
0.911764705882353
 40
0.911764705882353
 40
0.911764705882353
 40
0.911764705882353
 40
0.9411764705882354
 40
0.9411764705882354
 40
0.9411764705882354
 40
0.9411764705882354
 40
0.9705882352941178
 40
0.9705882352941178
 40
0.9705882352941178
 40
0.9705882352941178
 40
1.0
 40
1.0
 40
1.0
 40
1.0
 10
-221.84450000000001
 20
-130.41480000000001
 30
0.0
 10
-220.5761
 20
-130.6636
 30
0.0
 10
-219.25880000000001
 20
-130.04910000000001
 30
0.0
 10
-218.3837
 20
-129.1027
 30
0.0
 10
-218.3837
 20
-129.1027
 30
0.0
 10
-217.51050000000001
 20
-128.15630000000002
 30
0.0
 10
-217.07580000000002
 20
-126.87820000000001
 30
0.0
 10
-217.57070000000002
 20
-125.798
 30
0.0
 10
-217.57070000000002
 20
-125.798
 30
0.0
 10
-217.87370000000001
 20
-124.616
 30
0.0
 10
-218.8655
 20
-123.7394
 30
0.0
 10
-220.07550000000001
 20
-123.58850000000001
 30
0.0
 10
-220.07550000000001
 20
-123.58850000000001
 30
0.0
 10
-220.77180000000001
 20
-123.50370000000001
 30
0.0
 10
-221.39280000000002
 20
-123.1097
 30
0.0
 10
-221.76920000000001
 20
-122.51780000000001
 30
0.0
 10
-221.76920000000001
 20
-122.51780000000001
 30
0.0
 10
-223.07520000000002
 20
-120.96250000000001
 30
0.0
 10
-224.19310000000002
 20
-119.25830000000001
 30
0.0
 10
-225.1001
 20
-117.43910000000001
 30
0.0
 10
-225.1001
 20
-117.43910000000001
 30
0.0
 10
-228.51010000000002
 20
-110.0699
 30
0.0
 10
-229.01260000000002
 20
-101.6828
 30
0.0
 10
-226.5078
 20
-93.957300000000004
 30
0.0
 10
-226.5078
 20
-93.957300000000004
 30
0.0
 10
-225.77010000000001
 20
-90.886400000000009
 30
0.0
 10
-224.5205
 20
-87.960599999999999
 30
0.0
 10
-222.8099
 20
-85.306300000000007
 30
0.0
 10
-222.8099
 20
-85.306300000000007
 30
0.0
 10
-221.05030000000002
 20
-82.486000000000004
 30
0.0
 10
-218.8673
 20
-79.9542
 30
0.0
 10
-216.3381
 20
-77.797600000000003
 30
0.0
 10
-216.3381
 20
-77.797600000000003
 30
0.0
 10
-211.73690000000002
 20
-73.648300000000006
 30
0.0
 10
-205.53040000000001
 20
-71.766900000000007
 30
0.0
 10
-199.4049
 20
-72.6661
 30
0.0
 10
-199.4049
 20
-72.6661
 30
0.0
 10
-193.27930000000001
 20
-73.565399999999997
 30
0.0
 10
-187.87270000000001
 20
-77.15100000000001
 30
0.0
 10
-184.65460000000002
 20
-82.448300000000003
 30
0.0
 10
-184.65460000000002
 20
-82.448300000000003
 30
0.0
 10
-178.2449
 20
-91.680000000000007
 30
0.0
 10
-173.52700000000002
 20
-101.97880000000001
 30
0.0
 10
-170.71550000000002
 20
-112.86380000000001
 30
0.0
 10
-170.71550000000002
 20
-112.86380000000001
 30
0.0
 10
-170.32600000000002
 20
-114.37570000000001
 30
0.0
 10
-168.82990000000001
 20
-115.32390000000001
 30
0.0
 10
-167.298
 20
-115.03360000000001
 30
0.0
 10
-167.298
 20
-115.03360000000001
 30
0.0
 10
-167.298
 20
-115.03360000000001
 30
0.0
 10
-134.16550000000001
 20
-108.8182
 30
0.0
 10
-134.16550000000001
 20
-108.8182
 30
0.0
 10
-134.16550000000001
 20
-108.8182
 30
0.0
 10
-134.16550000000001
 20
-108.8182
 30
0.0
 10
-96.339600000000004
 20
-101.7243
 30
0.0
 10
-96.339600000000004
 20
-101.7243
 30
0.0
 10
-96.339600000000004
 20
-101.7243
 30
0.0
 10
-95.903000000000006
 20
-101.63940000000001
 30
0.0
 10
-95.451300000000003
 20
-101.7544
 30
0.0
 10
-95.108800000000002
 20
-102.0391
 30
0.0
 10
-95.108800000000002
 20
-102.0391
 30
0.0
 10
-94.768200000000007
 20
-102.32560000000001
 30
0.0
 10
-94.576300000000003
 20
-102.74980000000001
 30
0.0
 10
-94.576300000000003
 20
-103.19470000000001
 30
0.0
 10
-94.576300000000003
 20
-103.19470000000001
 30
0.0
 10
-94.576300000000003
 20
-103.19470000000001
 30
0.0
 10
-94.788899999999998
 20
-125.6679
 30
0.0
 10
-94.788899999999998
 20
-125.6679
 30
0.0
 10
-94.788899999999998
 20
-125.6679
 30
0.0
 10
-94.788899999999998
 20
-125.6679
 30
0.0
 10
-154.05700000000002
 20
-125.10610000000001
 30
0.0
 10
-154.05700000000002
 20
-125.10610000000001
 30
0.0
 10
-154.05700000000002
 20
-125.10610000000001
 30
0.0
 10
-154.05700000000002
 20
-125.10610000000001
 30
0.0
 10
-154.09470000000002
 20
-129.1121
 30
0.0
 10
-154.09470000000002
 20
-129.1121
 30
0.0
 10
-154.09470000000002
 20
-129.1121
 30
0.0
 10
-154.09470000000002
 20
-129.1121
 30
0.0
 10
-94.826599999999999
 20
-129.67580000000001
 30
0.0
 10
-94.826599999999999
 20
-129.67580000000001
 30
0.0
 10
-94.826599999999999
 20
-129.67580000000001
 30
0.0
 10
-94.826599999999999
 20
-129.67580000000001
 30
0.0
 10
-95.039200000000008
 20
-152.2508
 30
0.0
 10
-95.039200000000008
 20
-152.2508
 30
0.0
 10
-95.039200000000008
 20
-152.2508
 30
0.0
 10
-95.039200000000008
 20
-152.69759999999999
 30
0.0
 10
-95.246200000000002
 20
-153.11799999999999
 30
0.0
 10
-95.594400000000007
 20
-153.39700000000002
 30
0.0
 10
-95.594400000000007
 20
-153.39700000000002
 30
0.0
 10
-95.940600000000003
 20
-153.67600000000002
 30
0.0
 10
-96.396000000000001
 20
-153.7834
 30
0.0
 10
-96.830800000000011
 20
-153.69110000000001
 30
0.0
 10
-96.830800000000011
 20
-153.69110000000001
 30
0.0
 10
-96.830800000000011
 20
-153.69110000000001
 30
0.0
 10
-132.1782
 20
-146.36340000000001
 30
0.0
 10
-132.1782
 20
-146.36340000000001
 30
0.0
 10
-132.1782
 20
-146.36340000000001
 30
0.0
 10
-132.1782
 20
-146.36340000000001
 30
0.0
 10
-167.5257
 20
-139.03570000000002
 30
0.0
 10
-167.5257
 20
-139.03570000000002
 30
0.0
 10
-167.5257
 20
-139.03570000000002
 30
0.0
 10
-169.05190000000002
 20
-138.71520000000001
 30
0.0
 10
-170.565
 20
-139.6352
 30
0.0
 10
-170.9846
 20
-141.1396
 30
0.0
 10
-170.9846
 20
-141.1396
 30
0.0
 10
-173.99940000000001
 20
-151.9699
 30
0.0
 10
-178.91300000000001
 20
-162.1781
 30
0.0
 10
-185.4958
 20
-171.28540000000001
 30
0.0
 10
-185.4958
 20
-171.28540000000001
 30
0.0
 10
-188.8117
 20
-176.5206
 30
0.0
 10
-194.2843
 20
-180.0044
 30
0.0
 10
-200.4248
 20
-180.79050000000001
 30
0.0
 10
-200.4248
 20
-180.79050000000001
 30
0.0
 10
-206.56540000000001
 20
-181.57470000000001
 30
0.0
 10
-212.73610000000002
 20
-179.58020000000002
 30
0.0
 10
-217.2602
 20
-175.34800000000001
 30
0.0
 10
-217.2602
 20
-175.34800000000001
 30
0.0
 10
-219.74810000000002
 20
-173.1404
 30
0.0
 10
-221.88400000000001
 20
-170.5615
 30
0.0
 10
-223.589
 20
-167.70359999999999
 30
0.0
 10
-223.589
 20
-167.70359999999999
 30
0.0
 10
-225.24880000000002
 20
-165.0172
 30
0.0
 10
-226.4419
 20
-162.06880000000001
 30
0.0
 10
-227.1232
 20
-158.9846
 30
0.0
 10
-227.1232
 20
-158.9846
 30
0.0
 10
-229.2252
 20
-152.05850000000001
 30
0.0
 10
-228.93540000000002
 20
-144.62520000000001
 30
0.0
 10
-226.30080000000001
 20
-137.88380000000001
 30
0.0
 10
-226.30080000000001
 20
-137.88380000000001
 30
0.0
 10
-225.82660000000001
 20
-136.50200000000001
 30
0.0
 10
-225.19800000000001
 20
-135.17670000000001
 30
0.0
 10
-224.42450000000002
 20
-133.93630000000002
 30
0.0
 10
-224.42450000000002
 20
-133.93630000000002
 30
0.0
 10
-223.6661
 20
-132.69210000000001
 30
0.0
 10
-222.80240000000001
 20
-131.5138
 30
0.0
 10
-221.84450000000001
 20
-130.41480000000001
 30
0.0
  0
SPLINE
  5
2E
100
AcDbEntity
  8
Layer 1
370
     5
100
AcDbSpline
210
0.0
220
0.0
230
1.0
 70
     1
 71
     3
 72
   208
 73
   204
 74
     0
 42
0.0000000001
 43
0.0000000001
 40
0.0
 40
0.0
 40
0.0
 40
0.0
 40
0.0196078431372549
 40
0.0196078431372549
 40
0.0196078431372549
 40
0.0196078431372549
 40
0.0392156862745098
 40
0.0392156862745098
 40
0.0392156862745098
 40
0.0392156862745098
 40
0.0588235294117647
 40
0.0588235294117647
 40
0.0588235294117647
 40
0.0588235294117647
 40
0.0784313725490196
 40
0.0784313725490196
 40
0.0784313725490196
 40
0.0784313725490196
 40
0.0980392156862745
 40
0.0980392156862745
 40
0.0980392156862745
 40
0.0980392156862745
 40
0.1176470588235294
 40
0.1176470588235294
 40
0.1176470588235294
 40
0.1176470588235294
 40
0.1372549019607843
 40
0.1372549019607843
 40
0.1372549019607843
 40
0.1372549019607843
 40
0.1568627450980392
 40
0.1568627450980392
 40
0.1568627450980392
 40
0.1568627450980392
 40
0.1764705882352941
 40
0.1764705882352941
 40
0.1764705882352941
 40
0.1764705882352941
 40
0.196078431372549
 40
0.196078431372549
 40
0.196078431372549
 40
0.196078431372549
 40
0.2156862745098039
 40
0.2156862745098039
 40
0.2156862745098039
 40
0.2156862745098039
 40
0.2352941176470588
 40
0.2352941176470588
 40
0.2352941176470588
 40
0.2352941176470588
 40
0.2549019607843137
 40
0.2549019607843137
 40
0.2549019607843137
 40
0.2549019607843137
 40
0.2745098039215685
 40
0.2745098039215685
 40
0.2745098039215685
 40
0.2745098039215685
 40
0.2941176470588234
 40
0.2941176470588234
 40
0.2941176470588234
 40
0.2941176470588234
 40
0.3137254901960783
 40
0.3137254901960783
 40
0.3137254901960783
 40
0.3137254901960783
 40
0.3333333333333332
 40
0.3333333333333332
 40
0.3333333333333332
 40
0.3333333333333332
 40
0.3529411764705881
 40
0.3529411764705881
 40
0.3529411764705881
 40
0.3529411764705881
 40
0.372549019607843
 40
0.372549019607843
 40
0.372549019607843
 40
0.372549019607843
 40
0.3921568627450979
 40
0.3921568627450979
 40
0.3921568627450979
 40
0.3921568627450979
 40
0.4117647058823528
 40
0.4117647058823528
 40
0.4117647058823528
 40
0.4117647058823528
 40
0.4313725490196076
 40
0.4313725490196076
 40
0.4313725490196076
 40
0.4313725490196076
 40
0.4509803921568625
 40
0.4509803921568625
 40
0.4509803921568625
 40
0.4509803921568625
 40
0.4705882352941174
 40
0.4705882352941174
 40
0.4705882352941174
 40
0.4705882352941174
 40
0.4901960784313723
 40
0.4901960784313723
 40
0.4901960784313723
 40
0.4901960784313723
 40
0.5098039215686272
 40
0.5098039215686272
 40
0.5098039215686272
 40
0.5098039215686272
 40
0.5294117647058821
 40
0.5294117647058821
 40
0.5294117647058821
 40
0.5294117647058821
 40
0.5490196078431371
 40
0.5490196078431371
 40
0.5490196078431371
 40
0.5490196078431371
 40
0.568627450980392
 40
0.568627450980392
 40
0.568627450980392
 40
0.568627450980392
 40
0.588235294117647
 40
0.588235294117647
 40
0.588235294117647
 40
0.588235294117647
 40
0.6078431372549019
 40
0.6078431372549019
 40
0.6078431372549019
 40
0.6078431372549019
 40
0.6274509803921569
 40
0.6274509803921569
 40
0.6274509803921569
 40
0.6274509803921569
 40
0.6470588235294118
 40
0.6470588235294118
 40
0.6470588235294118
 40
0.6470588235294118
 40
0.6666666666666667
 40
0.6666666666666667
 40
0.6666666666666667
 40
0.6666666666666667
 40
0.6862745098039217
 40
0.6862745098039217
 40
0.6862745098039217
 40
0.6862745098039217
 40
0.7058823529411766
 40
0.7058823529411766
 40
0.7058823529411766
 40
0.7058823529411766
 40
0.7254901960784316
 40
0.7254901960784316
 40
0.7254901960784316
 40
0.7254901960784316
 40
0.7450980392156865
 40
0.7450980392156865
 40
0.7450980392156865
 40
0.7450980392156865
 40
0.7647058823529415
 40
0.7647058823529415
 40
0.7647058823529415
 40
0.7647058823529415
 40
0.7843137254901964
 40
0.7843137254901964
 40
0.7843137254901964
 40
0.7843137254901964
 40
0.8039215686274513
 40
0.8039215686274513
 40
0.8039215686274513
 40
0.8039215686274513
 40
0.8235294117647063
 40
0.8235294117647063
 40
0.8235294117647063
 40
0.8235294117647063
 40
0.8431372549019612
 40
0.8431372549019612
 40
0.8431372549019612
 40
0.8431372549019612
 40
0.8627450980392162
 40
0.8627450980392162
 40
0.8627450980392162
 40
0.8627450980392162
 40
0.8823529411764711
 40
0.8823529411764711
 40
0.8823529411764711
 40
0.8823529411764711
 40
0.9019607843137261
 40
0.9019607843137261
 40
0.9019607843137261
 40
0.9019607843137261
 40
0.921568627450981
 40
0.921568627450981
 40
0.921568627450981
 40
0.921568627450981
 40
0.941176470588236
 40
0.941176470588236
 40
0.941176470588236
 40
0.941176470588236
 40
0.9607843137254909
 40
0.9607843137254909
 40
0.9607843137254909
 40
0.9607843137254909
 40
0.9803921568627458
 40
0.9803921568627458
 40
0.9803921568627458
 40
0.9803921568627458
 40
1.0
 40
1.0
 40
1.0
 40
1.0
 10
-20.921100000000003
 20
72.217300000000009
 30
0.0
 10
-20.921100000000003
 20
72.217300000000009
 30
0.0
 10
-20.9268
 20
103.2115
 30
0.0
 10
-20.9268
 20
103.2115
 30
0.0
 10
-20.9268
 20
103.2115
 30
0.0
 10
-20.9268
 20
103.60550000000001
 30
0.0
 10
-21.083000000000002
 20
103.9825
 30
0.0
 10
-21.3596
 20
104.2615
 30
0.0
 10
-21.3596
 20
104.2615
 30
0.0
 10
-21.638100000000001
 20
104.53870000000001
 30
0.0
 10
-22.014500000000002
 20
104.69510000000001
 30
0.0
 10
-22.407800000000002
 20
104.69510000000001
 30
0.0
 10
-22.407800000000002
 20
104.69510000000001
 30
0.0
 10
-22.407800000000002
 20
104.69510000000001
 30
0.0
 10
-37.190000000000005
 20
104.6932
 30
0.0
 10
-37.190000000000005
 20
104.6932
 30
0.0
 10
-37.190000000000005
 20
104.6932
 30
0.0
 10
-37.190000000000005
 20
104.6932
 30
0.0
 10
-55.630600000000001
 20
104.6914
 30
0.0
 10
-55.630600000000001
 20
104.6914
 30
0.0
 10
-55.630600000000001
 20
104.6914
 30
0.0
 10
-56.420999999999999
 20
104.6914
 30
0.0
 10
-57.072100000000006
 20
104.0711
 30
0.0
 10
-57.111700000000006
 20
103.27940000000001
 30
0.0
 10
-57.111700000000006
 20
103.27940000000001
 30
0.0
 10
-57.787300000000002
 20
90.629800000000003
 30
0.0
 10
-68.222300000000004
 20
80.717600000000004
 30
0.0
 10
-80.868600000000001
 20
80.715699999999998
 30
0.0
 10
-80.868600000000001
 20
80.715699999999998
 30
0.0
 10
-93.514900000000011
 20
80.713800000000006
 30
0.0
 10
-103.95370000000001
 20
90.62230000000001
 30
0.0
 10
-104.6331
 20
103.2718
 30
0.0
 10
-104.6331
 20
103.2718
 30
0.0
 10
-104.6726
 20
104.06360000000001
 30
0.0
 10
-105.32560000000001
 20
104.68380000000001
 30
0.0
 10
-106.116
 20
104.6819
 30
0.0
 10
-106.116
 20
104.6819
 30
0.0
 10
-106.116
 20
104.6819
 30
0.0
 10
-139.2936
 20
104.6782
 30
0.0
 10
-139.2936
 20
104.6782
 30
0.0
 10
-139.2936
 20
104.6782
 30
0.0
 10
-139.68510000000001
 20
104.6782
 30
0.0
 10
-140.0633
 20
104.52170000000001
 30
0.0
 10
-140.34
 20
104.2427
 30
0.0
 10
-140.34
 20
104.2427
 30
0.0
 10
-140.61850000000001
 20
103.9637
 30
0.0
 10
-140.7747
 20
103.5866
 30
0.0
 10
-140.7747
 20
103.1926
 30
0.0
 10
-140.7747
 20
103.1926
 30
0.0
 10
-140.7747
 20
103.1926
 30
0.0
 10
-140.76900000000001
 20
72.198400000000007
 30
0.0
 10
-140.76900000000001
 20
72.198400000000007
 30
0.0
 10
-140.76900000000001
 20
72.198400000000007
 30
0.0
 10
-140.76900000000001
 20
71.091800000000006
 30
0.0
 10
-141.66480000000001
 20
70.194500000000005
 30
0.0
 10
-142.76949999999999
 20
70.194500000000005
 30
0.0
 10
-142.76949999999999
 20
70.194500000000005
 30
0.0
 10
-143.8742
 20
70.194500000000005
 30
0.0
 10
-144.76990000000001
 20
71.091800000000006
 30
0.0
 10
-144.76990000000001
 20
72.198400000000007
 30
0.0
 10
-144.76990000000001
 20
72.198400000000007
 30
0.0
 10
-144.76990000000001
 20
72.198400000000007
 30
0.0
 10
-144.7756
 20
103.1926
 30
0.0
 10
-144.7756
 20
103.1926
 30
0.0
 10
-144.7756
 20
103.1926
 30
0.0
 10
-144.7756
 20
103.5866
 30
0.0
 10
-144.93180000000001
 20
103.9637
 30
0.0
 10
-145.20840000000001
 20
104.2427
 30
0.0
 10
-145.20840000000001
 20
104.2427
 30
0.0
 10
-145.48690000000002
 20
104.5198
 30
0.0
 10
-145.86330000000001
 20
104.67630000000001
 30
0.0
 10
-146.25660000000002
 20
104.67630000000001
 30
0.0
 10
-146.25660000000002
 20
104.67630000000001
 30
0.0
 10
-146.25660000000002
 20
104.67630000000001
 30
0.0
 10
-178.17340000000002
 20
104.67060000000001
 30
0.0
 10
-178.17340000000002
 20
104.67060000000001
 30
0.0
 10
-178.17340000000002
 20
104.67060000000001
 30
0.0
 10
-178.5667
 20
104.67060000000001
 30
0.0
 10
-178.94310000000002
 20
104.5141
 30
0.0
 10
-179.2216
 20
104.23700000000001
 30
0.0
 10
-179.2216
 20
104.23700000000001
 30
0.0
 10
-179.50020000000001
 20
103.958
 30
0.0
 10
-179.65450000000001
 20
103.581
 30
0.0
 10
-179.65450000000001
 20
103.18700000000001
 30
0.0
 10
-179.65450000000001
 20
103.18700000000001
 30
0.0
 10
-179.65450000000001
 20
103.18700000000001
 30
0.0
 10
-179.6507
 20
72.192800000000005
 30
0.0
 10
-179.6507
 20
72.192800000000005
 30
0.0
 10
-179.6507
 20
72.192800000000005
 30
0.0
 10
-179.6507
 20
71.086200000000005
 30
0.0
 10
-180.54650000000001
 20
70.188800000000001
 30
0.0
 10
-181.65110000000001
 20
70.186999999999998
 30
0.0
 10
-181.65110000000001
 20
70.186999999999998
 30
0.0
 10
-182.75580000000002
 20
70.186999999999998
 30
0.0
 10
-183.65350000000001
 20
71.084299999999999
 30
0.0
 10
-183.65350000000001
 20
72.192800000000005
 30
0.0
 10
-183.65350000000001
 20
72.192800000000005
 30
0.0
 10
-183.65350000000001
 20
72.192800000000005
 30
0.0
 10
-183.65720000000002
 20
103.18700000000001
 30
0.0
 10
-183.65720000000002
 20
103.18700000000001
 30
0.0
 10
-183.65720000000002
 20
103.18700000000001
 30
0.0
 10
-183.65720000000002
 20
103.57910000000001
 30
0.0
 10
-183.8134
 20
103.958
 30
0.0
 10
-184.09200000000001
 20
104.2351
 30
0.0
 10
-184.09200000000001
 20
104.2351
 30
0.0
 10
-184.37050000000002
 20
104.5141
 30
0.0
 10
-184.74690000000001
 20
104.67060000000001
 30
0.0
 10
-185.14020000000002
 20
104.67060000000001
 30
0.0
 10
-185.14020000000002
 20
104.67060000000001
 30
0.0
 10
-185.14020000000002
 20
104.67060000000001
 30
0.0
 10
-196.99420000000001
 20
104.6687
 30
0.0
 10
-196.99420000000001
 20
104.6687
 30
0.0
 10
-196.99420000000001
 20
104.6687
 30
0.0
 10
-215.12430000000001
 20
104.66500000000001
 30
0.0
 10
-229.8801
 20
90.058599999999998
 30
0.0
 10
-230.1003
 20
71.898700000000005
 30
0.0
 10
-230.1003
 20
71.898700000000005
 30
0.0
 10
-230.32050000000001
 20
53.736900000000006
 30
0.0
 10
-215.92410000000001
 20
38.7761
 30
0.0
 10
-197.7996
 20
38.331200000000003
 30
0.0
 10
-197.7996
 20
38.331200000000003
 30
0.0
 10
-197.7996
 20
38.331200000000003
 30
0.0
 10
-100.48910000000001
 20
38.346299999999999
 30
0.0
 10
-100.48910000000001
 20
38.346299999999999
 30
0.0
 10
-100.48910000000001
 20
38.346299999999999
 30
0.0
 10
-100.48910000000001
 20
38.346299999999999
 30
0.0
 10
-3.1787000000000001
 20
38.361400000000003
 30
0.0
 10
-3.1787000000000001
 20
38.361400000000003
 30
0.0
 10
-3.1787000000000001
 20
38.361400000000003
 30
0.0
 10
-3.1787000000000001
 20
38.361400000000003
 30
0.0
 10
37.880299999999998
 20
38.367000000000004
 30
0.0
 10
37.880299999999998
 20
38.367000000000004
 30
0.0
 10
37.880299999999998
 20
38.367000000000004
 30
0.0
 10
56.004800000000003
 20
38.370800000000003
 30
0.0
 10
70.756900000000002
 20
52.975300000000004
 30
0.0
 10
70.973300000000009
 20
71.129500000000007
 30
0.0
 10
70.973300000000009
 20
71.129500000000007
 30
0.0
 10
71.189700000000002
 20
89.285700000000006
 30
0.0
 10
56.791400000000003
 20
104.2389
 30
0.0
 10
38.670700000000004
 20
104.67630000000001
 30
0.0
 10
38.670700000000004
 20
104.67630000000001
 30
0.0
 10
38.207799999999999
 20
104.69510000000001
 30
0.0
 10
37.742899999999999
 20
104.7046
 30
0.0
 10
37.278100000000002
 20
104.7046
 30
0.0
 10
37.278100000000002
 20
104.7046
 30
0.0
 10
37.278100000000002
 20
104.7046
 30
0.0
 10
26.045100000000001
 20
104.70270000000001
 30
0.0
 10
26.045100000000001
 20
104.70270000000001
 30
0.0
 10
26.045100000000001
 20
104.70270000000001
 30
0.0
 10
25.651800000000001
 20
104.70270000000001
 30
0.0
 10
25.275400000000001
 20
104.5462
 30
0.0
 10
24.9969
 20
104.26910000000001
 30
0.0
 10
24.9969
 20
104.26910000000001
 30
0.0
 10
24.718400000000003
 20
103.9901
 30
0.0
 10
24.562200000000001
 20
103.613
 30
0.0
 10
24.562200000000001
 20
103.21900000000001
 30
0.0
 10
24.562200000000001
 20
103.21900000000001
 30
0.0
 10
24.562200000000001
 20
103.21900000000001
 30
0.0
 10
24.567900000000002
 20
72.224800000000002
 30
0.0
 10
24.567900000000002
 20
72.224800000000002
 30
0.0
 10
24.567900000000002
 20
72.224800000000002
 30
0.0
 10
24.567900000000002
 20
71.118200000000002
 30
0.0
 10
23.6721
 20
70.2209
 30
0.0
 10
22.567400000000003
 20
70.2209
 30
0.0
 10
22.567400000000003
 20
70.2209
 30
0.0
 10
21.462700000000002
 20
70.2209
 30
0.0
 10
20.567
 20
71.11630000000001
 30
0.0
 10
20.567
 20
72.224800000000002
 30
0.0
 10
20.567
 20
72.224800000000002
 30
0.0
 10
20.567
 20
72.224800000000002
 30
0.0
 10
20.561299999999999
 20
103.2171
 30
0.0
 10
20.561299999999999
 20
103.2171
 30
0.0
 10
20.561299999999999
 20
103.2171
 30
0.0
 10
20.561299999999999
 20
103.61110000000001
 30
0.0
 10
20.405100000000001
 20
103.9901
 30
0.0
 10
20.128500000000003
 20
104.2672
 30
0.0
 10
20.128500000000003
 20
104.2672
 30
0.0
 10
19.850000000000001
 20
104.5462
 30
0.0
 10
19.473600000000001
 20
104.70270000000001
 30
0.0
 10
19.080300000000001
 20
104.70270000000001
 30
0.0
 10
19.080300000000001
 20
104.70270000000001
 30
0.0
 10
19.080300000000001
 20
104.70270000000001
 30
0.0
 10
-15.442900000000002
 20
104.697
 30
0.0
 10
-15.442900000000002
 20
104.697
 30
0.0
 10
-15.442900000000002
 20
104.697
 30
0.0
 10
-15.836300000000001
 20
104.697
 30
0.0
 10
-16.214500000000001
 20
104.54050000000001
 30
0.0
 10
-16.491099999999999
 20
104.2615
 30
0.0
 10
-16.491099999999999
 20
104.2615
 30
0.0
 10
-16.7697
 20
103.9825
 30
0.0
 10
-16.925900000000002
 20
103.60550000000001
 30
0.0
 10
-16.925900000000002
 20
103.2115
 30
0.0
 10
-16.925900000000002
 20
103.2115
 30
0.0
 10
-16.925900000000002
 20
103.2115
 30
0.0
 10
-16.920200000000001
 20
72.217300000000009
 30
0.0
 10
-16.920200000000001
 20
72.217300000000009
 30
0.0
 10
-16.920200000000001
 20
72.217300000000009
 30
0.0
 10
-16.920200000000001
 20
71.110700000000008
 30
0.0
 10
-17.816000000000003
 20
70.213300000000004
 30
0.0
 10
-18.9207
 20
70.213300000000004
 30
0.0
 10
-18.9207
 20
70.213300000000004
 30
0.0
 10
-20.025300000000001
 20
70.213300000000004
 30
0.0
 10
-20.921100000000003
 20
71.110700000000008
 30
0.0
 10
-20.921100000000003
 20
72.217300000000009
 30
0.0
  0
SPLINE
  5
2F
100
AcDbEntity
  8
Layer 1
370
     5
100
AcDbSpline
210
0.0
220
0.0
230
1.0
 70
     1
 71
     3
 72
   212
 73
   208
 74
     0
 42
0.0000000001
 43
0.0000000001
 40
0.0
 40
0.0
 40
0.0
 40
0.0
 40
0.0192307692307692
 40
0.0192307692307692
 40
0.0192307692307692
 40
0.0192307692307692
 40
0.0384615384615385
 40
0.0384615384615385
 40
0.0384615384615385
 40
0.0384615384615385
 40
0.0576923076923077
 40
0.0576923076923077
 40
0.0576923076923077
 40
0.0576923076923077
 40
0.0769230769230769
 40
0.0769230769230769
 40
0.0769230769230769
 40
0.0769230769230769
 40
0.0961538461538462
 40
0.0961538461538462
 40
0.0961538461538462
 40
0.0961538461538462
 40
0.1153846153846154
 40
0.1153846153846154
 40
0.1153846153846154
 40
0.1153846153846154
 40
0.1346153846153846
 40
0.1346153846153846
 40
0.1346153846153846
 40
0.1346153846153846
 40
0.1538461538461539
 40
0.1538461538461539
 40
0.1538461538461539
 40
0.1538461538461539
 40
0.1730769230769231
 40
0.1730769230769231
 40
0.1730769230769231
 40
0.1730769230769231
 40
0.1923076923076923
 40
0.1923076923076923
 40
0.1923076923076923
 40
0.1923076923076923
 40
0.2115384615384615
 40
0.2115384615384615
 40
0.2115384615384615
 40
0.2115384615384615
 40
0.2307692307692307
 40
0.2307692307692307
 40
0.2307692307692307
 40
0.2307692307692307
 40
0.2499999999999999
 40
0.2499999999999999
 40
0.2499999999999999
 40
0.2499999999999999
 40
0.2692307692307692
 40
0.2692307692307692
 40
0.2692307692307692
 40
0.2692307692307692
 40
0.2884615384615384
 40
0.2884615384615384
 40
0.2884615384615384
 40
0.2884615384615384
 40
0.3076923076923076
 40
0.3076923076923076
 40
0.3076923076923076
 40
0.3076923076923076
 40
0.3269230769230768
 40
0.3269230769230768
 40
0.3269230769230768
 40
0.3269230769230768
 40
0.346153846153846
 40
0.346153846153846
 40
0.346153846153846
 40
0.346153846153846
 40
0.3653846153846153
 40
0.3653846153846153
 40
0.3653846153846153
 40
0.3653846153846153
 40
0.3846153846153845
 40
0.3846153846153845
 40
0.3846153846153845
 40
0.3846153846153845
 40
0.4038461538461537
 40
0.4038461538461537
 40
0.4038461538461537
 40
0.4038461538461537
 40
0.4230769230769229
 40
0.4230769230769229
 40
0.4230769230769229
 40
0.4230769230769229
 40
0.4423076923076921
 40
0.4423076923076921
 40
0.4423076923076921
 40
0.4423076923076921
 40
0.4615384615384613
 40
0.4615384615384613
 40
0.4615384615384613
 40
0.4615384615384613
 40
0.4807692307692306
 40
0.4807692307692306
 40
0.4807692307692306
 40
0.4807692307692306
 40
0.4999999999999998
 40
0.4999999999999998
 40
0.4999999999999998
 40
0.4999999999999998
 40
0.5192307692307691
 40
0.5192307692307691
 40
0.5192307692307691
 40
0.5192307692307691
 40
0.5384615384615383
 40
0.5384615384615383
 40
0.5384615384615383
 40
0.5384615384615383
 40
0.5576923076923076
 40
0.5576923076923076
 40
0.5576923076923076
 40
0.5576923076923076
 40
0.5769230769230769
 40
0.5769230769230769
 40
0.5769230769230769
 40
0.5769230769230769
 40
0.5961538461538462
 40
0.5961538461538462
 40
0.5961538461538462
 40
0.5961538461538462
 40
0.6153846153846154
 40
0.6153846153846154
 40
0.6153846153846154
 40
0.6153846153846154
 40
0.6346153846153847
 40
0.6346153846153847
 40
0.6346153846153847
 40
0.6346153846153847
 40
0.653846153846154
 40
0.653846153846154
 40
0.653846153846154
 40
0.653846153846154
 40
0.6730769230769232
 40
0.6730769230769232
 40
0.6730769230769232
 40
0.6730769230769232
 40
0.6923076923076925
 40
0.6923076923076925
 40
0.6923076923076925
 40
0.6923076923076925
 40
0.7115384615384618
 40
0.7115384615384618
 40
0.7115384615384618
 40
0.7115384615384618
 40
0.7307692307692311
 40
0.7307692307692311
 40
0.7307692307692311
 40
0.7307692307692311
 40
0.7500000000000003
 40
0.7500000000000003
 40
0.7500000000000003
 40
0.7500000000000003
 40
0.7692307692307696
 40
0.7692307692307696
 40
0.7692307692307696
 40
0.7692307692307696
 40
0.7884615384615389
 40
0.7884615384615389
 40
0.7884615384615389
 40
0.7884615384615389
 40
0.8076923076923082
 40
0.8076923076923082
 40
0.8076923076923082
 40
0.8076923076923082
 40
0.8269230769230774
 40
0.8269230769230774
 40
0.8269230769230774
 40
0.8269230769230774
 40
0.8461538461538467
 40
0.8461538461538467
 40
0.8461538461538467
 40
0.8461538461538467
 40
0.865384615384616
 40
0.865384615384616
 40
0.865384615384616
 40
0.865384615384616
 40
0.8846153846153853
 40
0.8846153846153853
 40
0.8846153846153853
 40
0.8846153846153853
 40
0.9038461538461545
 40
0.9038461538461545
 40
0.9038461538461545
 40
0.9038461538461545
 40
0.9230769230769238
 40
0.9230769230769238
 40
0.9230769230769238
 40
0.9230769230769238
 40
0.9423076923076931
 40
0.9423076923076931
 40
0.9423076923076931
 40
0.9423076923076931
 40
0.9615384615384623
 40
0.9615384615384623
 40
0.9615384615384623
 40
0.9615384615384623
 40
0.9807692307692316
 40
0.9807692307692316
 40
0.9807692307692316
 40
0.9807692307692316
 40
1.0
 40
1.0
 40
1.0
 40
1.0
 10
-183.4898
 20
144.49880000000002
 30
0.0
 10
-183.4898
 20
144.49880000000002
 30
0.0
 10
-183.49540000000002
 20
176.97660000000002
 30
0.0
 10
-183.49540000000002
 20
176.97660000000002
 30
0.0
 10
-183.49540000000002
 20
176.97660000000002
 30
0.0
 10
-183.49540000000002
 20
176.97660000000002
 30
0.0
 10
-196.01750000000001
 20
176.97470000000001
 30
0.0
 10
-196.01750000000001
 20
176.97470000000001
 30
0.0
 10
-196.01750000000001
 20
176.97470000000001
 30
0.0
 10
-204.79840000000002
 20
177.18960000000001
 30
0.0
 10
-213.3064
 20
173.90190000000001
 30
0.0
 10
-219.6671
 20
167.83350000000002
 30
0.0
 10
-219.6671
 20
167.83350000000002
 30
0.0
 10
-226.02790000000002
 20
161.76510000000002
 30
0.0
 10
-229.72210000000001
 20
153.41380000000001
 30
0.0
 10
-229.9385
 20
144.61750000000001
 30
0.0
 10
-229.9385
 20
144.61750000000001
 30
0.0
 10
-230.15300000000002
 20
135.8194
 30
0.0
 10
-226.8691
 20
127.2984
 30
0.0
 10
-220.81320000000002
 20
120.9265
 30
0.0
 10
-220.81320000000002
 20
120.9265
 30
0.0
 10
-214.75540000000001
 20
114.5527
 30
0.0
 10
-206.4187
 20
110.85210000000001
 30
0.0
 10
-197.63590000000002
 20
110.63720000000001
 30
0.0
 10
-197.63590000000002
 20
110.63720000000001
 30
0.0
 10
-197.63590000000002
 20
110.63720000000001
 30
0.0
 10
-127.9873
 20
110.6485
 30
0.0
 10
-127.9873
 20
110.6485
 30
0.0
 10
-127.9873
 20
110.6485
 30
0.0
 10
-127.9873
 20
110.6485
 30
0.0
 10
-82.679000000000002
 20
110.6542
 30
0.0
 10
-82.679000000000002
 20
110.6542
 30
0.0
 10
-82.679000000000002
 20
110.6542
 30
0.0
 10
-82.679000000000002
 20
110.6542
 30
0.0
 10
-82.682699999999997
 20
141.54470000000001
 30
0.0
 10
-82.682699999999997
 20
141.54470000000001
 30
0.0
 10
-82.682699999999997
 20
141.54470000000001
 30
0.0
 10
-82.682699999999997
 20
142.65130000000002
 30
0.0
 10
-81.788800000000009
 20
143.54859999999999
 30
0.0
 10
-80.682299999999998
 20
143.54859999999999
 30
0.0
 10
-80.682299999999998
 20
143.54859999999999
 30
0.0
 10
-79.577600000000004
 20
143.5505
 30
0.0
 10
-78.68180000000001
 20
142.6532
 30
0.0
 10
-78.68180000000001
 20
141.54660000000001
 30
0.0
 10
-78.68180000000001
 20
141.54660000000001
 30
0.0
 10
-78.68180000000001
 20
141.54660000000001
 30
0.0
 10
-78.678100000000001
 20
110.65610000000001
 30
0.0
 10
-78.678100000000001
 20
110.65610000000001
 30
0.0
 10
-78.678100000000001
 20
110.65610000000001
 30
0.0
 10
-78.678100000000001
 20
110.65610000000001
 30
0.0
 10
-18.294
 20
110.66550000000001
 30
0.0
 10
-18.294
 20
110.66550000000001
 30
0.0
 10
-18.294
 20
110.66550000000001
 30
0.0
 10
-18.294
 20
110.66550000000001
 30
0.0
 10
37.2273
 20
110.673
 30
0.0
 10
37.2273
 20
110.673
 30
0.0
 10
37.2273
 20
110.673
 30
0.0
 10
46.004400000000004
 20
110.4581
 30
0.0
 10
54.508700000000005
 20
113.74590000000001
 30
0.0
 10
60.865700000000004
 20
119.8105
 30
0.0
 10
60.865700000000004
 20
119.8105
 30
0.0
 10
67.224600000000009
 20
125.87700000000001
 30
0.0
 10
70.918700000000001
 20
134.2227
 30
0.0
 10
71.133300000000006
 20
143.017
 30
0.0
 10
71.133300000000006
 20
143.017
 30
0.0
 10
71.347800000000007
 20
151.80950000000001
 30
0.0
 10
68.067700000000002
 20
160.32859999999999
 30
0.0
 10
62.011700000000005
 20
166.69670000000002
 30
0.0
 10
62.011700000000005
 20
166.69670000000002
 30
0.0
 10
55.957700000000003
 20
173.0667
 30
0.0
 10
47.624700000000004
 20
176.76730000000001
 30
0.0
 10
38.845700000000001
 20
176.98230000000001
 30
0.0
 10
38.845700000000001
 20
176.98230000000001
 30
0.0
 10
38.303699999999999
 20
177.00490000000002
 30
0.0
 10
37.759900000000002
 20
177.01430000000002
 30
0.0
 10
37.216000000000001
 20
177.01050000000001
 30
0.0
 10
37.216000000000001
 20
177.01050000000001
 30
0.0
 10
37.216000000000001
 20
177.01050000000001
 30
0.0
 10
24.725900000000003
 20
177.0086
 30
0.0
 10
24.725900000000003
 20
177.0086
 30
0.0
 10
24.725900000000003
 20
177.0086
 30
0.0
 10
24.725900000000003
 20
177.0086
 30
0.0
 10
24.729700000000001
 20
144.5308
 30
0.0
 10
24.729700000000001
 20
144.5308
 30
0.0
 10
24.729700000000001
 20
144.5308
 30
0.0
 10
24.729700000000001
 20
143.42420000000001
 30
0.0
 10
23.8339
 20
142.52690000000001
 30
0.0
 10
22.729200000000002
 20
142.52690000000001
 30
0.0
 10
22.729200000000002
 20
142.52690000000001
 30
0.0
 10
21.624600000000001
 20
142.52690000000001
 30
0.0
 10
20.7288
 20
143.42420000000001
 30
0.0
 10
20.7288
 20
144.5308
 30
0.0
 10
20.7288
 20
144.5308
 30
0.0
 10
20.7288
 20
144.5308
 30
0.0
 10
20.725000000000001
 20
177.0086
 30
0.0
 10
20.725000000000001
 20
177.0086
 30
0.0
 10
20.725000000000001
 20
177.0086
 30
0.0
 10
20.725000000000001
 20
177.0086
 30
0.0
 10
-16.763999999999999
 20
177.00300000000001
 30
0.0
 10
-16.763999999999999
 20
177.00300000000001
 30
0.0
 10
-16.763999999999999
 20
177.00300000000001
 30
0.0
 10
-16.763999999999999
 20
177.00300000000001
 30
0.0
 10
-16.758400000000002
 20
144.52520000000001
 30
0.0
 10
-16.758400000000002
 20
144.52520000000001
 30
0.0
 10
-16.758400000000002
 20
144.52520000000001
 30
0.0
 10
-16.758400000000002
 20
143.99350000000001
 30
0.0
 10
-16.967300000000002
 20
143.48260000000002
 30
0.0
 10
-17.341799999999999
 20
143.10560000000001
 30
0.0
 10
-17.341799999999999
 20
143.10560000000001
 30
0.0
 10
-17.7163
 20
142.73050000000001
 30
0.0
 10
-18.224399999999999
 20
142.51740000000001
 30
0.0
 10
-18.755100000000002
 20
142.51560000000001
 30
0.0
 10
-18.755100000000002
 20
142.51560000000001
 30
0.0
 10
-19.285700000000002
 20
142.51560000000001
 30
0.0
 10
-19.7957
 20
142.72669999999999
 30
0.0
 10
-20.1721
 20
143.1018
 30
0.0
 10
-20.1721
 20
143.1018
 30
0.0
 10
-20.546600000000002
 20
143.47890000000001
 30
0.0
 10
-20.7593
 20
143.9879
 30
0.0
 10
-20.7593
 20
144.51949999999999
 30
0.0
 10
-20.7593
 20
144.51949999999999
 30
0.0
 10
-20.7593
 20
144.51949999999999
 30
0.0
 10
-20.8233
 20
177.00110000000001
 30
0.0
 10
-20.8233
 20
177.00110000000001
 30
0.0
 10
-20.8233
 20
177.00110000000001
 30
0.0
 10
-38.646599999999999
 20
176.72210000000001
 30
0.0
 10
-53.157800000000002
 20
162.56630000000001
 30
0.0
 10
-53.908700000000003
 20
144.7269
 30
0.0
 10
-53.908700000000003
 20
144.7269
 30
0.0
 10
-53.938800000000001
 20
143.92940000000002
 30
0.0
 10
-54.593700000000005
 20
143.30170000000001
 30
0.0
 10
-55.387900000000002
 20
143.30170000000001
 30
0.0
 10
-55.387900000000002
 20
143.30170000000001
 30
0.0
 10
-55.387900000000002
 20
143.30170000000001
 30
0.0
 10
-55.417999999999999
 20
143.30170000000001
 30
0.0
 10
-55.417999999999999
 20
143.30170000000001
 30
0.0
 10
-55.417999999999999
 20
143.30170000000001
 30
0.0
 10
-55.811300000000003
 20
143.30170000000001
 30
0.0
 10
-56.1877
 20
143.4581
 30
0.0
 10
-56.466200000000001
 20
143.7353
 30
0.0
 10
-56.466200000000001
 20
143.7353
 30
0.0
 10
-56.744700000000002
 20
144.01430000000002
 30
0.0
 10
-56.9009
 20
144.3913
 30
0.0
 10
-56.9009
 20
144.78530000000001
 30
0.0
 10
-56.9009
 20
144.78530000000001
 30
0.0
 10
-56.9009
 20
144.78530000000001
 30
0.0
 10
-56.904700000000005
 20
176.7296
 30
0.0
 10
-56.904700000000005
 20
176.7296
 30
0.0
 10
-56.904700000000005
 20
176.7296
 30
0.0
 10
-56.904700000000005
 20
176.7296
 30
0.0
 10
-104.47120000000001
 20
176.9898
 30
0.0
 10
-104.47120000000001
 20
176.9898
 30
0.0
 10
-104.47120000000001
 20
176.9898
 30
0.0
 10
-104.47120000000001
 20
176.9898
 30
0.0
 10
-104.46560000000001
 20
144.77780000000001
 30
0.0
 10
-104.46560000000001
 20
144.77780000000001
 30
0.0
 10
-104.46560000000001
 20
144.77780000000001
 30
0.0
 10
-104.46560000000001
 20
144.38380000000001
 30
0.0
 10
-104.62180000000001
 20
144.0067
 30
0.0
 10
-104.9003
 20
143.7277
 30
0.0
 10
-104.9003
 20
143.7277
 30
0.0
 10
-105.17880000000001
 20
143.45060000000001
 30
0.0
 10
-105.5552
 20
143.29410000000001
 30
0.0
 10
-105.94850000000001
 20
143.29220000000001
 30
0.0
 10
-105.94850000000001
 20
143.29220000000001
 30
0.0
 10
-105.94850000000001
 20
143.29220000000001
 30
0.0
 10
-106.0068
 20
143.29410000000001
 30
0.0
 10
-106.0068
 20
143.29410000000001
 30
0.0
 10
-106.0068
 20
143.29410000000001
 30
0.0
 10
-106.80290000000001
 20
143.29220000000001
 30
0.0
 10
-107.45780000000001
 20
143.92189999999999
 30
0.0
 10
-107.4898
 20
144.7174
 30
0.0
 10
-107.4898
 20
144.7174
 30
0.0
 10
-108.24630000000001
 20
162.55690000000001
 30
0.0
 10
-122.76130000000001
 20
176.7089
 30
0.0
 10
-140.58270000000002
 20
176.98230000000001
 30
0.0
 10
-140.58270000000002
 20
176.98230000000001
 30
0.0
 10
-140.58270000000002
 20
176.98230000000001
 30
0.0
 10
-140.59220000000002
 20
144.5044
 30
0.0
 10
-140.59220000000002
 20
144.5044
 30
0.0
 10
-140.59220000000002
 20
144.5044
 30
0.0
 10
-140.59220000000002
 20
143.39400000000001
 30
0.0
 10
-141.49170000000001
 20
142.49290000000002
 30
0.0
 10
-142.6001
 20
142.49290000000002
 30
0.0
 10
-142.6001
 20
142.49290000000002
 30
0.0
 10
-143.70860000000002
 20
142.49290000000002
 30
0.0
 10
-144.60810000000001
 20
143.39400000000001
 30
0.0
 10
-144.60810000000001
 20
144.5044
 30
0.0
 10
-144.60810000000001
 20
144.5044
 30
0.0
 10
-144.60810000000001
 20
144.5044
 30
0.0
 10
-144.61369999999999
 20
176.98230000000001
 30
0.0
 10
-144.61369999999999
 20
176.98230000000001
 30
0.0
 10
-144.61369999999999
 20
176.98230000000001
 30
0.0
 10
-144.61369999999999
 20
176.98230000000001
 30
0.0
 10
-179.49450000000002
 20
176.97660000000002
 30
0.0
 10
-179.49450000000002
 20
176.97660000000002
 30
0.0
 10
-179.49450000000002
 20
176.97660000000002
 30
0.0
 10
-179.49450000000002
 20
176.97660000000002
 30
0.0
 10
-179.4889
 20
144.49880000000002
 30
0.0
 10
-179.4889
 20
144.49880000000002
 30
0.0
 10
-179.4889
 20
144.49880000000002
 30
0.0
 10
-179.4889
 20
143.3922
 30
0.0
 10
-180.38460000000001
 20
142.4948
 30
0.0
 10
-181.48930000000001
 20
142.4948
 30
0.0
 10
-181.48930000000001
 20
142.4948
 30
0.0
 10
-182.59400000000002
 20
142.4948
 30
0.0
 10
-183.4898
 20
143.3922
 30
0.0
 10
-183.4898
 20
144.49880000000002
 30
0.0
  0
SPLINE
  5
30
100
AcDbEntity
  8
Layer 1
370
     5
100
AcDbSpline
210
0.0
220
0.0
230
1.0
 70
     1
 71
     3
 72
   168
 73
   164
 74
     0
 42
0.0000000001
 43
0.0000000001
 40
0.0
 40
0.0
 40
0.0
 40
0.0
 40
0.024390243902439
 40
0.024390243902439
 40
0.024390243902439
 40
0.024390243902439
 40
0.0487804878048781
 40
0.0487804878048781
 40
0.0487804878048781
 40
0.0487804878048781
 40
0.0731707317073171
 40
0.0731707317073171
 40
0.0731707317073171
 40
0.0731707317073171
 40
0.0975609756097561
 40
0.0975609756097561
 40
0.0975609756097561
 40
0.0975609756097561
 40
0.1219512195121951
 40
0.1219512195121951
 40
0.1219512195121951
 40
0.1219512195121951
 40
0.1463414634146341
 40
0.1463414634146341
 40
0.1463414634146341
 40
0.1463414634146341
 40
0.1707317073170732
 40
0.1707317073170732
 40
0.1707317073170732
 40
0.1707317073170732
 40
0.1951219512195122
 40
0.1951219512195122
 40
0.1951219512195122
 40
0.1951219512195122
 40
0.2195121951219512
 40
0.2195121951219512
 40
0.2195121951219512
 40
0.2195121951219512
 40
0.2439024390243902
 40
0.2439024390243902
 40
0.2439024390243902
 40
0.2439024390243902
 40
0.2682926829268292
 40
0.2682926829268292
 40
0.2682926829268292
 40
0.2682926829268292
 40
0.2926829268292683
 40
0.2926829268292683
 40
0.2926829268292683
 40
0.2926829268292683
 40
0.3170731707317073
 40
0.3170731707317073
 40
0.3170731707317073
 40
0.3170731707317073
 40
0.3414634146341464
 40
0.3414634146341464
 40
0.3414634146341464
 40
0.3414634146341464
 40
0.3658536585365854
 40
0.3658536585365854
 40
0.3658536585365854
 40
0.3658536585365854
 40
0.3902439024390245
 40
0.3902439024390245
 40
0.3902439024390245
 40
0.3902439024390245
 40
0.4146341463414635
 40
0.4146341463414635
 40
0.4146341463414635
 40
0.4146341463414635
 40
0.4390243902439026
 40
0.4390243902439026
 40
0.4390243902439026
 40
0.4390243902439026
 40
0.4634146341463416
 40
0.4634146341463416
 40
0.4634146341463416
 40
0.4634146341463416
 40
0.4878048780487806
 40
0.4878048780487806
 40
0.4878048780487806
 40
0.4878048780487806
 40
0.5121951219512196
 40
0.5121951219512196
 40
0.5121951219512196
 40
0.5121951219512196
 40
0.5365853658536587
 40
0.5365853658536587
 40
0.5365853658536587
 40
0.5365853658536587
 40
0.5609756097560977
 40
0.5609756097560977
 40
0.5609756097560977
 40
0.5609756097560977
 40
0.5853658536585368
 40
0.5853658536585368
 40
0.5853658536585368
 40
0.5853658536585368
 40
0.6097560975609758
 40
0.6097560975609758
 40
0.6097560975609758
 40
0.6097560975609758
 40
0.6341463414634149
 40
0.6341463414634149
 40
0.6341463414634149
 40
0.6341463414634149
 40
0.6585365853658539
 40
0.6585365853658539
 40
0.6585365853658539
 40
0.6585365853658539
 40
0.682926829268293
 40
0.682926829268293
 40
0.682926829268293
 40
0.682926829268293
 40
0.707317073170732
 40
0.707317073170732
 40
0.707317073170732
 40
0.707317073170732
 40
0.7317073170731711
 40
0.7317073170731711
 40
0.7317073170731711
 40
0.7317073170731711
 40
0.7560975609756101
 40
0.7560975609756101
 40
0.7560975609756101
 40
0.7560975609756101
 40
0.7804878048780491
 40
0.7804878048780491
 40
0.7804878048780491
 40
0.7804878048780491
 40
0.8048780487804882
 40
0.8048780487804882
 40
0.8048780487804882
 40
0.8048780487804882
 40
0.8292682926829272
 40
0.8292682926829272
 40
0.8292682926829272
 40
0.8292682926829272
 40
0.8536585365853663
 40
0.8536585365853663
 40
0.8536585365853663
 40
0.8536585365853663
 40
0.8780487804878053
 40
0.8780487804878053
 40
0.8780487804878053
 40
0.8780487804878053
 40
0.9024390243902444
 40
0.9024390243902444
 40
0.9024390243902444
 40
0.9024390243902444
 40
0.9268292682926834
 40
0.9268292682926834
 40
0.9268292682926834
 40
0.9268292682926834
 40
0.9512195121951225
 40
0.9512195121951225
 40
0.9512195121951225
 40
0.9512195121951225
 40
0.9756097560975615
 40
0.9756097560975615
 40
0.9756097560975615
 40
0.9756097560975615
 40
1.0
 40
1.0
 40
1.0
 40
1.0
 10
94.190100000000001
 20
-15.0061
 30
0.0
 10
92.276200000000003
 20
-14.828900000000001
 30
0.0
 10
90.552400000000006
 20
-13.7713
 30
0.0
 10
89.526800000000009
 20
-12.1425
 30
0.0
 10
89.526800000000009
 20
-12.1425
 30
0.0
 10
88.501199999999997
 20
-10.5137
 30
0.0
 10
88.290400000000005
 20
-8.5004000000000008
 30
0.0
 10
88.952800000000011
 20
-6.6943999999999999
 30
0.0
 10
88.952800000000011
 20
-6.6943999999999999
 30
0.0
 10
88.952800000000011
 20
-6.6943999999999999
 30
0.0
 10
95.281600000000012
 20
14.159500000000001
 30
0.0
 10
95.281600000000012
 20
14.159500000000001
 30
0.0
 10
95.281600000000012
 20
14.159500000000001
 30
0.0
 10
95.281600000000012
 20
14.159500000000001
 30
0.0
 10
101.6104
 20
35.017099999999999
 30
0.0
 10
101.6104
 20
35.017099999999999
 30
0.0
 10
101.6104
 20
35.017099999999999
 30
0.0
 10
104.1472
 20
41.158999999999999
 30
0.0
 10
110.19370000000001
 20
45.1066
 30
0.0
 10
116.8292
 20
44.950099999999999
 30
0.0
 10
116.8292
 20
44.950099999999999
 30
0.0
 10
117.74380000000001
 20
42.131700000000002
 30
0.0
 10
117.84540000000001
 20
39.1098
 30
0.0
 10
117.119
 20
36.236800000000002
 30
0.0
 10
117.119
 20
36.236800000000002
 30
0.0
 10
117.119
 20
36.236800000000002
 30
0.0
 10
109.44850000000001
 20
24.226300000000002
 30
0.0
 10
109.44850000000001
 20
24.226300000000002
 30
0.0
 10
109.44850000000001
 20
24.226300000000002
 30
0.0
 10
109.44850000000001
 20
24.226300000000002
 30
0.0
 10
103.60520000000001
 20
11.463700000000001
 30
0.0
 10
103.60520000000001
 20
11.463700000000001
 30
0.0
 10
103.60520000000001
 20
11.463700000000001
 30
0.0
 10
103.60520000000001
 20
11.463700000000001
 30
0.0
 10
103.6974
 20
11.663500000000001
 30
0.0
 10
103.6974
 20
11.663500000000001
 30
0.0
 10
103.6974
 20
11.663500000000001
 30
0.0
 10
103.42830000000001
 20
11.1828
 30
0.0
 10
103.3737
 20
10.6097
 30
0.0
 10
103.545
 20
10.085600000000001
 30
0.0
 10
103.545
 20
10.085600000000001
 30
0.0
 10
103.71810000000001
 20
9.5595999999999997
 30
0.0
 10
104.10010000000001
 20
9.1317000000000004
 30
0.0
 10
104.60260000000001
 20
8.9036000000000008
 30
0.0
 10
104.60260000000001
 20
8.9036000000000008
 30
0.0
 10
105.10510000000001
 20
8.6754999999999995
 30
0.0
 10
105.68090000000001
 20
8.668000000000001
 30
0.0
 10
106.18900000000001
 20
8.8829000000000011
 30
0.0
 10
106.18900000000001
 20
8.8829000000000011
 30
0.0
 10
106.69710000000001
 20
9.0997000000000003
 30
0.0
 10
107.09230000000001
 20
9.5201000000000011
 30
0.0
 10
107.27860000000001
 20
10.0404
 30
0.0
 10
107.27860000000001
 20
10.0404
 30
0.0
 10
107.27860000000001
 20
10.0404
 30
0.0
 10
118.61320000000001
 20
29.171100000000003
 30
0.0
 10
118.61320000000001
 20
29.171100000000003
 30
0.0
 10
118.61320000000001
 20
29.171100000000003
 30
0.0
 10
119.3867
 20
29.518000000000001
 30
0.0
 10
120.2693
 20
29.518000000000001
 30
0.0
 10
121.0428
 20
29.1693
 30
0.0
 10
121.0428
 20
29.1693
 30
0.0
 10
121.8143
 20
28.822400000000002
 30
0.0
 10
122.40150000000001
 20
28.160700000000002
 30
0.0
 10
122.6555
 20
27.352
 30
0.0
 10
122.6555
 20
27.352
 30
0.0
 10
122.6555
 20
27.352
 30
0.0
 10
125.5348
 20
18.1127
 30
0.0
 10
125.5348
 20
18.1127
 30
0.0
 10
125.5348
 20
18.1127
 30
0.0
 10
125.5348
 20
18.1127
 30
0.0
 10
138.52549999999999
 20
17.1814
 30
0.0
 10
138.52549999999999
 20
17.1814
 30
0.0
 10
138.52549999999999
 20
17.1814
 30
0.0
 10
138.52549999999999
 20
17.1814
 30
0.0
 10
153.44130000000001
 20
16.1144
 30
0.0
 10
153.44130000000001
 20
16.1144
 30
0.0
 10
153.44130000000001
 20
16.1144
 30
0.0
 10
153.44130000000001
 20
16.1144
 30
0.0
 10
168.58670000000001
 20
30.5549
 30
0.0
 10
168.58670000000001
 20
30.5549
 30
0.0
 10
168.58670000000001
 20
30.5549
 30
0.0
 10
169.25290000000001
 20
31.3108
 30
0.0
 10
170.25409999999999
 20
31.674700000000001
 30
0.0
 10
171.24960000000002
 20
31.525700000000001
 30
0.0
 10
171.24960000000002
 20
31.525700000000001
 30
0.0
 10
172.2432
 20
31.3749
 30
0.0
 10
173.09200000000001
 20
30.7302
 30
0.0
 10
173.506
 20
29.812100000000001
 30
0.0
 10
173.506
 20
29.812100000000001
 30
0.0
 10
173.506
 20
29.812100000000001
 30
0.0
 10
172.6309
 20
26.9297
 30
0.0
 10
172.6309
 20
26.9297
 30
0.0
 10
172.6309
 20
26.9297
 30
0.0
 10
172.6309
 20
26.9297
 30
0.0
 10
165.0206
 20
8.8923000000000005
 30
0.0
 10
165.0206
 20
8.8923000000000005
 30
0.0
 10
165.0206
 20
8.8923000000000005
 30
0.0
 10
164.79660000000001
 20
8.4116
 30
0.0
 10
164.7722
 20
7.8611000000000004
 30
0.0
 10
164.9528
 20
7.3634000000000004
 30
0.0
 10
164.9528
 20
7.3634000000000004
 30
0.0
 10
165.1354
 20
6.8638000000000003
 30
0.0
 10
165.50800000000001
 20
6.4584999999999999
 30
0.0
 10
165.9879
 20
6.2380000000000004
 30
0.0
 10
165.9879
 20
6.2380000000000004
 30
0.0
 10
166.46770000000001
 20
6.0136000000000003
 30
0.0
 10
167.0154
 20
5.9929000000000006
 30
0.0
 10
167.5103
 20
6.1758000000000006
 30
0.0
 10
167.5103
 20
6.1758000000000006
 30
0.0
 10
168.0052
 20
6.3586
 30
0.0
 10
168.40610000000001
 20
6.7319000000000004
 30
0.0
 10
168.62440000000001
 20
7.2126000000000001
 30
0.0
 10
168.62440000000001
 20
7.2126000000000001
 30
0.0
 10
168.62440000000001
 20
7.2126000000000001
 30
0.0
 10
177.17570000000001
 20
25.802300000000002
 30
0.0
 10
177.17570000000001
 20
25.802300000000002
 30
0.0
 10
177.17570000000001
 20
25.802300000000002
 30
0.0
 10
177.17570000000001
 20
25.802300000000002
 30
0.0
 10
179.95520000000002
 20
34.966200000000001
 30
0.0
 10
179.95520000000002
 20
34.966200000000001
 30
0.0
 10
179.95520000000002
 20
34.966200000000001
 30
0.0
 10
181.12010000000001
 20
36.683599999999998
 30
0.0
 10
182.55030000000002
 20
38.204900000000002
 30
0.0
 10
184.19320000000002
 20
39.471800000000002
 30
0.0
 10
184.19320000000002
 20
39.471800000000002
 30
0.0
 10
190.4768
 20
34.915300000000002
 30
0.0
 10
192.42270000000002
 20
26.403700000000001
 30
0.0
 10
188.74550000000002
 20
19.560500000000001
 30
0.0
 10
188.74550000000002
 20
19.560500000000001
 30
0.0
 10
188.44060000000002
 20
18.9177
 30
0.0
 10
188.10000000000002
 20
18.289899999999999
 30
0.0
 10
187.72740000000002
 20
17.6829
 30
0.0
 10
187.72740000000002
 20
17.6829
 30
0.0
 10
186.50230000000002
 20
15.505500000000001
 30
0.0
 10
184.97990000000001
 20
13.5091
 30
0.0
 10
183.20150000000001
 20
11.754000000000001
 30
0.0
 10
183.20150000000001
 20
11.754000000000001
 30
0.0
 10
183.20150000000001
 20
11.754000000000001
 30
0.0
 10
165.9032
 20
-13.711
 30
0.0
 10
165.9032
 20
-13.711
 30
0.0
 10
165.9032
 20
-13.711
 30
0.0
 10
163.65810000000002
 20
-18.420200000000001
 30
0.0
 10
158.25710000000001
 20
-20.710599999999999
 30
0.0
 10
153.31900000000002
 20
-19.047900000000002
 30
0.0
 10
153.31900000000002
 20
-19.047900000000002
 30
0.0
 10
153.31900000000002
 20
-19.047900000000002
 30
0.0
 10
157.71880000000002
 20
-10.411900000000001
 30
0.0
 10
157.71880000000002
 20
-10.411900000000001
 30
0.0
 10
157.71880000000002
 20
-10.411900000000001
 30
0.0
 10
157.71880000000002
 20
-10.411900000000001
 30
0.0
 10
149.90710000000001
 20
4.4697000000000005
 30
0.0
 10
149.90710000000001
 20
4.4697000000000005
 30
0.0
 10
149.90710000000001
 20
4.4697000000000005
 30
0.0
 10
149.90710000000001
 20
4.4697000000000005
 30
0.0
 10
122.00060000000001
 20
6.4661
 30
0.0
 10
122.00060000000001
 20
6.4661
 30
0.0
 10
122.00060000000001
 20
6.4661
 30
0.0
 10
122.00060000000001
 20
6.4661
 30
0.0
 10
98.439400000000006
 20
-6.6661000000000001
 30
0.0
 10
98.439400000000006
 20
-6.6661000000000001
 30
0.0
 10
98.439400000000006
 20
-6.6661000000000001
 30
0.0
 10
98.439400000000006
 20
-6.6661000000000001
 30
0.0
 10
94.190100000000001
 20
-15.0061
 30
0.0
 10
94.190100000000001
 20
-15.0061
 30
0.0
  0
SPLINE
  5
31
100
AcDbEntity
  8
Layer 1
370
     5
100
AcDbSpline
210
0.0
220
0.0
230
1.0
 70
     1
 71
     3
 72
   168
 73
   164
 74
     0
 42
0.0000000001
 43
0.0000000001
 40
0.0
 40
0.0
 40
0.0
 40
0.0
 40
0.024390243902439
 40
0.024390243902439
 40
0.024390243902439
 40
0.024390243902439
 40
0.0487804878048781
 40
0.0487804878048781
 40
0.0487804878048781
 40
0.0487804878048781
 40
0.0731707317073171
 40
0.0731707317073171
 40
0.0731707317073171
 40
0.0731707317073171
 40
0.0975609756097561
 40
0.0975609756097561
 40
0.0975609756097561
 40
0.0975609756097561
 40
0.1219512195121951
 40
0.1219512195121951
 40
0.1219512195121951
 40
0.1219512195121951
 40
0.1463414634146341
 40
0.1463414634146341
 40
0.1463414634146341
 40
0.1463414634146341
 40
0.1707317073170732
 40
0.1707317073170732
 40
0.1707317073170732
 40
0.1707317073170732
 40
0.1951219512195122
 40
0.1951219512195122
 40
0.1951219512195122
 40
0.1951219512195122
 40
0.2195121951219512
 40
0.2195121951219512
 40
0.2195121951219512
 40
0.2195121951219512
 40
0.2439024390243902
 40
0.2439024390243902
 40
0.2439024390243902
 40
0.2439024390243902
 40
0.2682926829268292
 40
0.2682926829268292
 40
0.2682926829268292
 40
0.2682926829268292
 40
0.2926829268292683
 40
0.2926829268292683
 40
0.2926829268292683
 40
0.2926829268292683
 40
0.3170731707317073
 40
0.3170731707317073
 40
0.3170731707317073
 40
0.3170731707317073
 40
0.3414634146341464
 40
0.3414634146341464
 40
0.3414634146341464
 40
0.3414634146341464
 40
0.3658536585365854
 40
0.3658536585365854
 40
0.3658536585365854
 40
0.3658536585365854
 40
0.3902439024390245
 40
0.3902439024390245
 40
0.3902439024390245
 40
0.3902439024390245
 40
0.4146341463414635
 40
0.4146341463414635
 40
0.4146341463414635
 40
0.4146341463414635
 40
0.4390243902439026
 40
0.4390243902439026
 40
0.4390243902439026
 40
0.4390243902439026
 40
0.4634146341463416
 40
0.4634146341463416
 40
0.4634146341463416
 40
0.4634146341463416
 40
0.4878048780487806
 40
0.4878048780487806
 40
0.4878048780487806
 40
0.4878048780487806
 40
0.5121951219512196
 40
0.5121951219512196
 40
0.5121951219512196
 40
0.5121951219512196
 40
0.5365853658536587
 40
0.5365853658536587
 40
0.5365853658536587
 40
0.5365853658536587
 40
0.5609756097560977
 40
0.5609756097560977
 40
0.5609756097560977
 40
0.5609756097560977
 40
0.5853658536585368
 40
0.5853658536585368
 40
0.5853658536585368
 40
0.5853658536585368
 40
0.6097560975609758
 40
0.6097560975609758
 40
0.6097560975609758
 40
0.6097560975609758
 40
0.6341463414634149
 40
0.6341463414634149
 40
0.6341463414634149
 40
0.6341463414634149
 40
0.6585365853658539
 40
0.6585365853658539
 40
0.6585365853658539
 40
0.6585365853658539
 40
0.682926829268293
 40
0.682926829268293
 40
0.682926829268293
 40
0.682926829268293
 40
0.707317073170732
 40
0.707317073170732
 40
0.707317073170732
 40
0.707317073170732
 40
0.7317073170731711
 40
0.7317073170731711
 40
0.7317073170731711
 40
0.7317073170731711
 40
0.7560975609756101
 40
0.7560975609756101
 40
0.7560975609756101
 40
0.7560975609756101
 40
0.7804878048780491
 40
0.7804878048780491
 40
0.7804878048780491
 40
0.7804878048780491
 40
0.8048780487804882
 40
0.8048780487804882
 40
0.8048780487804882
 40
0.8048780487804882
 40
0.8292682926829272
 40
0.8292682926829272
 40
0.8292682926829272
 40
0.8292682926829272
 40
0.8536585365853663
 40
0.8536585365853663
 40
0.8536585365853663
 40
0.8536585365853663
 40
0.8780487804878053
 40
0.8780487804878053
 40
0.8780487804878053
 40
0.8780487804878053
 40
0.9024390243902444
 40
0.9024390243902444
 40
0.9024390243902444
 40
0.9024390243902444
 40
0.9268292682926834
 40
0.9268292682926834
 40
0.9268292682926834
 40
0.9268292682926834
 40
0.9512195121951225
 40
0.9512195121951225
 40
0.9512195121951225
 40
0.9512195121951225
 40
0.9756097560975615
 40
0.9756097560975615
 40
0.9756097560975615
 40
0.9756097560975615
 40
1.0
 40
1.0
 40
1.0
 40
1.0
 10
138.88120000000001
 20
-175.7363
 30
0.0
 10
138.88120000000001
 20
-175.7363
 30
0.0
 10
142.17449999999999
 20
-166.97210000000001
 30
0.0
 10
142.17449999999999
 20
-166.97210000000001
 30
0.0
 10
142.17449999999999
 20
-166.97210000000001
 30
0.0
 10
142.17449999999999
 20
-166.97210000000001
 30
0.0
 10
164.12100000000001
 20
-151.2818
 30
0.0
 10
164.12100000000001
 20
-151.2818
 30
0.0
 10
164.12100000000001
 20
-151.2818
 30
0.0
 10
164.12100000000001
 20
-151.2818
 30
0.0
 10
192.07640000000001
 20
-150.1413
 30
0.0
 10
192.07640000000001
 20
-150.1413
 30
0.0
 10
192.07640000000001
 20
-150.1413
 30
0.0
 10
192.07640000000001
 20
-150.1413
 30
0.0
 10
201.5009
 20
-164.0558
 30
0.0
 10
201.5009
 20
-164.0558
 30
0.0
 10
201.5009
 20
-164.0558
 30
0.0
 10
201.5009
 20
-164.0558
 30
0.0
 10
198.09100000000001
 20
-173.131
 30
0.0
 10
198.09100000000001
 20
-173.131
 30
0.0
 10
198.09100000000001
 20
-173.131
 30
0.0
 10
203.1833
 20
-174.23010000000002
 30
0.0
 10
208.2945
 20
-171.34950000000001
 30
0.0
 10
209.99950000000001
 20
-166.4179
 30
0.0
 10
209.99950000000001
 20
-166.4179
 30
0.0
 10
209.99950000000001
 20
-166.4179
 30
0.0
 10
224.34890000000001
 20
-139.17330000000001
 30
0.0
 10
224.34890000000001
 20
-139.17330000000001
 30
0.0
 10
224.34890000000001
 20
-139.17330000000001
 30
0.0
 10
225.91840000000002
 20
-137.22970000000001
 30
0.0
 10
227.20940000000002
 20
-135.07490000000001
 30
0.0
 10
228.1823
 20
-132.7731
 30
0.0
 10
228.1823
 20
-132.7731
 30
0.0
 10
228.4872
 20
-132.1284
 30
0.0
 10
228.7544
 20
-131.46860000000001
 30
0.0
 10
228.98590000000002
 20
-130.7937
 30
0.0
 10
228.98590000000002
 20
-130.7937
 30
0.0
 10
231.87650000000002
 20
-123.58290000000001
 30
0.0
 10
228.9915
 20
-115.34280000000001
 30
0.0
 10
222.23930000000001
 20
-111.51780000000001
 30
0.0
 10
222.23930000000001
 20
-111.51780000000001
 30
0.0
 10
220.74890000000002
 20
-112.9599
 30
0.0
 10
219.4974
 20
-114.63210000000001
 30
0.0
 10
218.53200000000001
 20
-116.4701
 30
0.0
 10
218.53200000000001
 20
-116.4701
 30
0.0
 10
218.53200000000001
 20
-116.4701
 30
0.0
 10
216.79130000000001
 20
-125.8866
 30
0.0
 10
216.79130000000001
 20
-125.8866
 30
0.0
 10
216.79130000000001
 20
-125.8866
 30
0.0
 10
216.79130000000001
 20
-125.8866
 30
0.0
 10
210.37030000000001
 20
-145.31900000000002
 30
0.0
 10
210.37030000000001
 20
-145.31900000000002
 30
0.0
 10
210.37030000000001
 20
-145.31900000000002
 30
0.0
 10
210.20650000000001
 20
-145.82040000000001
 30
0.0
 10
209.84900000000002
 20
-146.2371
 30
0.0
 10
209.3766
 20
-146.47460000000001
 30
0.0
 10
209.3766
 20
-146.47460000000001
 30
0.0
 10
208.90620000000001
 20
-146.71210000000002
 30
0.0
 10
208.35850000000002
 20
-146.74979999999999
 30
0.0
 10
207.8579
 20
-146.5821
 30
0.0
 10
207.8579
 20
-146.5821
 30
0.0
 10
207.35550000000001
 20
-146.4162
 30
0.0
 10
206.93960000000001
 20
-146.05610000000001
 30
0.0
 10
206.70440000000002
 20
-145.58100000000002
 30
0.0
 10
206.70440000000002
 20
-145.58100000000002
 30
0.0
 10
206.4691
 20
-145.10599999999999
 30
0.0
 10
206.4315
 20
-144.55549999999999
 30
0.0
 10
206.60080000000002
 20
-144.054
 30
0.0
 10
206.60080000000002
 20
-144.054
 30
0.0
 10
206.60080000000002
 20
-144.054
 30
0.0
 10
212.15050000000002
 20
-125.2758
 30
0.0
 10
212.15050000000002
 20
-125.2758
 30
0.0
 10
212.15050000000002
 20
-125.2758
 30
0.0
 10
212.15050000000002
 20
-125.2758
 30
0.0
 10
212.69820000000001
 20
-122.3142
 30
0.0
 10
212.69820000000001
 20
-122.3142
 30
0.0
 10
212.69820000000001
 20
-122.3142
 30
0.0
 10
212.18440000000001
 20
-121.44890000000001
 30
0.0
 10
211.2679
 20
-120.90220000000001
 30
0.0
 10
210.26300000000001
 20
-120.86450000000001
 30
0.0
 10
210.26300000000001
 20
-120.86450000000001
 30
0.0
 10
209.25810000000001
 20
-120.82680000000001
 30
0.0
 10
208.304
 20
-121.3018
 30
0.0
 10
207.72620000000001
 20
-122.12570000000001
 30
0.0
 10
207.72620000000001
 20
-122.12570000000001
 30
0.0
 10
207.72620000000001
 20
-122.12570000000001
 30
0.0
 10
194.2877
 20
-138.17230000000001
 30
0.0
 10
194.2877
 20
-138.17230000000001
 30
0.0
 10
194.2877
 20
-138.17230000000001
 30
0.0
 10
194.2877
 20
-138.17230000000001
 30
0.0
 10
179.34550000000002
 20
-138.78310000000002
 30
0.0
 10
179.34550000000002
 20
-138.78310000000002
 30
0.0
 10
179.34550000000002
 20
-138.78310000000002
 30
0.0
 10
179.34550000000002
 20
-138.78310000000002
 30
0.0
 10
166.33410000000001
 20
-139.31280000000001
 30
0.0
 10
166.33410000000001
 20
-139.31280000000001
 30
0.0
 10
166.33410000000001
 20
-139.31280000000001
 30
0.0
 10
166.33410000000001
 20
-139.31280000000001
 30
0.0
 10
162.44050000000001
 20
-130.45439999999999
 30
0.0
 10
162.44050000000001
 20
-130.45439999999999
 30
0.0
 10
162.44050000000001
 20
-130.45439999999999
 30
0.0
 10
162.09800000000001
 20
-129.67959999999999
 30
0.0
 10
161.44120000000001
 20
-129.08760000000001
 30
0.0
 10
160.63390000000001
 20
-128.82750000000001
 30
0.0
 10
160.63390000000001
 20
-128.82750000000001
 30
0.0
 10
159.82840000000002
 20
-128.5692
 30
0.0
 10
158.9496
 20
-128.66720000000001
 30
0.0
 10
158.22130000000001
 20
-129.09890000000001
 30
0.0
 10
158.22130000000001
 20
-129.09890000000001
 30
0.0
 10
158.22130000000001
 20
-129.09890000000001
 30
0.0
 10
149.09229999999999
 20
-149.37970000000001
 30
0.0
 10
149.09229999999999
 20
-149.37970000000001
 30
0.0
 10
149.09229999999999
 20
-149.37970000000001
 30
0.0
 10
148.96620000000001
 20
-149.9188
 30
0.0
 10
148.6199
 20
-150.37880000000001
 30
0.0
 10
148.13820000000001
 20
-150.65030000000002
 30
0.0
 10
148.13820000000001
 20
-150.65030000000002
 30
0.0
 10
147.6583
 20
-150.92170000000002
 30
0.0
 10
147.08620000000002
 20
-150.9802
 30
0.0
 10
146.55930000000001
 20
-150.80860000000001
 30
0.0
 10
146.55930000000001
 20
-150.80860000000001
 30
0.0
 10
146.0361
 20
-150.63900000000001
 30
0.0
 10
145.607
 20
-150.25630000000001
 30
0.0
 10
145.37739999999999
 20
-149.75290000000001
 30
0.0
 10
145.37739999999999
 20
-149.75290000000001
 30
0.0
 10
145.14780000000002
 20
-149.25149999999999
 30
0.0
 10
145.13840000000002
 20
-148.6765
 30
0.0
 10
145.3511
 20
-148.16750000000002
 30
0.0
 10
145.3511
 20
-148.16750000000002
 30
0.0
 10
145.3511
 20
-148.16750000000002
 30
0.0
 10
145.2833
 20
-148.3767
 30
0.0
 10
145.2833
 20
-148.3767
 30
0.0
 10
145.2833
 20
-148.3767
 30
0.0
 10
145.2833
 20
-148.3767
 30
0.0
 10
149.66630000000001
 20
-135.041
 30
0.0
 10
149.66630000000001
 20
-135.041
 30
0.0
 10
149.66630000000001
 20
-135.041
 30
0.0
 10
149.66630000000001
 20
-135.041
 30
0.0
 10
155.9461
 20
-122.2444
 30
0.0
 10
155.9461
 20
-122.2444
 30
0.0
 10
155.9461
 20
-122.2444
 30
0.0
 10
156.34700000000001
 20
-119.30730000000001
 30
0.0
 10
155.91040000000001
 20
-116.31740000000001
 30
0.0
 10
154.68520000000001
 20
-113.6178
 30
0.0
 10
154.68520000000001
 20
-113.6178
 30
0.0
 10
148.0761
 20
-114.206
 30
0.0
 10
142.5076
 20
-118.80590000000001
 30
0.0
 10
140.67080000000001
 20
-125.19470000000001
 30
0.0
 10
140.67080000000001
 20
-125.19470000000001
 30
0.0
 10
140.67080000000001
 20
-125.19470000000001
 30
0.0
 10
136.71129999999999
 20
-146.6292
 30
0.0
 10
136.71129999999999
 20
-146.6292
 30
0.0
 10
136.71129999999999
 20
-146.6292
 30
0.0
 10
136.71129999999999
 20
-146.6292
 30
0.0
 10
132.75
 20
-168.06370000000001
 30
0.0
 10
132.75
 20
-168.06370000000001
 30
0.0
 10
132.75
 20
-168.06370000000001
 30
0.0
 10
132.2927
 20
-169.93380000000002
 30
0.0
 10
132.72740000000002
 20
-171.90940000000001
 30
0.0
 10
133.928
 20
-173.41380000000001
 30
0.0
 10
133.928
 20
-173.41380000000001
 30
0.0
 10
135.13060000000002
 20
-174.91630000000001
 30
0.0
 10
136.9598
 20
-175.77590000000001
 30
0.0
 10
138.88120000000001
 20
-175.7363
 30
0.0
  0
SPLINE
  5
32
100
AcDbEntity
  8
Layer 1
370
     5
100
AcDbSpline
210
0.0
220
0.0
230
1.0
 70
     1
 71
     3
 72
   168
 73
   164
 74
     0
 42
0.0000000001
 43
0.0000000001
 40
0.0
 40
0.0
 40
0.0
 40
0.0
 40
0.024390243902439
 40
0.024390243902439
 40
0.024390243902439
 40
0.024390243902439
 40
0.0487804878048781
 40
0.0487804878048781
 40
0.0487804878048781
 40
0.0487804878048781
 40
0.0731707317073171
 40
0.0731707317073171
 40
0.0731707317073171
 40
0.0731707317073171
 40
0.0975609756097561
 40
0.0975609756097561
 40
0.0975609756097561
 40
0.0975609756097561
 40
0.1219512195121951
 40
0.1219512195121951
 40
0.1219512195121951
 40
0.1219512195121951
 40
0.1463414634146341
 40
0.1463414634146341
 40
0.1463414634146341
 40
0.1463414634146341
 40
0.1707317073170732
 40
0.1707317073170732
 40
0.1707317073170732
 40
0.1707317073170732
 40
0.1951219512195122
 40
0.1951219512195122
 40
0.1951219512195122
 40
0.1951219512195122
 40
0.2195121951219512
 40
0.2195121951219512
 40
0.2195121951219512
 40
0.2195121951219512
 40
0.2439024390243902
 40
0.2439024390243902
 40
0.2439024390243902
 40
0.2439024390243902
 40
0.2682926829268292
 40
0.2682926829268292
 40
0.2682926829268292
 40
0.2682926829268292
 40
0.2926829268292683
 40
0.2926829268292683
 40
0.2926829268292683
 40
0.2926829268292683
 40
0.3170731707317073
 40
0.3170731707317073
 40
0.3170731707317073
 40
0.3170731707317073
 40
0.3414634146341464
 40
0.3414634146341464
 40
0.3414634146341464
 40
0.3414634146341464
 40
0.3658536585365854
 40
0.3658536585365854
 40
0.3658536585365854
 40
0.3658536585365854
 40
0.3902439024390245
 40
0.3902439024390245
 40
0.3902439024390245
 40
0.3902439024390245
 40
0.4146341463414635
 40
0.4146341463414635
 40
0.4146341463414635
 40
0.4146341463414635
 40
0.4390243902439026
 40
0.4390243902439026
 40
0.4390243902439026
 40
0.4390243902439026
 40
0.4634146341463416
 40
0.4634146341463416
 40
0.4634146341463416
 40
0.4634146341463416
 40
0.4878048780487806
 40
0.4878048780487806
 40
0.4878048780487806
 40
0.4878048780487806
 40
0.5121951219512196
 40
0.5121951219512196
 40
0.5121951219512196
 40
0.5121951219512196
 40
0.5365853658536587
 40
0.5365853658536587
 40
0.5365853658536587
 40
0.5365853658536587
 40
0.5609756097560977
 40
0.5609756097560977
 40
0.5609756097560977
 40
0.5609756097560977
 40
0.5853658536585368
 40
0.5853658536585368
 40
0.5853658536585368
 40
0.5853658536585368
 40
0.6097560975609758
 40
0.6097560975609758
 40
0.6097560975609758
 40
0.6097560975609758
 40
0.6341463414634149
 40
0.6341463414634149
 40
0.6341463414634149
 40
0.6341463414634149
 40
0.6585365853658539
 40
0.6585365853658539
 40
0.6585365853658539
 40
0.6585365853658539
 40
0.682926829268293
 40
0.682926829268293
 40
0.682926829268293
 40
0.682926829268293
 40
0.707317073170732
 40
0.707317073170732
 40
0.707317073170732
 40
0.707317073170732
 40
0.7317073170731711
 40
0.7317073170731711
 40
0.7317073170731711
 40
0.7317073170731711
 40
0.7560975609756101
 40
0.7560975609756101
 40
0.7560975609756101
 40
0.7560975609756101
 40
0.7804878048780491
 40
0.7804878048780491
 40
0.7804878048780491
 40
0.7804878048780491
 40
0.8048780487804882
 40
0.8048780487804882
 40
0.8048780487804882
 40
0.8048780487804882
 40
0.8292682926829272
 40
0.8292682926829272
 40
0.8292682926829272
 40
0.8292682926829272
 40
0.8536585365853663
 40
0.8536585365853663
 40
0.8536585365853663
 40
0.8536585365853663
 40
0.8780487804878053
 40
0.8780487804878053
 40
0.8780487804878053
 40
0.8780487804878053
 40
0.9024390243902444
 40
0.9024390243902444
 40
0.9024390243902444
 40
0.9024390243902444
 40
0.9268292682926834
 40
0.9268292682926834
 40
0.9268292682926834
 40
0.9268292682926834
 40
0.9512195121951225
 40
0.9512195121951225
 40
0.9512195121951225
 40
0.9512195121951225
 40
0.9756097560975615
 40
0.9756097560975615
 40
0.9756097560975615
 40
0.9756097560975615
 40
1.0
 40
1.0
 40
1.0
 40
1.0
 10
120.4462
 20
-120.66840000000001
 30
0.0
 10
121.9611
 20
-119.25080000000001
 30
0.0
 10
123.2389
 20
-117.5993
 30
0.0
 10
124.23440000000001
 20
-115.7783
 30
0.0
 10
124.23440000000001
 20
-115.7783
 30
0.0
 10
124.23440000000001
 20
-115.7783
 30
0.0
 10
126.12570000000001
 20
-106.3901
 30
0.0
 10
126.12570000000001
 20
-106.3901
 30
0.0
 10
126.12570000000001
 20
-106.3901
 30
0.0
 10
126.12570000000001
 20
-106.3901
 30
0.0
 10
132.86100000000002
 20
-87.065100000000001
 30
0.0
 10
132.86100000000002
 20
-87.065100000000001
 30
0.0
 10
132.86100000000002
 20
-87.065100000000001
 30
0.0
 10
133.03229999999999
 20
-86.565600000000003
 30
0.0
 10
133.3973
 20
-86.156500000000008
 30
0.0
 10
133.8716
 20
-85.926500000000004
 30
0.0
 10
133.8716
 20
-85.926500000000004
 30
0.0
 10
134.3477
 20
-85.6965
 30
0.0
 10
134.89530000000002
 20
-85.666300000000007
 30
0.0
 10
135.3921
 20
-85.8416
 30
0.0
 10
135.3921
 20
-85.8416
 30
0.0
 10
135.89270000000002
 20
-86.01700000000001
 30
0.0
 10
136.30110000000002
 20
-86.384600000000006
 30
0.0
 10
136.5307
 20
-86.863399999999999
 30
0.0
 10
136.5307
 20
-86.863399999999999
 30
0.0
 10
136.75839999999999
 20
-87.342200000000005
 30
0.0
 10
136.78659999999999
 20
-87.892700000000005
 30
0.0
 10
136.6097
 20
-88.392300000000006
 30
0.0
 10
136.6097
 20
-88.392300000000006
 30
0.0
 10
136.6097
 20
-88.392300000000006
 30
0.0
 10
130.75710000000001
 20
-107.0763
 30
0.0
 10
130.75710000000001
 20
-107.0763
 30
0.0
 10
130.75710000000001
 20
-107.0763
 30
0.0
 10
130.75710000000001
 20
-107.0763
 30
0.0
 10
130.16050000000001
 20
-110.02850000000001
 30
0.0
 10
130.16050000000001
 20
-110.02850000000001
 30
0.0
 10
130.16050000000001
 20
-110.02850000000001
 30
0.0
 10
130.6611
 20
-110.9032
 30
0.0
 10
131.56820000000002
 20
-111.46310000000001
 30
0.0
 10
132.57310000000001
 20
-111.51780000000001
 30
0.0
 10
132.57310000000001
 20
-111.51780000000001
 30
0.0
 10
133.5761
 20
-111.5724
 30
0.0
 10
134.53970000000001
 20
-111.11240000000001
 30
0.0
 10
135.12870000000001
 20
-110.298
 30
0.0
 10
135.12870000000001
 20
-110.298
 30
0.0
 10
135.12870000000001
 20
-110.298
 30
0.0
 10
148.82510000000002
 20
-94.472000000000008
 30
0.0
 10
148.82510000000002
 20
-94.472000000000008
 30
0.0
 10
148.82510000000002
 20
-94.472000000000008
 30
0.0
 10
148.82510000000002
 20
-94.472000000000008
 30
0.0
 10
163.7748
 20
-94.102500000000006
 30
0.0
 10
163.7748
 20
-94.102500000000006
 30
0.0
 10
163.7748
 20
-94.102500000000006
 30
0.0
 10
163.7748
 20
-94.102500000000006
 30
0.0
 10
176.7936
 20
-93.783900000000003
 30
0.0
 10
176.7936
 20
-93.783900000000003
 30
0.0
 10
176.7936
 20
-93.783900000000003
 30
0.0
 10
176.7936
 20
-93.783900000000003
 30
0.0
 10
180.54420000000002
 20
-102.7046
 30
0.0
 10
180.54420000000002
 20
-102.7046
 30
0.0
 10
180.54420000000002
 20
-102.7046
 30
0.0
 10
180.87360000000001
 20
-103.485
 30
0.0
 10
181.52090000000001
 20
-104.0883
 30
0.0
 10
182.32260000000002
 20
-104.3597
 30
0.0
 10
182.32260000000002
 20
-104.3597
 30
0.0
 10
183.12430000000001
 20
-104.63120000000001
 30
0.0
 10
184.005
 20
-104.54830000000001
 30
0.0
 10
184.74090000000001
 20
-104.1297
 30
0.0
 10
184.74090000000001
 20
-104.1297
 30
0.0
 10
184.74090000000001
 20
-104.1297
 30
0.0
 10
194.19550000000001
 20
-83.997900000000001
 30
0.0
 10
194.19550000000001
 20
-83.997900000000001
 30
0.0
 10
194.19550000000001
 20
-83.997900000000001
 30
0.0
 10
194.33090000000001
 20
-83.462500000000006
 30
0.0
 10
194.68470000000002
 20
-83.00630000000001
 30
0.0
 10
195.1703
 20
-82.742400000000004
 30
0.0
 10
195.1703
 20
-82.742400000000004
 30
0.0
 10
195.6558
 20
-82.478500000000011
 30
0.0
 10
196.22790000000001
 20
-82.431400000000011
 30
0.0
 10
196.75110000000001
 20
-82.610399999999998
 30
0.0
 10
196.75110000000001
 20
-82.610399999999998
 30
0.0
 10
197.2723
 20
-82.789500000000004
 30
0.0
 10
197.69580000000002
 20
-83.1798
 30
0.0
 10
197.91590000000002
 20
-83.685000000000002
 30
0.0
 10
197.91590000000002
 20
-83.685000000000002
 30
0.0
 10
198.13800000000001
 20
-84.190200000000004
 30
0.0
 10
198.13800000000001
 20
-84.765200000000007
 30
0.0
 10
197.91590000000002
 20
-85.272300000000001
 30
0.0
 10
197.91590000000002
 20
-85.272300000000001
 30
0.0
 10
197.91590000000002
 20
-85.272300000000001
 30
0.0
 10
197.98930000000001
 20
-85.063100000000006
 30
0.0
 10
197.98930000000001
 20
-85.063100000000006
 30
0.0
 10
197.98930000000001
 20
-85.063100000000006
 30
0.0
 10
197.98930000000001
 20
-85.063100000000006
 30
0.0
 10
193.39000000000001
 20
-98.327200000000005
 30
0.0
 10
193.39000000000001
 20
-98.327200000000005
 30
0.0
 10
193.39000000000001
 20
-98.327200000000005
 30
0.0
 10
193.39000000000001
 20
-98.327200000000005
 30
0.0
 10
186.90309999999999
 20
-111.01820000000001
 30
0.0
 10
186.90309999999999
 20
-111.01820000000001
 30
0.0
 10
186.90309999999999
 20
-111.01820000000001
 30
0.0
 10
186.45530000000002
 20
-113.9478
 30
0.0
 10
186.84480000000002
 20
-116.9452
 30
0.0
 10
188.0247
 20
-119.6636
 30
0.0
 10
188.0247
 20
-119.6636
 30
0.0
 10
194.64330000000001
 20
-119.1829
 30
0.0
 10
200.28710000000001
 20
-114.6735
 30
0.0
 10
202.22550000000001
 20
-108.31670000000001
 30
0.0
 10
202.22550000000001
 20
-108.31670000000001
 30
0.0
 10
202.22550000000001
 20
-108.31670000000001
 30
0.0
 10
206.53120000000001
 20
-86.950100000000006
 30
0.0
 10
206.53120000000001
 20
-86.950100000000006
 30
0.0
 10
206.53120000000001
 20
-86.950100000000006
 30
0.0
 10
206.53120000000001
 20
-86.950100000000006
 30
0.0
 10
210.83890000000002
 20
-65.581600000000009
 30
0.0
 10
210.83890000000002
 20
-65.581600000000009
 30
0.0
 10
210.83890000000002
 20
-65.581600000000009
 30
0.0
 10
211.3263
 20
-63.719100000000005
 30
0.0
 10
210.92170000000002
 20
-61.735900000000001
 30
0.0
 10
209.74550000000002
 20
-60.214500000000001
 30
0.0
 10
209.74550000000002
 20
-60.214500000000001
 30
0.0
 10
208.5693
 20
-58.691300000000005
 30
0.0
 10
206.7533
 20
-57.803400000000003
 30
0.0
 10
204.83190000000002
 20
-57.809100000000001
 30
0.0
 10
204.83190000000002
 20
-57.809100000000001
 30
0.0
 10
204.83190000000002
 20
-57.809100000000001
 30
0.0
 10
201.3974
 20
-66.520499999999998
 30
0.0
 10
201.3974
 20
-66.520499999999998
 30
0.0
 10
201.3974
 20
-66.520499999999998
 30
0.0
 10
201.3974
 20
-66.520499999999998
 30
0.0
 10
179.1987
 20
-81.85260000000001
 30
0.0
 10
179.1987
 20
-81.85260000000001
 30
0.0
 10
179.1987
 20
-81.85260000000001
 30
0.0
 10
179.1987
 20
-81.85260000000001
 30
0.0
 10
151.23009999999999
 20
-82.540700000000001
 30
0.0
 10
151.23009999999999
 20
-82.540700000000001
 30
0.0
 10
151.23009999999999
 20
-82.540700000000001
 30
0.0
 10
151.23009999999999
 20
-82.540700000000001
 30
0.0
 10
142.03140000000002
 20
-68.473500000000001
 30
0.0
 10
142.03140000000002
 20
-68.473500000000001
 30
0.0
 10
142.03140000000002
 20
-68.473500000000001
 30
0.0
 10
142.03140000000002
 20
-68.473500000000001
 30
0.0
 10
145.5882
 20
-59.456700000000005
 30
0.0
 10
145.5882
 20
-59.456700000000005
 30
0.0
 10
145.5882
 20
-59.456700000000005
 30
0.0
 10
140.5128
 20
-58.274700000000003
 30
0.0
 10
135.35640000000001
 20
-61.072300000000006
 30
0.0
 10
133.57050000000001
 20
-65.9756
 30
0.0
 10
133.57050000000001
 20
-65.9756
 30
0.0
 10
133.57050000000001
 20
-65.9756
 30
0.0
 10
118.78450000000001
 20
-92.9846
 30
0.0
 10
118.78450000000001
 20
-92.9846
 30
0.0
 10
118.78450000000001
 20
-92.9846
 30
0.0
 10
117.18300000000001
 20
-94.901800000000009
 30
0.0
 10
115.85820000000001
 20
-97.033900000000003
 30
0.0
 10
114.8476
 20
-99.320700000000002
 30
0.0
 10
114.8476
 20
-99.320700000000002
 30
0.0
 10
114.53330000000001
 20
-99.959699999999998
 30
0.0
 10
114.2548
 20
-100.61580000000001
 30
0.0
 10
114.012
 20
-101.2869
 30
0.0
 10
114.012
 20
-101.2869
 30
0.0
 10
111.00670000000001
 20
-108.4487
 30
0.0
 10
113.7561
 20
-116.7359
 30
0.0
 10
120.4462
 20
-120.66840000000001
 30
0.0
  0
SPLINE
  5
33
100
AcDbEntity
  8
Layer 1
370
     5
100
AcDbSpline
210
0.0
220
0.0
230
1.0
 70
     1
 71
     3
 72
   168
 73
   164
 74
     0
 42
0.0000000001
 43
0.0000000001
 40
0.0
 40
0.0
 40
0.0
 40
0.0
 40
0.024390243902439
 40
0.024390243902439
 40
0.024390243902439
 40
0.024390243902439
 40
0.0487804878048781
 40
0.0487804878048781
 40
0.0487804878048781
 40
0.0487804878048781
 40
0.0731707317073171
 40
0.0731707317073171
 40
0.0731707317073171
 40
0.0731707317073171
 40
0.0975609756097561
 40
0.0975609756097561
 40
0.0975609756097561
 40
0.0975609756097561
 40
0.1219512195121951
 40
0.1219512195121951
 40
0.1219512195121951
 40
0.1219512195121951
 40
0.1463414634146341
 40
0.1463414634146341
 40
0.1463414634146341
 40
0.1463414634146341
 40
0.1707317073170732
 40
0.1707317073170732
 40
0.1707317073170732
 40
0.1707317073170732
 40
0.1951219512195122
 40
0.1951219512195122
 40
0.1951219512195122
 40
0.1951219512195122
 40
0.2195121951219512
 40
0.2195121951219512
 40
0.2195121951219512
 40
0.2195121951219512
 40
0.2439024390243902
 40
0.2439024390243902
 40
0.2439024390243902
 40
0.2439024390243902
 40
0.2682926829268292
 40
0.2682926829268292
 40
0.2682926829268292
 40
0.2682926829268292
 40
0.2926829268292683
 40
0.2926829268292683
 40
0.2926829268292683
 40
0.2926829268292683
 40
0.3170731707317073
 40
0.3170731707317073
 40
0.3170731707317073
 40
0.3170731707317073
 40
0.3414634146341464
 40
0.3414634146341464
 40
0.3414634146341464
 40
0.3414634146341464
 40
0.3658536585365854
 40
0.3658536585365854
 40
0.3658536585365854
 40
0.3658536585365854
 40
0.3902439024390245
 40
0.3902439024390245
 40
0.3902439024390245
 40
0.3902439024390245
 40
0.4146341463414635
 40
0.4146341463414635
 40
0.4146341463414635
 40
0.4146341463414635
 40
0.4390243902439026
 40
0.4390243902439026
 40
0.4390243902439026
 40
0.4390243902439026
 40
0.4634146341463416
 40
0.4634146341463416
 40
0.4634146341463416
 40
0.4634146341463416
 40
0.4878048780487806
 40
0.4878048780487806
 40
0.4878048780487806
 40
0.4878048780487806
 40
0.5121951219512196
 40
0.5121951219512196
 40
0.5121951219512196
 40
0.5121951219512196
 40
0.5365853658536587
 40
0.5365853658536587
 40
0.5365853658536587
 40
0.5365853658536587
 40
0.5609756097560977
 40
0.5609756097560977
 40
0.5609756097560977
 40
0.5609756097560977
 40
0.5853658536585368
 40
0.5853658536585368
 40
0.5853658536585368
 40
0.5853658536585368
 40
0.6097560975609758
 40
0.6097560975609758
 40
0.6097560975609758
 40
0.6097560975609758
 40
0.6341463414634149
 40
0.6341463414634149
 40
0.6341463414634149
 40
0.6341463414634149
 40
0.6585365853658539
 40
0.6585365853658539
 40
0.6585365853658539
 40
0.6585365853658539
 40
0.682926829268293
 40
0.682926829268293
 40
0.682926829268293
 40
0.682926829268293
 40
0.707317073170732
 40
0.707317073170732
 40
0.707317073170732
 40
0.707317073170732
 40
0.7317073170731711
 40
0.7317073170731711
 40
0.7317073170731711
 40
0.7317073170731711
 40
0.7560975609756101
 40
0.7560975609756101
 40
0.7560975609756101
 40
0.7560975609756101
 40
0.7804878048780491
 40
0.7804878048780491
 40
0.7804878048780491
 40
0.7804878048780491
 40
0.8048780487804882
 40
0.8048780487804882
 40
0.8048780487804882
 40
0.8048780487804882
 40
0.8292682926829272
 40
0.8292682926829272
 40
0.8292682926829272
 40
0.8292682926829272
 40
0.8536585365853663
 40
0.8536585365853663
 40
0.8536585365853663
 40
0.8536585365853663
 40
0.8780487804878053
 40
0.8780487804878053
 40
0.8780487804878053
 40
0.8780487804878053
 40
0.9024390243902444
 40
0.9024390243902444
 40
0.9024390243902444
 40
0.9024390243902444
 40
0.9268292682926834
 40
0.9268292682926834
 40
0.9268292682926834
 40
0.9268292682926834
 40
0.9512195121951225
 40
0.9512195121951225
 40
0.9512195121951225
 40
0.9512195121951225
 40
0.9756097560975615
 40
0.9756097560975615
 40
0.9756097560975615
 40
0.9756097560975615
 40
1.0
 40
1.0
 40
1.0
 40
1.0
 10
111.38680000000001
 20
-72.517200000000003
 30
0.0
 10
111.38680000000001
 20
-72.517200000000003
 30
0.0
 10
114.99810000000001
 20
-63.8812
 30
0.0
 10
114.99810000000001
 20
-63.8812
 30
0.0
 10
114.99810000000001
 20
-63.8812
 30
0.0
 10
114.99810000000001
 20
-63.8812
 30
0.0
 10
137.50360000000001
 20
-49.005300000000005
 30
0.0
 10
137.50360000000001
 20
-49.005300000000005
 30
0.0
 10
137.50360000000001
 20
-49.005300000000005
 30
0.0
 10
137.50360000000001
 20
-49.005300000000005
 30
0.0
 10
165.48160000000001
 20
-48.888400000000004
 30
0.0
 10
165.48160000000001
 20
-48.888400000000004
 30
0.0
 10
165.48160000000001
 20
-48.888400000000004
 30
0.0
 10
165.48160000000001
 20
-48.888400000000004
 30
0.0
 10
174.3905
 20
-63.138500000000001
 30
0.0
 10
174.3905
 20
-63.138500000000001
 30
0.0
 10
174.3905
 20
-63.138500000000001
 30
0.0
 10
174.3905
 20
-63.138500000000001
 30
0.0
 10
170.65120000000002
 20
-72.083600000000004
 30
0.0
 10
170.65120000000002
 20
-72.083600000000004
 30
0.0
 10
170.65120000000002
 20
-72.083600000000004
 30
0.0
 10
175.7022
 20
-73.36930000000001
 30
0.0
 10
180.91500000000002
 20
-70.677300000000002
 30
0.0
 10
182.7987
 20
-65.809700000000007
 30
0.0
 10
182.7987
 20
-65.809700000000007
 30
0.0
 10
182.7987
 20
-65.809700000000007
 30
0.0
 10
198.13240000000002
 20
-39.109999999999999
 30
0.0
 10
198.13240000000002
 20
-39.109999999999999
 30
0.0
 10
198.13240000000002
 20
-39.109999999999999
 30
0.0
 10
199.7715
 20
-37.224800000000002
 30
0.0
 10
201.14150000000001
 20
-35.120899999999999
 30
0.0
 10
202.19720000000001
 20
-32.855000000000004
 30
0.0
 10
202.19720000000001
 20
-32.855000000000004
 30
0.0
 10
202.5247
 20
-32.221499999999999
 30
0.0
 10
202.81640000000002
 20
-31.571200000000001
 30
0.0
 10
203.07230000000001
 20
-30.905700000000003
 30
0.0
 10
203.07230000000001
 20
-30.905700000000003
 30
0.0
 10
206.22450000000001
 20
-23.806100000000001
 30
0.0
 10
203.64250000000001
 20
-15.466100000000001
 30
0.0
 10
197.0352
 20
-11.396000000000001
 30
0.0
 10
197.0352
 20
-11.396000000000001
 30
0.0
 10
195.49210000000002
 20
-12.7835
 30
0.0
 10
194.18040000000002
 20
-14.4085
 30
0.0
 10
193.1491
 20
-16.2088
 30
0.0
 10
193.1491
 20
-16.2088
 30
0.0
 10
193.1491
 20
-16.2088
 30
0.0
 10
191.0659
 20
-25.555600000000002
 30
0.0
 10
191.0659
 20
-25.555600000000002
 30
0.0
 10
191.0659
 20
-25.555600000000002
 30
0.0
 10
191.0659
 20
-25.555600000000002
 30
0.0
 10
183.9392
 20
-44.739100000000001
 30
0.0
 10
183.9392
 20
-44.739100000000001
 30
0.0
 10
183.9392
 20
-44.739100000000001
 30
0.0
 10
183.75660000000002
 20
-45.234900000000003
 30
0.0
 10
183.38400000000001
 20
-45.638300000000001
 30
0.0
 10
182.9041
 20
-45.856999999999999
 30
0.0
 10
182.9041
 20
-45.856999999999999
 30
0.0
 10
182.42430000000002
 20
-46.077600000000004
 30
0.0
 10
181.8766
 20
-46.096400000000003
 30
0.0
 10
181.3836
 20
-45.909800000000004
 30
0.0
 10
181.3836
 20
-45.909800000000004
 30
0.0
 10
180.88680000000002
 20
-45.725100000000005
 30
0.0
 10
180.48400000000001
 20
-45.349900000000005
 30
0.0
 10
180.26570000000001
 20
-44.8673
 30
0.0
 10
180.26570000000001
 20
-44.8673
 30
0.0
 10
180.04740000000001
 20
-44.382800000000003
 30
0.0
 10
180.03050000000002
 20
-43.832300000000004
 30
0.0
 10
180.21870000000001
 20
-43.336500000000001
 30
0.0
 10
180.21870000000001
 20
-43.336500000000001
 30
0.0
 10
180.21870000000001
 20
-43.336500000000001
 30
0.0
 10
186.4496
 20
-24.775100000000002
 30
0.0
 10
186.4496
 20
-24.775100000000002
 30
0.0
 10
186.4496
 20
-24.775100000000002
 30
0.0
 10
186.4496
 20
-24.775100000000002
 30
0.0
 10
187.1045
 20
-21.836100000000002
 30
0.0
 10
187.1045
 20
-21.836100000000002
 30
0.0
 10
187.1045
 20
-21.836100000000002
 30
0.0
 10
186.62460000000002
 20
-20.952000000000002
 30
0.0
 10
185.727
 20
-20.373200000000001
 30
0.0
 10
184.72580000000002
 20
-20.297800000000002
 30
0.0
 10
184.72580000000002
 20
-20.297800000000002
 30
0.0
 10
183.72280000000001
 20
-20.2224
 30
0.0
 10
182.74980000000002
 20
-20.663500000000003
 30
0.0
 10
182.1439
 20
-21.4666
 30
0.0
 10
182.1439
 20
-21.4666
 30
0.0
 10
182.1439
 20
-21.4666
 30
0.0
 10
168.1276
 20
-37.008000000000003
 30
0.0
 10
168.1276
 20
-37.008000000000003
 30
0.0
 10
168.1276
 20
-37.008000000000003
 30
0.0
 10
168.1276
 20
-37.008000000000003
 30
0.0
 10
153.17410000000001
 20
-37.072099999999999
 30
0.0
 10
153.17410000000001
 20
-37.072099999999999
 30
0.0
 10
153.17410000000001
 20
-37.072099999999999
 30
0.0
 10
153.17410000000001
 20
-37.072099999999999
 30
0.0
 10
140.1514
 20
-37.124900000000004
 30
0.0
 10
140.1514
 20
-37.124900000000004
 30
0.0
 10
140.1514
 20
-37.124900000000004
 30
0.0
 10
140.1514
 20
-37.124900000000004
 30
0.0
 10
136.58340000000001
 20
-28.128800000000002
 30
0.0
 10
136.58340000000001
 20
-28.128800000000002
 30
0.0
 10
136.58340000000001
 20
-28.128800000000002
 30
0.0
 10
136.26910000000001
 20
-27.342700000000001
 30
0.0
 10
135.63490000000002
 20
-26.726200000000002
 30
0.0
 10
134.8389
 20
-26.437800000000003
 30
0.0
 10
134.8389
 20
-26.437800000000003
 30
0.0
 10
134.0428
 20
-26.1494
 30
0.0
 10
133.16210000000001
 20
-26.215400000000002
 30
0.0
 10
132.4169
 20
-26.6188
 30
0.0
 10
132.4169
 20
-26.6188
 30
0.0
 10
132.4169
 20
-26.6188
 30
0.0
 10
122.55390000000001
 20
-46.552700000000002
 30
0.0
 10
122.55390000000001
 20
-46.552700000000002
 30
0.0
 10
122.55390000000001
 20
-46.552700000000002
 30
0.0
 10
122.4071
 20
-47.086200000000005
 30
0.0
 10
122.0458
 20
-47.534800000000004
 30
0.0
 10
121.55460000000001
 20
-47.787500000000001
 30
0.0
 10
121.55460000000001
 20
-47.787500000000001
 30
0.0
 10
121.0635
 20
-48.041900000000005
 30
0.0
 10
120.48950000000001
 20
-48.077800000000003
 30
0.0
 10
119.9701
 20
-47.889300000000006
 30
0.0
 10
119.9701
 20
-47.889300000000006
 30
0.0
 10
119.4526
 20
-47.698800000000006
 30
0.0
 10
119.0386
 20
-47.301100000000005
 30
0.0
 10
118.82780000000001
 20
-46.790200000000006
 30
0.0
 10
118.82780000000001
 20
-46.790200000000006
 30
0.0
 10
118.617
 20
-46.279299999999999
 30
0.0
 10
118.62830000000001
 20
-45.704300000000003
 30
0.0
 10
118.85980000000001
 20
-45.2029
 30
0.0
 10
118.85980000000001
 20
-45.2029
 30
0.0
 10
118.85980000000001
 20
-45.2029
 30
0.0
 10
118.78450000000001
 20
-45.410200000000003
 30
0.0
 10
118.78450000000001
 20
-45.410200000000003
 30
0.0
 10
118.78450000000001
 20
-45.410200000000003
 30
0.0
 10
118.78450000000001
 20
-45.410200000000003
 30
0.0
 10
123.6511
 20
-32.244199999999999
 30
0.0
 10
123.6511
 20
-32.244199999999999
 30
0.0
 10
123.6511
 20
-32.244199999999999
 30
0.0
 10
123.6511
 20
-32.244199999999999
 30
0.0
 10
130.3939
 20
-19.687000000000001
 30
0.0
 10
130.3939
 20
-19.687000000000001
 30
0.0
 10
130.3939
 20
-19.687000000000001
 30
0.0
 10
130.90200000000002
 20
-16.7669
 30
0.0
 10
130.5745
 20
-13.761900000000001
 30
0.0
 10
129.44910000000002
 20
-11.020800000000001
 30
0.0
 10
129.44910000000002
 20
-11.020800000000001
 30
0.0
 10
122.82300000000001
 20
-11.3658
 30
0.0
 10
117.08890000000001
 20
-15.7583
 30
0.0
 10
115.02260000000001
 20
-22.075500000000002
 30
0.0
 10
115.02260000000001
 20
-22.075500000000002
 30
0.0
 10
115.02260000000001
 20
-22.075500000000002
 30
0.0
 10
110.28030000000001
 20
-43.349699999999999
 30
0.0
 10
110.28030000000001
 20
-43.349699999999999
 30
0.0
 10
110.28030000000001
 20
-43.349699999999999
 30
0.0
 10
110.28030000000001
 20
-43.349699999999999
 30
0.0
 10
105.5398
 20
-64.625900000000001
 30
0.0
 10
105.5398
 20
-64.625900000000001
 30
0.0
 10
105.5398
 20
-64.625900000000001
 30
0.0
 10
105.0147
 20
-66.477100000000007
 30
0.0
 10
105.37790000000001
 20
-68.467799999999997
 30
0.0
 10
106.52210000000001
 20
-70.0137
 30
0.0
 10
106.52210000000001
 20
-70.0137
 30
0.0
 10
107.6682
 20
-71.561400000000006
 30
0.0
 10
109.4654
 20
-72.485200000000006
 30
0.0
 10
111.38680000000001
 20
-72.517200000000003
 30
0.0
  0
SPLINE
  5
34
100
AcDbEntity
  8
Layer 1
370
     5
100
AcDbSpline
210
0.0
220
0.0
230
1.0
 70
     1
 71
     3
 72
   144
 73
   140
 74
     0
 42
0.0000000001
 43
0.0000000001
 40
0.0
 40
0.0
 40
0.0
 40
0.0
 40
0.0285714285714286
 40
0.0285714285714286
 40
0.0285714285714286
 40
0.0285714285714286
 40
0.0571428571428571
 40
0.0571428571428571
 40
0.0571428571428571
 40
0.0571428571428571
 40
0.0857142857142857
 40
0.0857142857142857
 40
0.0857142857142857
 40
0.0857142857142857
 40
0.1142857142857143
 40
0.1142857142857143
 40
0.1142857142857143
 40
0.1142857142857143
 40
0.1428571428571429
 40
0.1428571428571429
 40
0.1428571428571429
 40
0.1428571428571429
 40
0.1714285714285714
 40
0.1714285714285714
 40
0.1714285714285714
 40
0.1714285714285714
 40
0.2
 40
0.2
 40
0.2
 40
0.2
 40
0.2285714285714286
 40
0.2285714285714286
 40
0.2285714285714286
 40
0.2285714285714286
 40
0.2571428571428572
 40
0.2571428571428572
 40
0.2571428571428572
 40
0.2571428571428572
 40
0.2857142857142858
 40
0.2857142857142858
 40
0.2857142857142858
 40
0.2857142857142858
 40
0.3142857142857143
 40
0.3142857142857143
 40
0.3142857142857143
 40
0.3142857142857143
 40
0.3428571428571429
 40
0.3428571428571429
 40
0.3428571428571429
 40
0.3428571428571429
 40
0.3714285714285715
 40
0.3714285714285715
 40
0.3714285714285715
 40
0.3714285714285715
 40
0.4000000000000001
 40
0.4000000000000001
 40
0.4000000000000001
 40
0.4000000000000001
 40
0.4285714285714287
 40
0.4285714285714287
 40
0.4285714285714287
 40
0.4285714285714287
 40
0.4571428571428572
 40
0.4571428571428572
 40
0.4571428571428572
 40
0.4571428571428572
 40
0.4857142857142858
 40
0.4857142857142858
 40
0.4857142857142858
 40
0.4857142857142858
 40
0.5142857142857144
 40
0.5142857142857144
 40
0.5142857142857144
 40
0.5142857142857144
 40
0.5428571428571429
 40
0.5428571428571429
 40
0.5428571428571429
 40
0.5428571428571429
 40
0.5714285714285715
 40
0.5714285714285715
 40
0.5714285714285715
 40
0.5714285714285715
 40
0.6000000000000001
 40
0.6000000000000001
 40
0.6000000000000001
 40
0.6000000000000001
 40
0.6285714285714287
 40
0.6285714285714287
 40
0.6285714285714287
 40
0.6285714285714287
 40
0.6571428571428573
 40
0.6571428571428573
 40
0.6571428571428573
 40
0.6571428571428573
 40
0.6857142857142858
 40
0.6857142857142858
 40
0.6857142857142858
 40
0.6857142857142858
 40
0.7142857142857144
 40
0.7142857142857144
 40
0.7142857142857144
 40
0.7142857142857144
 40
0.742857142857143
 40
0.742857142857143
 40
0.742857142857143
 40
0.742857142857143
 40
0.7714285714285716
 40
0.7714285714285716
 40
0.7714285714285716
 40
0.7714285714285716
 40
0.8000000000000002
 40
0.8000000000000002
 40
0.8000000000000002
 40
0.8000000000000002
 40
0.8285714285714287
 40
0.8285714285714287
 40
0.8285714285714287
 40
0.8285714285714287
 40
0.8571428571428573
 40
0.8571428571428573
 40
0.8571428571428573
 40
0.8571428571428573
 40
0.8857142857142859
 40
0.8857142857142859
 40
0.8857142857142859
 40
0.8857142857142859
 40
0.9142857142857145
 40
0.9142857142857145
 40
0.9142857142857145
 40
0.9142857142857145
 40
0.9428571428571431
 40
0.9428571428571431
 40
0.9428571428571431
 40
0.9428571428571431
 40
0.9714285714285716
 40
0.9714285714285716
 40
0.9714285714285716
 40
0.9714285714285716
 40
1.0
 40
1.0
 40
1.0
 40
1.0
 10
49.07
 20
-108.6504
 30
0.0
 10
48.330400000000004
 20
-107.3082
 30
0.0
 10
47.7395
 20
-105.8905
 30
0.0
 10
47.306699999999999
 20
-104.42010000000001
 30
0.0
 10
47.306699999999999
 20
-104.42010000000001
 30
0.0
 10
46.806100000000001
 20
-102.9628
 30
0.0
 10
46.420300000000005
 20
-101.4679
 30
0.0
 10
46.151200000000003
 20
-99.950299999999999
 30
0.0
 10
46.151200000000003
 20
-99.950299999999999
 30
0.0
 10
45.996900000000004
 20
-99.096299999999999
 30
0.0
 10
45.878300000000003
 20
-98.234800000000007
 30
0.0
 10
45.795500000000004
 20
-97.36760000000001
 30
0.0
 10
45.795500000000004
 20
-97.36760000000001
 30
0.0
 10
45.189599999999999
 20
-92.1494
 30
0.0
 10
45.3307
 20
-86.872799999999998
 30
0.0
 10
46.211400000000005
 20
-81.692400000000006
 30
0.0
 10
46.211400000000005
 20
-81.692400000000006
 30
0.0
 10
46.983000000000004
 20
-76.740000000000009
 30
0.0
 10
48.085799999999999
 20
-71.846100000000007
 30
0.0
 10
49.516000000000005
 20
-67.042699999999996
 30
0.0
 10
49.516000000000005
 20
-67.042699999999996
 30
0.0
 10
50.020400000000002
 20
-65.300700000000006
 30
0.0
 10
50.573599999999999
 20
-63.572000000000003
 30
0.0
 10
51.173999999999999
 20
-61.862200000000001
 30
0.0
 10
51.173999999999999
 20
-61.862200000000001
 30
0.0
 10
51.413000000000004
 20
-60.563300000000005
 30
0.0
 10
50.767500000000005
 20
-59.262500000000003
 30
0.0
 10
49.589400000000005
 20
-58.6706
 30
0.0
 10
49.589400000000005
 20
-58.6706
 30
0.0
 10
45.1218
 20
-55.277300000000004
 30
0.0
 10
42.562400000000004
 20
-49.936600000000006
 30
0.0
 10
42.711100000000002
 20
-44.322500000000005
 30
0.0
 10
42.711100000000002
 20
-44.322500000000005
 30
0.0
 10
42.861699999999999
 20
-38.708400000000005
 30
0.0
 10
45.703299999999999
 20
-33.511000000000003
 30
0.0
 10
50.3459
 20
-30.3628
 30
0.0
 10
50.3459
 20
-30.3628
 30
0.0
 10
51.0441
 20
-29.669
 30
0.0
 10
51.354600000000005
 20
-28.6736
 30
0.0
 10
51.173999999999999
 20
-27.706500000000002
 30
0.0
 10
51.173999999999999
 20
-27.706500000000002
 30
0.0
 10
50.573599999999999
 20
-25.994800000000001
 30
0.0
 10
50.020400000000002
 20
-24.268000000000001
 30
0.0
 10
49.516000000000005
 20
-22.5261
 30
0.0
 10
49.516000000000005
 20
-22.5261
 30
0.0
 10
48.085799999999999
 20
-17.720800000000001
 30
0.0
 10
46.981100000000005
 20
-12.8268
 30
0.0
 10
46.211400000000005
 20
-7.8745000000000003
 30
0.0
 10
46.211400000000005
 20
-7.8745000000000003
 30
0.0
 10
45.946100000000001
 20
-6.3154000000000003
 30
0.0
 10
45.7485
 20
-4.7450999999999999
 30
0.0
 10
45.618600000000001
 20
-3.1691000000000003
 30
0.0
 10
45.618600000000001
 20
-3.1691000000000003
 30
0.0
 10
45.315600000000003
 20
0.4769000000000001
 30
0.0
 10
45.374000000000002
 20
4.1473000000000004
 30
0.0
 10
45.795500000000004
 20
7.7838000000000003
 30
0.0
 10
45.795500000000004
 20
7.7838000000000003
 30
0.0
 10
45.891500000000001
 20
8.8244000000000007
 30
0.0
 10
46.040199999999999
 20
9.8613
 30
0.0
 10
46.239699999999999
 20
10.886800000000001
 30
0.0
 10
46.239699999999999
 20
10.886800000000001
 30
0.0
 10
46.505000000000003
 20
12.225300000000001
 30
0.0
 10
46.860700000000001
 20
13.5449
 30
0.0
 10
47.306699999999999
 20
14.8344
 30
0.0
 10
47.306699999999999
 20
14.8344
 30
0.0
 10
47.7376
 20
16.310500000000001
 30
0.0
 10
48.328500000000005
 20
17.733800000000002
 30
0.0
 10
49.07
 20
19.079800000000002
 30
0.0
 10
49.07
 20
19.079800000000002
 30
0.0
 10
51.200300000000006
 20
23.215900000000001
 30
0.0
 10
55.457100000000004
 20
25.8155
 30
0.0
 10
60.103500000000004
 20
25.8155
 30
0.0
 10
60.103500000000004
 20
25.8155
 30
0.0
 10
64.748000000000005
 20
25.8155
 30
0.0
 10
69.004800000000003
 20
23.215900000000001
 30
0.0
 10
71.135100000000008
 20
19.079800000000002
 30
0.0
 10
71.135100000000008
 20
19.079800000000002
 30
0.0
 10
72.906000000000006
 20
15.547000000000001
 30
0.0
 10
74.016300000000001
 20
11.718200000000001
 30
0.0
 10
74.409599999999998
 20
7.7838000000000003
 30
0.0
 10
74.409599999999998
 20
7.7838000000000003
 30
0.0
 10
75.0137
 20
2.5712999999999999
 30
0.0
 10
74.874400000000009
 20
-2.6997
 30
0.0
 10
73.993700000000004
 20
-7.8745000000000003
 30
0.0
 10
73.993700000000004
 20
-7.8745000000000003
 30
0.0
 10
73.224000000000004
 20
-12.8268
 30
0.0
 10
72.119399999999999
 20
-17.720800000000001
 30
0.0
 10
70.691000000000003
 20
-22.5261
 30
0.0
 10
70.691000000000003
 20
-22.5261
 30
0.0
 10
70.156599999999997
 20
-24.362200000000001
 30
0.0
 10
69.56750000000001
 20
-26.185200000000002
 30
0.0
 10
68.927700000000002
 20
-27.987400000000001
 30
0.0
 10
68.927700000000002
 20
-27.987400000000001
 30
0.0
 10
68.724400000000003
 20
-28.389000000000003
 30
0.0
 10
68.690600000000003
 20
-28.854600000000001
 30
0.0
 10
68.837299999999999
 20
-29.2788
 30
0.0
 10
68.837299999999999
 20
-29.2788
 30
0.0
 10
68.982300000000009
 20
-29.702900000000003
 30
0.0
 10
69.2928
 20
-30.0517
 30
0.0
 10
69.697400000000002
 20
-30.244
 30
0.0
 10
69.697400000000002
 20
-30.244
 30
0.0
 10
74.537599999999998
 20
-33.450700000000005
 30
0.0
 10
77.46390000000001
 20
-38.8611
 30
0.0
 10
77.503399999999999
 20
-44.673100000000005
 30
0.0
 10
77.503399999999999
 20
-44.673100000000005
 30
0.0
 10
77.5411
 20
-50.485100000000003
 30
0.0
 10
74.686300000000003
 20
-55.935200000000002
 30
0.0
 10
69.889300000000006
 20
-59.204100000000004
 30
0.0
 10
69.889300000000006
 20
-59.204100000000004
 30
0.0
 10
69.43010000000001
 20
-59.368100000000005
 30
0.0
 10
69.059399999999997
 20
-59.722500000000004
 30
0.0
 10
68.876900000000006
 20
-60.175000000000004
 30
0.0
 10
68.876900000000006
 20
-60.175000000000004
 30
0.0
 10
68.692400000000006
 20
-60.629300000000001
 30
0.0
 10
68.711300000000008
 20
-61.1402
 30
0.0
 10
68.92580000000001
 20
-61.5794
 30
0.0
 10
68.92580000000001
 20
-61.5794
 30
0.0
 10
69.56750000000001
 20
-63.383500000000005
 30
0.0
 10
70.156599999999997
 20
-65.204599999999999
 30
0.0
 10
70.691000000000003
 20
-67.042699999999996
 30
0.0
 10
70.691000000000003
 20
-67.042699999999996
 30
0.0
 10
72.119399999999999
 20
-71.846100000000007
 30
0.0
 10
73.224000000000004
 20
-76.740000000000009
 30
0.0
 10
73.993700000000004
 20
-81.692400000000006
 30
0.0
 10
73.993700000000004
 20
-81.692400000000006
 30
0.0
 10
74.874400000000009
 20
-86.872799999999998
 30
0.0
 10
75.015600000000006
 20
-92.1494
 30
0.0
 10
74.409599999999998
 20
-97.36760000000001
 30
0.0
 10
74.409599999999998
 20
-97.36760000000001
 30
0.0
 10
74.014400000000009
 20
-101.29820000000001
 30
0.0
 10
72.906000000000006
 20
-105.12140000000001
 30
0.0
 10
71.135100000000008
 20
-108.6504
 30
0.0
 10
71.135100000000008
 20
-108.6504
 30
0.0
 10
69.004800000000003
 20
-112.7865
 30
0.0
 10
64.748000000000005
 20
-115.38430000000001
 30
0.0
 10
60.103500000000004
 20
-115.38430000000001
 30
0.0
 10
60.103500000000004
 20
-115.38430000000001
 30
0.0
 10
55.457100000000004
 20
-115.38430000000001
 30
0.0
 10
51.200300000000006
 20
-112.7865
 30
0.0
 10
49.07
 20
-108.6504
 30
0.0
  0
SPLINE
  5
35
100
AcDbEntity
  8
Layer 1
370
     5
100
AcDbSpline
210
0.0
220
0.0
230
1.0
 70
     1
 71
     3
 72
    36
 73
    32
 74
     0
 42
0.0000000001
 43
0.0000000001
 40
0.0
 40
0.0
 40
0.0
 40
0.0
 40
0.125
 40
0.125
 40
0.125
 40
0.125
 40
0.25
 40
0.25
 40
0.25
 40
0.25
 40
0.375
 40
0.375
 40
0.375
 40
0.375
 40
0.5
 40
0.5
 40
0.5
 40
0.5
 40
0.625
 40
0.625
 40
0.625
 40
0.625
 40
0.75
 40
0.75
 40
0.75
 40
0.75
 40
0.875
 40
0.875
 40
0.875
 40
0.875
 40
1.0
 40
1.0
 40
1.0
 40
1.0
 10
52.687000000000005
 20
-44.791900000000005
 30
0.0
 10
52.687000000000005
 20
-46.760000000000005
 30
0.0
 10
53.466100000000004
 20
-48.647100000000002
 30
0.0
 10
54.8568
 20
-50.038400000000003
 30
0.0
 10
54.8568
 20
-50.038400000000003
 30
0.0
 10
56.245600000000003
 20
-51.4315
 30
0.0
 10
58.129400000000004
 20
-52.213799999999999
 30
0.0
 10
60.096000000000004
 20
-52.213799999999999
 30
0.0
 10
60.096000000000004
 20
-52.213799999999999
 30
0.0
 10
62.060700000000004
 20
-52.213799999999999
 30
0.0
 10
63.944400000000002
 20
-51.4315
 30
0.0
 10
65.333300000000008
 20
-50.038400000000003
 30
0.0
 10
65.333300000000008
 20
-50.038400000000003
 30
0.0
 10
66.724000000000004
 20
-48.647100000000002
 30
0.0
 10
67.50500000000001
 20
-46.760000000000005
 30
0.0
 10
67.50500000000001
 20
-44.791900000000005
 30
0.0
 10
67.50500000000001
 20
-44.791900000000005
 30
0.0
 10
67.50500000000001
 20
-42.821899999999999
 30
0.0
 10
66.724000000000004
 20
-40.934800000000003
 30
0.0
 10
65.333300000000008
 20
-39.543600000000005
 30
0.0
 10
65.333300000000008
 20
-39.543600000000005
 30
0.0
 10
63.944400000000002
 20
-38.150400000000005
 30
0.0
 10
62.060700000000004
 20
-37.370000000000005
 30
0.0
 10
60.096000000000004
 20
-37.370000000000005
 30
0.0
 10
60.096000000000004
 20
-37.370000000000005
 30
0.0
 10
58.129400000000004
 20
-37.370000000000005
 30
0.0
 10
56.245600000000003
 20
-38.150400000000005
 30
0.0
 10
54.8568
 20
-39.543600000000005
 30
0.0
 10
54.8568
 20
-39.543600000000005
 30
0.0
 10
53.466100000000004
 20
-40.934800000000003
 30
0.0
 10
52.687000000000005
 20
-42.821899999999999
 30
0.0
 10
52.687000000000005
 20
-44.791900000000005
 30
0.0
  0
SPLINE
  5
36
100
AcDbEntity
  8
Layer 1
370
     5
100
AcDbSpline
210
0.0
220
0.0
230
1.0
 70
     1
 71
     3
 72
    28
 73
    24
 74
     0
 42
0.0000000001
 43
0.0000000001
 40
0.0
 40
0.0
 40
0.0
 40
0.0
 40
0.1666666666666667
 40
0.1666666666666667
 40
0.1666666666666667
 40
0.1666666666666667
 40
0.3333333333333333
 40
0.3333333333333333
 40
0.3333333333333333
 40
0.3333333333333333
 40
0.5
 40
0.5
 40
0.5
 40
0.5
 40
0.6666666666666666
 40
0.6666666666666666
 40
0.6666666666666666
 40
0.6666666666666666
 40
0.8333333333333333
 40
0.8333333333333333
 40
0.8333333333333333
 40
0.8333333333333333
 40
1.0
 40
1.0
 40
1.0
 40
1.0
 10
-74.62830000000001
 20
-87.225400000000008
 30
0.0
 10
-71.48360000000001
 20
-87.225400000000008
 30
0.0
 10
-68.468900000000005
 20
-85.973600000000005
 30
0.0
 10
-66.246300000000005
 20
-83.7453
 30
0.0
 10
-66.246300000000005
 20
-83.7453
 30
0.0
 10
-64.022000000000006
 20
-81.518900000000002
 30
0.0
 10
-62.774300000000004
 20
-78.498900000000006
 30
0.0
 10
-62.774300000000004
 20
-75.348700000000008
 30
0.0
 10
-62.774300000000004
 20
-75.348700000000008
 30
0.0
 10
-62.774300000000004
 20
-68.790199999999999
 30
0.0
 10
-68.08120000000001
 20
-63.474000000000004
 30
0.0
 10
-74.62830000000001
 20
-63.474000000000004
 30
0.0
 10
-74.62830000000001
 20
-63.474000000000004
 30
0.0
 10
-78.821100000000001
 20
-63.474000000000004
 30
0.0
 10
-82.703400000000002
 20
-65.691000000000003
 30
0.0
 10
-84.835599999999999
 20
-69.30680000000001
 30
0.0
 10
-84.835599999999999
 20
-69.30680000000001
 30
0.0
 10
-86.969700000000003
 20
-72.924400000000006
 30
0.0
 10
-87.037400000000005
 20
-77.399799999999999
 30
0.0
 10
-85.016300000000001
 20
-81.079700000000003
 30
0.0
 10
-85.016300000000001
 20
-81.079700000000003
 30
0.0
 10
-82.929299999999998
 20
-84.870800000000003
 30
0.0
 10
-78.949100000000001
 20
-87.225400000000008
 30
0.0
 10
-74.62830000000001
 20
-87.225400000000008
 30
0.0
  0
SPLINE
  5
37
100
AcDbEntity
  8
Layer 1
370
     5
100
AcDbSpline
210
0.0
220
0.0
230
1.0
 70
     1
 71
     3
 72
    28
 73
    24
 74
     0
 42
0.0000000001
 43
0.0000000001
 40
0.0
 40
0.0
 40
0.0
 40
0.0
 40
0.1666666666666667
 40
0.1666666666666667
 40
0.1666666666666667
 40
0.1666666666666667
 40
0.3333333333333333
 40
0.3333333333333333
 40
0.3333333333333333
 40
0.3333333333333333
 40
0.5
 40
0.5
 40
0.5
 40
0.5
 40
0.6666666666666666
 40
0.6666666666666666
 40
0.6666666666666666
 40
0.6666666666666666
 40
0.8333333333333333
 40
0.8333333333333333
 40
0.8333333333333333
 40
0.8333333333333333
 40
1.0
 40
1.0
 40
1.0
 40
1.0
 10
-79.756399999999999
 20
-80.708300000000008
 30
0.0
 10
-78.375100000000003
 20
-82.033600000000007
 30
0.0
 10
-76.53840000000001
 20
-82.772599999999997
 30
0.0
 10
-74.62830000000001
 20
-82.770700000000005
 30
0.0
 10
-74.62830000000001
 20
-82.770700000000005
 30
0.0
 10
-70.537000000000006
 20
-82.770700000000005
 30
0.0
 10
-67.219300000000004
 20
-79.448999999999998
 30
0.0
 10
-67.219300000000004
 20
-75.3506
 30
0.0
 10
-67.219300000000004
 20
-75.3506
 30
0.0
 10
-67.219300000000004
 20
-73.380600000000001
 30
0.0
 10
-68.00030000000001
 20
-71.493600000000001
 30
0.0
 10
-69.389099999999999
 20
-70.1023
 30
0.0
 10
-69.389099999999999
 20
-70.1023
 30
0.0
 10
-70.779800000000009
 20
-68.709100000000007
 30
0.0
 10
-72.663600000000002
 20
-67.9268
 30
0.0
 10
-74.62830000000001
 20
-67.9268
 30
0.0
 10
-74.62830000000001
 20
-67.9268
 30
0.0
 10
-77.654300000000006
 20
-67.9268
 30
0.0
 10
-80.375500000000002
 20
-69.770499999999998
 30
0.0
 10
-81.5047
 20
-72.581299999999999
 30
0.0
 10
-81.5047
 20
-72.581299999999999
 30
0.0
 10
-82.631900000000002
 20
-75.394000000000005
 30
0.0
 10
-81.939400000000006
 20
-78.612000000000009
 30
0.0
 10
-79.756399999999999
 20
-80.708300000000008
 30
0.0
  0
SPLINE
  5
38
100
AcDbEntity
  8
Layer 1
370
     5
100
AcDbSpline
210
0.0
220
0.0
230
1.0
 70
     1
 71
     3
 72
    36
 73
    32
 74
     0
 42
0.0000000001
 43
0.0000000001
 40
0.0
 40
0.0
 40
0.0
 40
0.0
 40
0.125
 40
0.125
 40
0.125
 40
0.125
 40
0.25
 40
0.25
 40
0.25
 40
0.25
 40
0.375
 40
0.375
 40
0.375
 40
0.375
 40
0.5
 40
0.5
 40
0.5
 40
0.5
 40
0.625
 40
0.625
 40
0.625
 40
0.625
 40
0.75
 40
0.75
 40
0.75
 40
0.75
 40
0.875
 40
0.875
 40
0.875
 40
0.875
 40
1.0
 40
1.0
 40
1.0
 40
1.0
 10
-95.394900000000007
 20
-57.283100000000005
 30
0.0
 10
-97.594800000000006
 20
-55.215000000000003
 30
0.0
 10
-100.4967
 20
-54.065100000000001
 30
0.0
 10
-103.5115
 20
-54.067
 30
0.0
 10
-103.5115
 20
-54.067
 30
0.0
 10
-106.65610000000001
 20
-54.067
 30
0.0
 10
-109.6709
 20
-55.316800000000001
 30
0.0
 10
-111.8934
 20
-57.545100000000005
 30
0.0
 10
-111.8934
 20
-57.545100000000005
 30
0.0
 10
-114.1178
 20
-59.771500000000003
 30
0.0
 10
-115.36550000000001
 20
-62.791600000000003
 30
0.0
 10
-115.36550000000001
 20
-65.941699999999997
 30
0.0
 10
-115.36550000000001
 20
-65.941699999999997
 30
0.0
 10
-115.36550000000001
 20
-69.091800000000006
 30
0.0
 10
-114.1178
 20
-72.111900000000006
 30
0.0
 10
-111.8934
 20
-74.338300000000004
 30
0.0
 10
-111.8934
 20
-74.338300000000004
 30
0.0
 10
-109.6709
 20
-76.564700000000002
 30
0.0
 10
-106.65610000000001
 20
-77.816400000000002
 30
0.0
 10
-103.5115
 20
-77.816400000000002
 30
0.0
 10
-103.5115
 20
-77.816400000000002
 30
0.0
 10
-99.318600000000004
 20
-77.816400000000002
 30
0.0
 10
-95.438200000000009
 20
-75.599500000000006
 30
0.0
 10
-93.304100000000005
 20
-71.983699999999999
 30
0.0
 10
-93.304100000000005
 20
-71.983699999999999
 30
0.0
 10
-91.170000000000002
 20
-68.367900000000006
 30
0.0
 10
-91.1023
 20
-63.890600000000006
 30
0.0
 10
-93.123400000000004
 20
-60.210800000000006
 30
0.0
 10
-93.123400000000004
 20
-60.210800000000006
 30
0.0
 10
-93.723800000000011
 20
-59.123000000000005
 30
0.0
 10
-94.489699999999999
 20
-58.133300000000006
 30
0.0
 10
-95.394900000000007
 20
-57.283100000000005
 30
0.0
  0
SPLINE
  5
39
100
AcDbEntity
  8
Layer 1
370
     5
100
AcDbSpline
210
0.0
220
0.0
230
1.0
 70
     1
 71
     3
 72
    32
 73
    28
 74
     0
 42
0.0000000001
 43
0.0000000001
 40
0.0
 40
0.0
 40
0.0
 40
0.0
 40
0.1428571428571429
 40
0.1428571428571429
 40
0.1428571428571429
 40
0.1428571428571429
 40
0.2857142857142857
 40
0.2857142857142857
 40
0.2857142857142857
 40
0.2857142857142857
 40
0.4285714285714286
 40
0.4285714285714286
 40
0.4285714285714286
 40
0.4285714285714286
 40
0.5714285714285714
 40
0.5714285714285714
 40
0.5714285714285714
 40
0.5714285714285714
 40
0.7142857142857142
 40
0.7142857142857142
 40
0.7142857142857142
 40
0.7142857142857142
 40
0.857142857142857
 40
0.857142857142857
 40
0.857142857142857
 40
0.857142857142857
 40
1.0
 40
1.0
 40
1.0
 40
1.0
 10
-103.5115
 20
-58.519800000000004
 30
0.0
 10
-105.4761
 20
-58.519800000000004
 30
0.0
 10
-107.3618
 20
-59.302100000000003
 30
0.0
 10
-108.75060000000001
 20
-60.693400000000004
 30
0.0
 10
-108.75060000000001
 20
-60.693400000000004
 30
0.0
 10
-110.1395
 20
-62.084600000000002
 30
0.0
 10
-110.9204
 20
-63.973600000000005
 30
0.0
 10
-110.9204
 20
-65.941699999999997
 30
0.0
 10
-110.9204
 20
-65.941699999999997
 30
0.0
 10
-110.9204
 20
-67.909800000000004
 30
0.0
 10
-110.1395
 20
-69.796900000000008
 30
0.0
 10
-108.75060000000001
 20
-71.189999999999998
 30
0.0
 10
-108.75060000000001
 20
-71.189999999999998
 30
0.0
 10
-107.3618
 20
-72.581299999999999
 30
0.0
 10
-105.4761
 20
-73.363700000000009
 30
0.0
 10
-103.5115
 20
-73.363700000000009
 30
0.0
 10
-103.5115
 20
-73.363700000000009
 30
0.0
 10
-100.4873
 20
-73.363700000000009
 30
0.0
 10
-97.764200000000002
 20
-71.519900000000007
 30
0.0
 10
-96.636900000000011
 20
-68.709100000000007
 30
0.0
 10
-96.636900000000011
 20
-68.709100000000007
 30
0.0
 10
-95.509700000000009
 20
-65.896500000000003
 30
0.0
 10
-96.200299999999999
 20
-62.680400000000006
 30
0.0
 10
-98.385200000000012
 20
-60.582100000000004
 30
0.0
 10
-98.385200000000012
 20
-60.582100000000004
 30
0.0
 10
-99.764600000000002
 20
-59.258800000000001
 30
0.0
 10
-101.60130000000001
 20
-58.519800000000004
 30
0.0
 10
-103.5115
 20
-58.519800000000004
 30
0.0
  0
ENDSEC
  0
SECTION
  2
OBJECTS
  0
DICTIONARY
  5
19
100
AcDbDictionary
280
     0
281
     1
  3
ACAD_GROUP
350
1A
  3
ACAD_MLINESTYLE
350
1B
  3
ACAD_LAYOUT
350
1E
  3
ACAD_PLOTSETTINGS
350
22
  3
ACAD_PLOTSTYLENAME
350
1F
  3
ACAD_WIPEOUT_VARS
350
23
  0
DICTIONARY
  5
1A
102
{ACAD_REACTORS
330
19
102
}
100
AcDbDictionary
280
     0
281
     1
  0
DICTIONARY
  5
1B
102
{ACAD_REACTORS
330
19
102
}
100
AcDbDictionary
280
     0
281
     1
  3
Standard
350
1C
  0
MLINESTYLE
  5
1C
102
{ACAD_REACTORS
330
1B
102
}
100
AcDbMlineStyle
  2
Standard
 70
     0
  3

 62
     0
 51
90.0
 52
90.0
 71
     2
 49
0.5
 62
   256
  6
BYLAYER
 49
-0.5
 62
   256
  6
BYLAYER
  0
ACDBDICTIONARYWDFLT
  5
1F
102
{ACAD_REACTORS
330
19
102
}
100
AcDbDictionary
281
     1
  3
Normal
350
1D
100
AcDbDictionaryWithDefault
340
1D
  0
ACDBPLACEHOLDER
  5
1D
102
{ACAD_REACTORS
330
1F
102
}
  0
LAYOUT
  5
20
102
{ACAD_REACTORS
330
1E
102
}
100
AcDbPlotSettings
  1

  2

  4

  6

 40
0.0
 41
0.0
 42
0.0
 43
0.0
 44
0.0
 45
0.0
 46
0.0
 47
0.0
 48
0.0
 49
0.0
140
0.0
141
0.0
142
1.0
143
1.0
 70
  1024
 72
     0
 73
     0
 74
     0
  7

 75
     0
147
1.0
148
0.0
149
0.0
100
AcDbLayout
  1
Model
 70
     0
 71
     0
 10
0.0
 20
0.0
 11
0.0
 21
0.0
 12
0.0
 22
0.0
 32
0.0
 14
0.0
 24
0.0
 34
0.0
 15
0.0
 25
0.0
 35
0.0
146
0.0
 13
0.0
 23
0.0
 33
0.0
 16
0.0
 26
0.0
 36
0.0
 17
0.0
 27
0.0
 37
0.0
 76
     0
330
A
331
0
345
0
346
0
  0
LAYOUT
  5
21
102
{ACAD_REACTORS
330
1E
102
}
100
AcDbPlotSettings
  1

  2

  4

  6

 40
0.0
 41
0.0
 42
0.0
 43
0.0
 44
0.0
 45
0.0
 46
0.0
 47
0.0
 48
0.0
 49
0.0
140
0.0
141
0.0
142
1.0
143
1.0
 70
     0
 72
     0
 73
     0
 74
     0
  7

 75
     0
147
1.0
148
0.0
149
0.0
100
AcDbLayout
  1
Layout1
 70
     0
 71
     0
 10
0.0
 20
0.0
 11
0.0
 21
0.0
 12
0.0
 22
0.0
 32
0.0
 14
0.0
 24
0.0
 34
0.0
 15
0.0
 25
0.0
 35
0.0
146
0.0
 13
0.0
 23
0.0
 33
0.0
 16
0.0
 26
0.0
 36
0.0
 17
0.0
 27
0.0
 37
0.0
 76
     0
330
B
331
0
345
0
346
0
  0
DICTIONARY
  5
1E
102
{ACAD_REACTORS
330
19
102
}
100
AcDbDictionary
280
     0
281
     1
  3
Layout1
350
21
  3
Model
350
20
  0
DICTIONARY
  5
22
102
{ACAD_REACTORS
330
19
102
}
100
AcDbDictionary
280
     0
281
     1
  0
WIPEOUTVARIABLES
  5
23
100
AcDbWipeoutVariables
 70
     1
  0
ENDSEC
  0
EOF
