  0
SECTION
  2
HEADER
  9
$ACADVER
  1
AC1015
  9
$ACADMAINTVER
 70
     6
  9
$DWGCODEPAGE
  3
DOS850
  9
$INSBASE
 10
0.0
 20
0.0
 30
0.0
  9
$EXTMIN
 10
-257.5045
 20
-196.013
 30
1.000000E+20
  9
$EXTMAX
 10
257.5045
 20
196.0131
 30
-1.000000E+20
  9
$LIMMIN
 10
0.0
 20
0.0
  9
$LIMMAX
 10
0.0
 20
0.0
  9
$ORTHOMODE
 70
     0
  9
$REGENMODE
 70
     1
  9
$FILLMODE
 70
     1
  9
$QTEXTMODE
 70
     0
  9
$MIRRTEXT
 70
     1
  9
$LTSCALE
 40
1.0
  9
$ATTMODE
 70
     1
  9
$TEXTSIZE
 40
0.2
  9
$TRACEWID
 40
0.05
  9
$TEXTSTYLE
  7
Standard
  9
$CLAYER
  8
0
  9
$CELTYPE
  6
Continuous
  9
$CECOLOR
 62
   256
  9
$CELTSCALE
 40
1.0
  9
$DISPSILH
 70
     0
  9
$DIMSCALE
 40
1.0
  9
$DIMASZ
 40
0.18
  9
$DIMEXO
 40
0.0625
  9
$DIMDLI
 40
0.38
  9
$DIMRND
 40
0.0
  9
$DIMDLE
 40
0.0
  9
$DIMEXE
 40
0.18
  9
$DIMTP
 40
0.0
  9
$DIMTM
 40
0.0
  9
$DIMTXT
 40
0.18
  9
$DIMCEN
 40
0.09
  9
$DIMTSZ
 40
0.0
  9
$DIMTOL
 70
     0
  9
$DIMLIM
 70
     0
  9
$DIMTIH
 70
     1
  9
$DIMTOH
 70
     1
  9
$DIMSE1
 70
     0
  9
$DIMSE2
 70
     0
  9
$DIMTAD
 70
     0
  9
$DIMZIN
 70
     0
  9
$DIMBLK
  1

  9
$DIMASO
 70
     1
  9
$DIMSHO
 70
     1
  9
$DIMPOST
  1

  9
$DIMAPOST
  1

  9
$DIMALT
 70
     0
  9
$DIMALTD
 70
     2
  9
$DIMALTF
 40
25.4
  9
$DIMLFAC
 40
1.0
  9
$DIMTOFL
 70
     0
  9
$DIMTVP
 40
0.0
  9
$DIMTIX
 70
     0
  9
$DIMSOXD
 70
     0
  9
$DIMSAH
 70
     0
  9
$DIMBLK1
  1

  9
$DIMBLK2
  1

  9
$DIMSTYLE
  2
Standard
  9
$DIMCLRD
 70
     0
  9
$DIMCLRE
 70
     0
  9
$DIMCLRT
 70
     0
  9
$DIMTFAC
 40
1.0
  9
$DIMGAP
 40
0.09
  9
$DIMJUST
 70
     0
  9
$DIMSD1
 70
     0
  9
$DIMSD2
 70
     0
  9
$DIMTOLJ
 70
     1
  9
$DIMTZIN
 70
     0
  9
$DIMALTZ
 70
     0
  9
$DIMALTTZ
 70
     0
  9
$DIMUPT
 70
     0
  9
$DIMDEC
 70
     4
  9
$DIMTDEC
 70
     4
  9
$DIMALTU
 70
     2
  9
$DIMALTTD
 70
     2
  9
$DIMTXSTY
  7
Standard
  9
$DIMAUNIT
 70
     0
  9
$DIMADEC
 70
     0
  9
$DIMALTRND
 40
0.0
  9
$DIMAZIN
 70
     0
  9
$DIMDSEP
 70
     0
  9
$DIMATFIT
 70
     3
  9
$DIMFRAC
 70
     0
  9
$DIMLDRBLK
  1

  9
$DIMLUNIT
 70
     2
  9
$DIMLWD
 70
     0
  9
$DIMLWE
 70
     0
  9
$DIMTMOVE
 70
     0
  9
$LUNITS
 70
     2
  9
$LUPREC
 70
     4
  9
$SKETCHINC
 40
0.1
  9
$FILLETRAD
 40
0.0
  9
$AUNITS
 70
     0
  9
$AUPREC
 70
     0
  9
$MENU
  1
acad
  9
$ELEVATION
 40
0.0
  9
$PELEVATION
 40
0.0
  9
$THICKNESS
 40
0.0
  9
$LIMCHECK
 70
     0
  9
$CHAMFERA
 40
0.0
  9
$CHAMFERB
 40
0.0
  9
$CHAMFERC
 40
0.0
  9
$CHAMFERD
 40
0.0
  9
$SKPOLY
 70
     0
  9
$TDCREATE
 40
0.000000000
  9
$TDUCREATE
 40
0.000000000
  9
$TDUPDATE
 40
0.000000000
  9
$TDUUPDATE
 40
0.000000000
  9
$TDINDWG
 40
0.0000000000
  9
$TDUSRTIMER
 40
0.0000000000
  9
$USRTIMER
 70
     1
  9
$ANGBASE
 50
0.0
  9
$ANGDIR
 70
     0
  9
$PDMODE
 70
     0
  9
$PDSIZE
 40
0.0
  9
$PLINEWID
 40
0.0
  9
$SPLFRAME
 70
     0
  9
$SPLINETYPE
 70
     6
  9
$SPLINESEGS
 70
     8
  9
$HANDSEED
  5
39
  9
$SURFTAB1
 70
     6
  9
$SURFTAB2
 70
     6
  9
$SURFTYPE
 70
     6
  9
$SURFU
 70
     6
  9
$SURFV
 70
     6
  9
$UCSBASE
  2

  9
$UCSNAME
  2

  9
$UCSORG
 10
0.0
 20
0.0
 30
0.0
  9
$UCSXDIR
 10
1.0
 20
0.0
 30
0.0
  9
$UCSYDIR
 10
0.0
 20
1.0
 30
0.0
  9
$UCSORTHOREF
  2

  9
$UCSORTHOVIEW
 70
     0
  9
$UCSORGTOP
 10
0.0
 20
0.0
 30
0.0
  9
$UCSORGBOTTOM
 10
0.0
 20
0.0
 30
0.0
  9
$UCSORGLEFT
 10
0.0
 20
0.0
 30
0.0
  9
$UCSORGRIGHT
 10
0.0
 20
0.0
 30
0.0
  9
$UCSORGFRONT
 10
0.0
 20
0.0
 30
0.0
  9
$UCSORGBACK
 10
0.0
 20
0.0
 30
0.0
  9
$PUCSBASE
  2

  9
$PUCSNAME
  2

  9
$PUCSORG
 10
0.0
 20
0.0
 30
0.0
  9
$PUCSXDIR
 10
1.0
 20
0.0
 30
0.0
  9
$PUCSYDIR
 10
0.0
 20
1.0
 30
0.0
  9
$PUCSORTHOREF
  2

  9
$PUCSORTHOVIEW
 70
     0
  9
$PUCSORGTOP
 10
0.0
 20
0.0
 30
0.0
  9
$PUCSORGBOTTOM
 10
0.0
 20
0.0
 30
0.0
  9
$PUCSORGLEFT
 10
0.0
 20
0.0
 30
0.0
  9
$PUCSORGRIGHT
 10
0.0
 20
0.0
 30
0.0
  9
$PUCSORGFRONT
 10
0.0
 20
0.0
 30
0.0
  9
$PUCSORGBACK
 10
0.0
 20
0.0
 30
0.0
  9
$USERI1
 70
     0
  9
$USERI2
 70
     0
  9
$USERI3
 70
     0
  9
$USERI4
 70
     0
  9
$USERI5
 70
     0
  9
$USERR1
 40
0.0
  9
$USERR2
 40
0.0
  9
$USERR3
 40
0.0
  9
$USERR4
 40
0.0
  9
$USERR5
 40
0.0
  9
$WORLDVIEW
 70
     1
  9
$SHADEDGE
 70
     3
  9
$SHADEDIF
 70
    70
  9
$TILEMODE
 70
     1
  9
$MAXACTVP
 70
    16
  9
$PINSBASE
 10
0.0
 20
0.0
 30
0.0
  9
$PLIMCHECK
 70
     0
  9
$PEXTMIN
 10
1.000000E+20
 20
1.000000E+20
 30
1.000000E+20
  9
$PEXTMAX
 10
-1.000000E+20
 20
-1.000000E+20
 30
-1.000000E+20
  9
$PLIMMIN
 10
0.0
 20
0.0
  9
$PLIMMAX
 10
12.0
 20
9.0
  9
$UNITMODE
 70
     0
  9
$VISRETAIN
 70
     0
  9
$PLINEGEN
 70
     1
  9
$PSLTSCALE
 70
     0
  9
$TREEDEPTH
 70
  3020
  9
$CMLSTYLE
  2
Standard
  9
$CMLJUST
 70
     0
  9
$CMLSCALE
 40
1.0
  9
$PROXYGRAPHICS
 70
     0
  9
$MEASUREMENT
 70
     0
  9
$CELWEIGHT
370
     0
  9
$ENDCAPS
280
     0
  9
$JOINSTYLE
280
     0
  9
$LWDISPLAY
290
     0
  9
$INSUNITS
 70
     4
  9
$HYPERLINKBASE
  1

  9
$XEDIT
290
     1
  9
$CEPSNTYPE
380
     0
  9
$PSTYLEMODE
290
     1
  9
$FINGERPRINTGUID
  2

  9
$VERSIONGUID
  2

  9
$EXTNAMES
290
     1
  9
$PSVPSCALE
 40
0.0
  0
ENDSEC
  0
SECTION
  2
CLASSES
  0
CLASS
  1
LWPOLYLINE
  2
AcDbPolyline
  3
AutoCAD 2000
 90
    32768
280
     0
281
     1
  0
CLASS
  1
IMAGE
  2
AcDbRasterImage
  3
ISM
 90
    32895
280
     0
281
     1
  0
CLASS
  1
OLE2FRAME
  2
AcDbOle2Frame
  3
AutoCAD 2000
 90
    32768
280
     0
281
     1
  0
CLASS
  1
HATCH
  2
AcDbHatch
  3
AutoCAD 2000
 90
    32768
280
     0
281
     1
  0
CLASS
  1
DICTIONARYVAR
  2
AcDbDictionaryVar
  3
AutoCAD 2000
 90
    32768
280
     0
281
     0
  0
CLASS
  1
RASTERVARIABLES
  2
AcDbRasterVariables
  3
ISM
 90
    32768
280
     0
281
     0
  0
CLASS
  1
IMAGEDEF
  2
AcDbRasterImageDef
  3
ISM
 90
    32768
280
     0
281
     0
  0
CLASS
  1
IMAGEDEF_REACTOR
  2
AcDbRasterImageDefReactor
  3
ISM
 90
    32769
280
     0
281
     0
  0
CLASS
  1
IDBUFFER
  2
AcDbIdBuffer
  3
AutoCAD 2000
 90
    32768
280
     0
281
     0
  0
CLASS
  1
SPATIAL_FILTER
  2
AcDbSpatialFilter
  3
AutoCAD 2000
 90
    32768
280
     0
281
     0
  0
CLASS
  1
XRECORD
  2
AcDbXrecord
  3
AutoCAD 2000
 90
    32768
280
     0
281
     0
  0
CLASS
  1
SORTENTSTABLE
  2
AcDbSortentsTable
  3
AutoCAD 2000
 90
    32768
280
     0
281
     0
  0
CLASS
  1
LAYER_INDEX
  2
AcDbLayerIndex
  3
AutoCAD 2000
 90
    32768
280
     0
281
     0
  0
CLASS
  1
SPATIAL_INDEX
  2
AcDbSpatialIndex
  3
AutoCAD 2000
 90
    32768
280
     0
281
     0
  0
CLASS
  1
OBJECT_PTR
  2
CAseDLPNTableRecord
  3
"ASE-LPNTableRecord"
 90
    32769
280
     0
281
     0
  0
CLASS
  1
LAYOUT
  2
AcDbLayout
  3
AutoCAD 2000
 90
        0
280
     0
281
     0
  0
CLASS
  1
PLOTSETTINGS
  2
AcDbPlotSettings
  3
AutoCAD 2000
 90
    32768
280
     0
281
     0
  0
CLASS
  1
ACDBDICTIONARYWDFLT
  2
AcDbDictionaryWithDefault
  3
AutoCAD 2000
 90
        0
280
     0
281
     0
  0
CLASS
  1
ACDBPLACEHOLDER
  2
AcDbPlaceHolder
  3
AutoCAD 2000
 90
        0
280
     0
281
     0
  0
CLASS
  1
VBA_PROJECT
  2
AcDbVbaProject
  3
acadvba
 90
    32768
280
     0
281
     0
  0
CLASS
  1
WIPEOUT
  2
AcDbWipeout
  3
WipeOut|AutoCAD Express Tool|expresstools@autodesk.com
 90
    32895
280
     0
281
     1
  0
CLASS
  1
WIPEOUTVARIABLES
  2
AcDbWipeoutVariables
  3
WipeOut|AutoCAD Express Tool|expresstools@autodesk.com
 90
        0
280
     0
281
     0
  0
CLASS
  1
RTEXT
  2
RText
  3
RText|AutoCAD Express Tool|expresstools@autodesk.com
 90
    32768
280
     0
281
     1
  0
CLASS
  1
ARCALIGNEDTEXT
  2
AcDbArcAlignedText
  3
ATEXT|AutoCAD Express Tool|expresstools@autodesk.com
 90
    32768
280
     0
281
     1
  0
ENDSEC
  0
SECTION
  2
TABLES
  0
TABLE
  2
VPORT
  5
7
100
AcDbSymbolTable
 70
     1
  0
VPORT
  5
15
100
AcDbSymbolTableRecord
100
AcDbViewportTableRecord
  2
*ACTIVE
 70
     0
 10
0.0
 20
0.0
 11
1.0
 21
1.0
 12
6.591288
 22
4.579184
 13
0.0
 23
0.0
 14
1.0
 24
1.0
 15
0.0
 25
0.0
 16
0.0
 26
0.0
 36
1.0
 17
0.0
 27
0.0
 37
0.0
 40
9.158369
 41
0.688564
 42
50.0
 43
0.0
 44
0.0
 50
0.0
 51
0.0
 71
     0
 72
   100
 73
     1
 74
     1
 75
     0
 76
     0
 77
     0
 78
     0
281
     0
 65
     0
110
0.0
120
0.0
130
0.0
111
1.0
121
0.0
131
0.0
112
0.0
122
1.0
132
0.0
345
0
346
0
 79
     0
146
0.0
  0
ENDTAB
  0
TABLE
  2
LTYPE
  5
4
100
AcDbSymbolTable
 70
     3
  0
LTYPE
  5
11
100
AcDbSymbolTableRecord
100
AcDbLinetypeTableRecord
  2
ByBlock
 70
    64
  3

 72
    65
 73
     0
 40
0.0
  0
LTYPE
  5
12
100
AcDbSymbolTableRecord
100
AcDbLinetypeTableRecord
  2
ByLayer
 70
    64
  3

 72
    65
 73
     0
 40
0.0
  0
LTYPE
  5
13
100
AcDbSymbolTableRecord
100
AcDbLinetypeTableRecord
  2
Continuous
 70
    64
  3
Solid line
 72
    65
 73
     0
 40
0.0
  0
ENDTAB
  0
TABLE
  2
LAYER
  5
2
100
AcDbSymbolTable
 70
     2
  0
LAYER
  5
14
100
AcDbSymbolTableRecord
100
AcDbLayerTableRecord
  2
0
 70
     0
 62
     7
  6
Continuous
290
     1
370
    -3
390
1D
  0
LAYER
  5
24
100
AcDbSymbolTableRecord
100
AcDbLayerTableRecord
  2
0
 70
     0
 62
     7
  6
Continuous
290
     1
370
    -3
390
1F
  0
ENDTAB
  0
TABLE
  2
STYLE
  5
3
100
AcDbSymbolTable
 70
     1
  0
STYLE
  5
17
100
AcDbSymbolTableRecord
100
AcDbTextStyleTableRecord
  2
Standard
 70
     0
 40
0.0
 41
1.0
 50
0.0
 71
     0
 42
0.0
  3
txt
  4

  0
ENDTAB
  0
TABLE
  2
VIEW
  5
5
100
AcDbSymbolTable
 70
     0
  0
ENDTAB
  0
TABLE
  2
UCS
  5
6
100
AcDbSymbolTable
 70
     0
  0
ENDTAB
  0
TABLE
  2
APPID
  5
8
100
AcDbSymbolTable
 70
     1
  0
APPID
  5
16
100
AcDbSymbolTableRecord
100
AcDbRegAppTableRecord
  2
ACAD
 70
     0
  0
ENDTAB
  0
TABLE
  2
DIMSTYLE
  5
9
100
AcDbSymbolTable
 70
     1
100
AcDbDimStyleTable
 71
     0
  0
DIMSTYLE
105
18
100
AcDbSymbolTableRecord
100
AcDbDimStyleTableRecord
  2
Standard
 70
     0
  3

  4

 40
1.0
 41
0.18
 42
0.0625
 43
0.38
 44
0.18
 45
0.0
 46
0.0
 47
0.0
 48
0.0
 71
     0
 72
     0
 73
     1
 74
     1
 75
     0
 76
     0
 77
     0
 78
     0
 79
     0
140
0.18
141
0.09
142
0.0
143
25.4
144
1.0
145
0.0
146
1.0
147
0.09
148
0.0
170
     0
171
     2
172
     0
173
     0
174
     0
175
     0
176
     0
177
     0
178
     0
179
     0
271
     4
272
     4
273
     2
274
     2
275
     0
276
     0
277
     2
278
    46
279
     0
280
     0
281
     0
282
     0
283
     1
284
     0
285
     0
286
     0
288
     0
340
17
341
0
342
0
343
0
344
0
371
    -2
372
    -2
  0
ENDTAB
  0
TABLE
  2
BLOCK_RECORD
  5
1
100
AcDbSymbolTable
 70
     0
  0
BLOCK_RECORD
  5
A
100
AcDbSymbolTableRecord
100
AcDbBlockTableRecord
  2
*MODEL_SPACE
340
20
  0
BLOCK_RECORD
  5
B
100
AcDbSymbolTableRecord
100
AcDbBlockTableRecord
  2
*PAPER_SPACE
340
21
  0
ENDTAB
  0
ENDSEC
  0
SECTION
  2
BLOCKS
  0
BLOCK
  5
D
100
AcDbEntity
  8
0
100
AcDbBlockBegin
  2
*MODEL_SPACE
 70
     0
 10
0.0
 20
0.0
 30
0.0
  3
*MODEL_SPACE
  1

  0
ENDBLK
  5
E
100
AcDbEntity
  8
0
100
AcDbBlockEnd
  0
BLOCK
  5
F
100
AcDbEntity
 67
     1
  8
0
100
AcDbBlockBegin
  2
*PAPER_SPACE
 70
     0
 10
0.0
 20
0.0
 30
0.0
  3
*PAPER_SPACE
  1

  0
ENDBLK
  5
10
100
AcDbEntity
 67
     1
  8
0
100
AcDbBlockEnd
  0
ENDSEC
  0
SECTION
  2
ENTITIES
  0
SPLINE
  5
25
100
AcDbEntity
  8
0
370
     5
 62
     1
100
AcDbSpline
210
0.0
220
0.0
230
1.0
 70
     1
 71
     3
 72
    60
 73
    56
 74
     0
 42
0.0000000001
 43
0.0000000001
 40
0.0
 40
0.0
 40
0.0
 40
0.0
 40
0.0714285714285714
 40
0.0714285714285714
 40
0.0714285714285714
 40
0.0714285714285714
 40
0.1428571428571429
 40
0.1428571428571429
 40
0.1428571428571429
 40
0.1428571428571429
 40
0.2142857142857143
 40
0.2142857142857143
 40
0.2142857142857143
 40
0.2142857142857143
 40
0.2857142857142857
 40
0.2857142857142857
 40
0.2857142857142857
 40
0.2857142857142857
 40
0.3571428571428571
 40
0.3571428571428571
 40
0.3571428571428571
 40
0.3571428571428571
 40
0.4285714285714285
 40
0.4285714285714285
 40
0.4285714285714285
 40
0.4285714285714285
 40
0.4999999999999999
 40
0.4999999999999999
 40
0.4999999999999999
 40
0.4999999999999999
 40
0.5714285714285713
 40
0.5714285714285713
 40
0.5714285714285713
 40
0.5714285714285713
 40
0.6428571428571427
 40
0.6428571428571427
 40
0.6428571428571427
 40
0.6428571428571427
 40
0.7142857142857141
 40
0.7142857142857141
 40
0.7142857142857141
 40
0.7142857142857141
 40
0.7857142857142855
 40
0.7857142857142855
 40
0.7857142857142855
 40
0.7857142857142855
 40
0.8571428571428569
 40
0.8571428571428569
 40
0.8571428571428569
 40
0.8571428571428569
 40
0.9285714285714283
 40
0.9285714285714283
 40
0.9285714285714283
 40
0.9285714285714283
 40
1.0
 40
1.0
 40
1.0
 40
1.0
 10
-185.9494
 20
-101.08330000000001
 30
0.0
 10
-186.2945
 20
-101.08330000000001
 30
0.0
 10
-186.63980000000001
 20
-101.17270000000001
 30
0.0
 10
-186.94900000000001
 20
-101.35120000000001
 30
0.0
 10
-186.94900000000001
 20
-101.35120000000001
 30
0.0
 10
-187.5676
 20
-101.708
 30
0.0
 10
-187.9486
 20
-102.36790000000001
 30
0.0
 10
-187.9486
 20
-103.08200000000001
 30
0.0
 10
-187.9486
 20
-103.08200000000001
 30
0.0
 10
-187.9486
 20
-103.08200000000001
 30
0.0
 10
-187.9486
 20
-113.4462
 30
0.0
 10
-187.9486
 20
-113.4462
 30
0.0
 10
-187.9486
 20
-113.4462
 30
0.0
 10
-187.9486
 20
-113.4462
 30
0.0
 10
-192.61360000000002
 20
-113.4462
 30
0.0
 10
-192.61360000000002
 20
-113.4462
 30
0.0
 10
-192.61360000000002
 20
-113.4462
 30
0.0
 10
-192.61360000000002
 20
-113.4462
 30
0.0
 10
-192.61360000000002
 20
-103.08200000000001
 30
0.0
 10
-192.61360000000002
 20
-103.08200000000001
 30
0.0
 10
-192.61360000000002
 20
-103.08200000000001
 30
0.0
 10
-192.61360000000002
 20
-103.08200000000001
 30
0.0
 10
-195.5754
 20
-102.48990000000001
 30
0.0
 10
-195.5754
 20
-102.48990000000001
 30
0.0
 10
-195.5754
 20
-102.48990000000001
 30
0.0
 10
-195.5754
 20
-96.727200000000011
 30
0.0
 10
-194.7534
 20
-90.144100000000009
 30
0.0
 10
-185.9494
 20
-89.657800000000009
 30
0.0
 10
-185.9494
 20
-89.657800000000009
 30
0.0
 10
-177.1454
 20
-90.144100000000009
 30
0.0
 10
-176.32330000000002
 20
-96.727200000000011
 30
0.0
 10
-176.32330000000002
 20
-102.48990000000001
 30
0.0
 10
-176.32330000000002
 20
-102.48990000000001
 30
0.0
 10
-176.32330000000002
 20
-102.48990000000001
 30
0.0
 10
-179.28530000000001
 20
-103.08200000000001
 30
0.0
 10
-179.28530000000001
 20
-103.08200000000001
 30
0.0
 10
-179.28530000000001
 20
-103.08200000000001
 30
0.0
 10
-179.28530000000001
 20
-103.08200000000001
 30
0.0
 10
-179.28530000000001
 20
-113.4462
 30
0.0
 10
-179.28530000000001
 20
-113.4462
 30
0.0
 10
-179.28530000000001
 20
-113.4462
 30
0.0
 10
-179.28530000000001
 20
-113.4462
 30
0.0
 10
-183.9502
 20
-113.4462
 30
0.0
 10
-183.9502
 20
-113.4462
 30
0.0
 10
-183.9502
 20
-113.4462
 30
0.0
 10
-183.9502
 20
-113.4462
 30
0.0
 10
-183.9502
 20
-103.08200000000001
 30
0.0
 10
-183.9502
 20
-103.08200000000001
 30
0.0
 10
-183.9502
 20
-103.08200000000001
 30
0.0
 10
-183.9502
 20
-102.36790000000001
 30
0.0
 10
-184.3312
 20
-101.708
 30
0.0
 10
-184.94970000000001
 20
-101.35120000000001
 30
0.0
 10
-184.94970000000001
 20
-101.35120000000001
 30
0.0
 10
-185.25910000000002
 20
-101.17270000000001
 30
0.0
 10
-185.6044
 20
-101.08330000000001
 30
0.0
 10
-185.9494
 20
-101.08330000000001
 30
0.0
  0
SPLINE
  5
26
100
AcDbEntity
  8
0
370
     5
 62
     1
100
AcDbSpline
210
0.0
220
0.0
230
1.0
 70
     1
 71
     3
 72
   208
 73
   204
 74
     0
 42
0.0000000001
 43
0.0000000001
 40
0.0
 40
0.0
 40
0.0
 40
0.0
 40
0.0196078431372549
 40
0.0196078431372549
 40
0.0196078431372549
 40
0.0196078431372549
 40
0.0392156862745098
 40
0.0392156862745098
 40
0.0392156862745098
 40
0.0392156862745098
 40
0.0588235294117647
 40
0.0588235294117647
 40
0.0588235294117647
 40
0.0588235294117647
 40
0.0784313725490196
 40
0.0784313725490196
 40
0.0784313725490196
 40
0.0784313725490196
 40
0.0980392156862745
 40
0.0980392156862745
 40
0.0980392156862745
 40
0.0980392156862745
 40
0.1176470588235294
 40
0.1176470588235294
 40
0.1176470588235294
 40
0.1176470588235294
 40
0.1372549019607843
 40
0.1372549019607843
 40
0.1372549019607843
 40
0.1372549019607843
 40
0.1568627450980392
 40
0.1568627450980392
 40
0.1568627450980392
 40
0.1568627450980392
 40
0.1764705882352941
 40
0.1764705882352941
 40
0.1764705882352941
 40
0.1764705882352941
 40
0.196078431372549
 40
0.196078431372549
 40
0.196078431372549
 40
0.196078431372549
 40
0.2156862745098039
 40
0.2156862745098039
 40
0.2156862745098039
 40
0.2156862745098039
 40
0.2352941176470588
 40
0.2352941176470588
 40
0.2352941176470588
 40
0.2352941176470588
 40
0.2549019607843137
 40
0.2549019607843137
 40
0.2549019607843137
 40
0.2549019607843137
 40
0.2745098039215685
 40
0.2745098039215685
 40
0.2745098039215685
 40
0.2745098039215685
 40
0.2941176470588234
 40
0.2941176470588234
 40
0.2941176470588234
 40
0.2941176470588234
 40
0.3137254901960783
 40
0.3137254901960783
 40
0.3137254901960783
 40
0.3137254901960783
 40
0.3333333333333332
 40
0.3333333333333332
 40
0.3333333333333332
 40
0.3333333333333332
 40
0.3529411764705881
 40
0.3529411764705881
 40
0.3529411764705881
 40
0.3529411764705881
 40
0.372549019607843
 40
0.372549019607843
 40
0.372549019607843
 40
0.372549019607843
 40
0.3921568627450979
 40
0.3921568627450979
 40
0.3921568627450979
 40
0.3921568627450979
 40
0.4117647058823528
 40
0.4117647058823528
 40
0.4117647058823528
 40
0.4117647058823528
 40
0.4313725490196076
 40
0.4313725490196076
 40
0.4313725490196076
 40
0.4313725490196076
 40
0.4509803921568625
 40
0.4509803921568625
 40
0.4509803921568625
 40
0.4509803921568625
 40
0.4705882352941174
 40
0.4705882352941174
 40
0.4705882352941174
 40
0.4705882352941174
 40
0.4901960784313723
 40
0.4901960784313723
 40
0.4901960784313723
 40
0.4901960784313723
 40
0.5098039215686272
 40
0.5098039215686272
 40
0.5098039215686272
 40
0.5098039215686272
 40
0.5294117647058821
 40
0.5294117647058821
 40
0.5294117647058821
 40
0.5294117647058821
 40
0.5490196078431371
 40
0.5490196078431371
 40
0.5490196078431371
 40
0.5490196078431371
 40
0.568627450980392
 40
0.568627450980392
 40
0.568627450980392
 40
0.568627450980392
 40
0.588235294117647
 40
0.588235294117647
 40
0.588235294117647
 40
0.588235294117647
 40
0.6078431372549019
 40
0.6078431372549019
 40
0.6078431372549019
 40
0.6078431372549019
 40
0.6274509803921569
 40
0.6274509803921569
 40
0.6274509803921569
 40
0.6274509803921569
 40
0.6470588235294118
 40
0.6470588235294118
 40
0.6470588235294118
 40
0.6470588235294118
 40
0.6666666666666667
 40
0.6666666666666667
 40
0.6666666666666667
 40
0.6666666666666667
 40
0.6862745098039217
 40
0.6862745098039217
 40
0.6862745098039217
 40
0.6862745098039217
 40
0.7058823529411766
 40
0.7058823529411766
 40
0.7058823529411766
 40
0.7058823529411766
 40
0.7254901960784316
 40
0.7254901960784316
 40
0.7254901960784316
 40
0.7254901960784316
 40
0.7450980392156865
 40
0.7450980392156865
 40
0.7450980392156865
 40
0.7450980392156865
 40
0.7647058823529415
 40
0.7647058823529415
 40
0.7647058823529415
 40
0.7647058823529415
 40
0.7843137254901964
 40
0.7843137254901964
 40
0.7843137254901964
 40
0.7843137254901964
 40
0.8039215686274513
 40
0.8039215686274513
 40
0.8039215686274513
 40
0.8039215686274513
 40
0.8235294117647063
 40
0.8235294117647063
 40
0.8235294117647063
 40
0.8235294117647063
 40
0.8431372549019612
 40
0.8431372549019612
 40
0.8431372549019612
 40
0.8431372549019612
 40
0.8627450980392162
 40
0.8627450980392162
 40
0.8627450980392162
 40
0.8627450980392162
 40
0.8823529411764711
 40
0.8823529411764711
 40
0.8823529411764711
 40
0.8823529411764711
 40
0.9019607843137261
 40
0.9019607843137261
 40
0.9019607843137261
 40
0.9019607843137261
 40
0.921568627450981
 40
0.921568627450981
 40
0.921568627450981
 40
0.921568627450981
 40
0.941176470588236
 40
0.941176470588236
 40
0.941176470588236
 40
0.941176470588236
 40
0.9607843137254909
 40
0.9607843137254909
 40
0.9607843137254909
 40
0.9607843137254909
 40
0.9803921568627458
 40
0.9803921568627458
 40
0.9803921568627458
 40
0.9803921568627458
 40
1.0
 40
1.0
 40
1.0
 40
1.0
 10
3.4474
 20
137.89410000000001
 30
0.0
 10
3.4474
 20
137.89410000000001
 30
0.0
 10
-0.994
 20
137.8886
 30
0.0
 10
-0.994
 20
137.8886
 30
0.0
 10
-0.994
 20
137.8886
 30
0.0
 10
-3.1338000000000004
 20
142.22140000000002
 30
0.0
 10
-7.3004000000000007
 20
145.11930000000001
 30
0.0
 10
-12.103300000000001
 20
145.66040000000001
 30
0.0
 10
-12.103300000000001
 20
145.66040000000001
 30
0.0
 10
-12.103300000000001
 20
145.66040000000001
 30
0.0
 10
-61.660900000000005
 20
145.66040000000001
 30
0.0
 10
-61.660900000000005
 20
145.66040000000001
 30
0.0
 10
-61.660900000000005
 20
145.66040000000001
 30
0.0
 10
-61.660900000000005
 20
145.66040000000001
 30
0.0
 10
-71.695400000000006
 20
124.49220000000001
 30
0.0
 10
-71.695400000000006
 20
124.49220000000001
 30
0.0
 10
-71.695400000000006
 20
124.49220000000001
 30
0.0
 10
-71.695400000000006
 20
124.49220000000001
 30
0.0
 10
-111.8262
 20
124.5382
 30
0.0
 10
-111.8262
 20
124.5382
 30
0.0
 10
-111.8262
 20
124.5382
 30
0.0
 10
-111.8262
 20
124.5382
 30
0.0
 10
-111.82010000000001
 20
113.61460000000001
 30
0.0
 10
-111.82010000000001
 20
113.61460000000001
 30
0.0
 10
-111.82010000000001
 20
113.61460000000001
 30
0.0
 10
-111.82010000000001
 20
113.61460000000001
 30
0.0
 10
-115.8185
 20
113.61450000000001
 30
0.0
 10
-115.8185
 20
113.61450000000001
 30
0.0
 10
-115.8185
 20
113.61450000000001
 30
0.0
 10
-115.8185
 20
113.61450000000001
 30
0.0
 10
-115.85000000000001
 20
148.25290000000001
 30
0.0
 10
-115.85000000000001
 20
148.25290000000001
 30
0.0
 10
-115.85000000000001
 20
148.25290000000001
 30
0.0
 10
-115.85000000000001
 20
149.0378
 30
0.0
 10
-116.1619
 20
149.79040000000001
 30
0.0
 10
-116.71720000000001
 20
150.34520000000001
 30
0.0
 10
-116.71720000000001
 20
150.34520000000001
 30
0.0
 10
-117.2724
 20
150.90010000000001
 30
0.0
 10
-118.0292
 20
151.2115
 30
0.0
 10
-118.81400000000001
 20
151.21100000000001
 30
0.0
 10
-118.81400000000001
 20
151.21100000000001
 30
0.0
 10
-118.81400000000001
 20
151.21100000000001
 30
0.0
 10
-186.93540000000002
 20
151.1283
 30
0.0
 10
-186.93540000000002
 20
151.1283
 30
0.0
 10
-186.93540000000002
 20
151.1283
 30
0.0
 10
-193.58930000000001
 20
155.4477
 30
0.0
 10
-198.542
 20
161.86100000000002
 30
0.0
 10
-200.9512
 20
169.4179
 30
0.0
 10
-200.9512
 20
169.4179
 30
0.0
 10
-204.02640000000002
 20
179.9348
 30
0.0
 10
-214.73590000000002
 20
186.2774
 30
0.0
 10
-225.44480000000001
 20
183.94820000000001
 30
0.0
 10
-225.44480000000001
 20
183.94820000000001
 30
0.0
 10
-240.3133
 20
179.2081
 30
0.0
 10
-249.64600000000002
 20
166.29680000000002
 30
0.0
 10
-249.6739
 20
151.13849999999999
 30
0.0
 10
-249.6739
 20
151.13849999999999
 30
0.0
 10
-249.6739
 20
151.13849999999999
 30
0.0
 10
-249.6739
 20
139.66800000000001
 30
0.0
 10
-249.6739
 20
139.66800000000001
 30
0.0
 10
-249.6739
 20
139.66800000000001
 30
0.0
 10
-249.6739
 20
139.66800000000001
 30
0.0
 10
-172.66470000000001
 20
139.7458
 30
0.0
 10
-172.66470000000001
 20
139.7458
 30
0.0
 10
-172.66470000000001
 20
139.7458
 30
0.0
 10
-172.66470000000001
 20
139.7458
 30
0.0
 10
-172.66140000000001
 20
135.7482
 30
0.0
 10
-172.66140000000001
 20
135.7482
 30
0.0
 10
-172.66140000000001
 20
135.7482
 30
0.0
 10
-172.66140000000001
 20
135.7482
 30
0.0
 10
-248.12060000000002
 20
135.67180000000002
 30
0.0
 10
-248.12060000000002
 20
135.67180000000002
 30
0.0
 10
-248.12060000000002
 20
135.67180000000002
 30
0.0
 10
-240.7098
 20
121.25830000000001
 30
0.0
 10
-231.86800000000002
 20
119.6448
 30
0.0
 10
-217.54640000000001
 20
119.0908
 30
0.0
 10
-217.54640000000001
 20
119.0908
 30
0.0
 10
-217.54640000000001
 20
119.0908
 30
0.0
 10
-219.05430000000001
 20
113.8841
 30
0.0
 10
-219.05430000000001
 20
113.8841
 30
0.0
 10
-219.05430000000001
 20
113.8841
 30
0.0
 10
-220.29150000000001
 20
114.2638
 30
0.0
 10
-221.6054
 20
114.46850000000001
 30
0.0
 10
-222.96700000000001
 20
114.46850000000001
 30
0.0
 10
-222.96700000000001
 20
114.46850000000001
 30
0.0
 10
-230.321
 20
114.46850000000001
 30
0.0
 10
-236.28470000000002
 20
108.50590000000001
 30
0.0
 10
-236.28470000000002
 20
101.1538
 30
0.0
 10
-236.28470000000002
 20
101.1538
 30
0.0
 10
-236.28470000000002
 20
93.801500000000004
 30
0.0
 10
-230.321
 20
87.839100000000002
 30
0.0
 10
-222.96700000000001
 20
87.839100000000002
 30
0.0
 10
-222.96700000000001
 20
87.839100000000002
 30
0.0
 10
-215.6131
 20
87.839100000000002
 30
0.0
 10
-209.64940000000001
 20
93.801500000000004
 30
0.0
 10
-209.64940000000001
 20
101.1538
 30
0.0
 10
-209.64940000000001
 20
101.1538
 30
0.0
 10
-209.64940000000001
 20
103.89330000000001
 30
0.0
 10
-210.47740000000002
 20
106.4397
 30
0.0
 10
-211.89690000000002
 20
108.55670000000001
 30
0.0
 10
-211.89690000000002
 20
108.55670000000001
 30
0.0
 10
-211.89690000000002
 20
108.55670000000001
 30
0.0
 10
-205.53040000000001
 20
113.37350000000001
 30
0.0
 10
-205.53040000000001
 20
113.37350000000001
 30
0.0
 10
-205.53040000000001
 20
113.37350000000001
 30
0.0
 10
-190.1575
 20
107.16760000000001
 30
0.0
 10
-174.21540000000002
 20
102.4675
 30
0.0
 10
-157.9342
 20
99.340100000000007
 30
0.0
 10
-157.9342
 20
99.340100000000007
 30
0.0
 10
-152.36870000000002
 20
98.01100000000001
 30
0.0
 10
-146.6678
 20
97.326000000000008
 30
0.0
 10
-140.94580000000002
 20
97.2988
 30
0.0
 10
-140.94580000000002
 20
97.2988
 30
0.0
 10
-140.94580000000002
 20
97.2988
 30
0.0
 10
-89.351100000000002
 20
97.350500000000011
 30
0.0
 10
-89.351100000000002
 20
97.350500000000011
 30
0.0
 10
-89.351100000000002
 20
97.350500000000011
 30
0.0
 10
-89.351100000000002
 20
97.350500000000011
 30
0.0
 10
-89.346299999999999
 20
93.352900000000005
 30
0.0
 10
-89.346299999999999
 20
93.352900000000005
 30
0.0
 10
-89.346299999999999
 20
93.352900000000005
 30
0.0
 10
-89.346299999999999
 20
93.352900000000005
 30
0.0
 10
-121.90020000000001
 20
93.352900000000005
 30
0.0
 10
-121.90020000000001
 20
93.352900000000005
 30
0.0
 10
-121.90020000000001
 20
93.352900000000005
 30
0.0
 10
-121.459
 20
88.486900000000006
 30
0.0
 10
-117.67140000000001
 20
84.548200000000008
 30
0.0
 10
-112.82390000000001
 20
83.927700000000002
 30
0.0
 10
-112.82390000000001
 20
83.927700000000002
 30
0.0
 10
-112.82390000000001
 20
83.927700000000002
 30
0.0
 10
-61.796300000000002
 20
83.96050000000001
 30
0.0
 10
-61.796300000000002
 20
83.96050000000001
 30
0.0
 10
-61.796300000000002
 20
83.96050000000001
 30
0.0
 10
-61.796300000000002
 20
83.96050000000001
 30
0.0
 10
-61.796400000000006
 20
113.61450000000001
 30
0.0
 10
-61.796400000000006
 20
113.61450000000001
 30
0.0
 10
-61.796400000000006
 20
113.61450000000001
 30
0.0
 10
-61.796400000000006
 20
113.61450000000001
 30
0.0
 10
-57.797800000000002
 20
113.61790000000001
 30
0.0
 10
-57.797800000000002
 20
113.61790000000001
 30
0.0
 10
-57.797800000000002
 20
113.61790000000001
 30
0.0
 10
-57.797800000000002
 20
113.61790000000001
 30
0.0
 10
-57.797800000000002
 20
83.96050000000001
 30
0.0
 10
-57.797800000000002
 20
83.96050000000001
 30
0.0
 10
-57.797800000000002
 20
83.96050000000001
 30
0.0
 10
-57.797800000000002
 20
83.96050000000001
 30
0.0
 10
-45.323800000000006
 20
83.96050000000001
 30
0.0
 10
-45.323800000000006
 20
83.96050000000001
 30
0.0
 10
-45.323800000000006
 20
83.96050000000001
 30
0.0
 10
-44.9313
 20
83.960599999999999
 30
0.0
 10
-44.554900000000004
 20
84.151899999999998
 30
0.0
 10
-44.2776
 20
84.429600000000008
 30
0.0
 10
-44.2776
 20
84.429600000000008
 30
0.0
 10
-44.0002
 20
84.707100000000011
 30
0.0
 10
-43.8444
 20
85.085599999999999
 30
0.0
 10
-43.844799999999999
 20
85.477900000000005
 30
0.0
 10
-43.844799999999999
 20
85.477900000000005
 30
0.0
 10
-43.844799999999999
 20
85.477900000000005
 30
0.0
 10
-43.849499999999999
 20
90.082800000000006
 30
0.0
 10
-43.849499999999999
 20
90.082800000000006
 30
0.0
 10
-43.849499999999999
 20
90.082800000000006
 30
0.0
 10
-24.523
 20
92.905000000000001
 30
0.0
 10
-8.3225999999999996
 20
106.1798
 30
0.0
 10
-1.7374000000000001
 20
124.56360000000001
 30
0.0
 10
-1.7374000000000001
 20
124.56360000000001
 30
0.0
 10
-1.7374000000000001
 20
124.56360000000001
 30
0.0
 10
3.4610000000000003
 20
124.5685
 30
0.0
 10
3.4610000000000003
 20
124.5685
 30
0.0
 10
3.4610000000000003
 20
124.5685
 30
0.0
 10
4.2462
 20
124.56870000000001
 30
0.0
 10
4.9990000000000006
 20
124.88040000000001
 30
0.0
 10
5.5539000000000005
 20
125.4355
 30
0.0
 10
5.5539000000000005
 20
125.4355
 30
0.0
 10
6.109
 20
125.9906
 30
0.0
 10
6.4208000000000007
 20
126.74720000000001
 30
0.0
 10
6.4206000000000003
 20
127.53190000000001
 30
0.0
 10
6.4206000000000003
 20
127.53190000000001
 30
0.0
 10
6.4206000000000003
 20
127.53190000000001
 30
0.0
 10
6.4184000000000001
 20
129.2347
 30
0.0
 10
6.4184000000000001
 20
129.2347
 30
0.0
 10
6.4184000000000001
 20
129.2347
 30
0.0
 10
6.4184000000000001
 20
129.2347
 30
0.0
 10
-0.9862000000000001
 20
129.2269
 30
0.0
 10
-0.9862000000000001
 20
129.2269
 30
0.0
 10
-0.9862000000000001
 20
129.2269
 30
0.0
 10
-0.9862000000000001
 20
129.2269
 30
0.0
 10
-0.9895000000000001
 20
133.22470000000001
 30
0.0
 10
-0.9895000000000001
 20
133.22470000000001
 30
0.0
 10
-0.9895000000000001
 20
133.22470000000001
 30
0.0
 10
-0.9895000000000001
 20
133.22470000000001
 30
0.0
 10
6.4151000000000007
 20
133.23240000000001
 30
0.0
 10
6.4151000000000007
 20
133.23240000000001
 30
0.0
 10
6.4151000000000007
 20
133.23240000000001
 30
0.0
 10
6.4151000000000007
 20
133.23240000000001
 30
0.0
 10
6.4128000000000007
 20
134.93530000000001
 30
0.0
 10
6.4128000000000007
 20
134.93530000000001
 30
0.0
 10
6.4128000000000007
 20
134.93530000000001
 30
0.0
 10
6.4127000000000001
 20
135.72020000000001
 30
0.0
 10
6.1007000000000007
 20
136.47320000000002
 30
0.0
 10
5.5449999999999999
 20
137.02800000000002
 30
0.0
 10
5.5449999999999999
 20
137.02800000000002
 30
0.0
 10
4.9896000000000003
 20
137.5831
 30
0.0
 10
4.2324999999999999
 20
137.8946
 30
0.0
 10
3.4474
 20
137.89410000000001
 30
0.0
  0
SPLINE
  5
27
100
AcDbEntity
  8
0
370
     5
 62
     1
100
AcDbSpline
210
0.0
220
0.0
230
1.0
 70
     1
 71
     3
 72
   140
 73
   136
 74
     0
 42
0.0000000001
 43
0.0000000001
 40
0.0
 40
0.0
 40
0.0
 40
0.0
 40
0.0294117647058824
 40
0.0294117647058824
 40
0.0294117647058824
 40
0.0294117647058824
 40
0.0588235294117647
 40
0.0588235294117647
 40
0.0588235294117647
 40
0.0588235294117647
 40
0.0882352941176471
 40
0.0882352941176471
 40
0.0882352941176471
 40
0.0882352941176471
 40
0.1176470588235294
 40
0.1176470588235294
 40
0.1176470588235294
 40
0.1176470588235294
 40
0.1470588235294118
 40
0.1470588235294118
 40
0.1470588235294118
 40
0.1470588235294118
 40
0.1764705882352941
 40
0.1764705882352941
 40
0.1764705882352941
 40
0.1764705882352941
 40
0.2058823529411765
 40
0.2058823529411765
 40
0.2058823529411765
 40
0.2058823529411765
 40
0.2352941176470589
 40
0.2352941176470589
 40
0.2352941176470589
 40
0.2352941176470589
 40
0.2647058823529412
 40
0.2647058823529412
 40
0.2647058823529412
 40
0.2647058823529412
 40
0.2941176470588235
 40
0.2941176470588235
 40
0.2941176470588235
 40
0.2941176470588235
 40
0.3235294117647059
 40
0.3235294117647059
 40
0.3235294117647059
 40
0.3235294117647059
 40
0.3529411764705883
 40
0.3529411764705883
 40
0.3529411764705883
 40
0.3529411764705883
 40
0.3823529411764706
 40
0.3823529411764706
 40
0.3823529411764706
 40
0.3823529411764706
 40
0.411764705882353
 40
0.411764705882353
 40
0.411764705882353
 40
0.411764705882353
 40
0.4411764705882353
 40
0.4411764705882353
 40
0.4411764705882353
 40
0.4411764705882353
 40
0.4705882352941177
 40
0.4705882352941177
 40
0.4705882352941177
 40
0.4705882352941177
 40
0.5
 40
0.5
 40
0.5
 40
0.5
 40
0.5294117647058824
 40
0.5294117647058824
 40
0.5294117647058824
 40
0.5294117647058824
 40
0.5588235294117647
 40
0.5588235294117647
 40
0.5588235294117647
 40
0.5588235294117647
 40
0.5882352941176471
 40
0.5882352941176471
 40
0.5882352941176471
 40
0.5882352941176471
 40
0.6176470588235294
 40
0.6176470588235294
 40
0.6176470588235294
 40
0.6176470588235294
 40
0.6470588235294118
 40
0.6470588235294118
 40
0.6470588235294118
 40
0.6470588235294118
 40
0.6764705882352942
 40
0.6764705882352942
 40
0.6764705882352942
 40
0.6764705882352942
 40
0.7058823529411765
 40
0.7058823529411765
 40
0.7058823529411765
 40
0.7058823529411765
 40
0.7352941176470589
 40
0.7352941176470589
 40
0.7352941176470589
 40
0.7352941176470589
 40
0.7647058823529412
 40
0.7647058823529412
 40
0.7647058823529412
 40
0.7647058823529412
 40
0.7941176470588236
 40
0.7941176470588236
 40
0.7941176470588236
 40
0.7941176470588236
 40
0.823529411764706
 40
0.823529411764706
 40
0.823529411764706
 40
0.823529411764706
 40
0.8529411764705883
 40
0.8529411764705883
 40
0.8529411764705883
 40
0.8529411764705883
 40
0.8823529411764707
 40
0.8823529411764707
 40
0.8823529411764707
 40
0.8823529411764707
 40
0.911764705882353
 40
0.911764705882353
 40
0.911764705882353
 40
0.911764705882353
 40
0.9411764705882354
 40
0.9411764705882354
 40
0.9411764705882354
 40
0.9411764705882354
 40
0.9705882352941178
 40
0.9705882352941178
 40
0.9705882352941178
 40
0.9705882352941178
 40
1.0
 40
1.0
 40
1.0
 40
1.0
 10
-44.8889
 20
55.507100000000001
 30
0.0
 10
-45.626899999999999
 20
58.570900000000002
 30
0.0
 10
-46.876200000000004
 20
61.486800000000002
 30
0.0
 10
-48.584900000000005
 20
64.134799999999998
 30
0.0
 10
-48.584900000000005
 20
64.134799999999998
 30
0.0
 10
-50.3446
 20
66.94850000000001
 30
0.0
 10
-52.5259
 20
69.474100000000007
 30
0.0
 10
-55.053600000000003
 20
71.624700000000004
 30
0.0
 10
-55.053600000000003
 20
71.624700000000004
 30
0.0
 10
-59.650800000000004
 20
75.771500000000003
 30
0.0
 10
-65.828500000000005
 20
77.629600000000011
 30
0.0
 10
-71.955799999999996
 20
76.73790000000001
 30
0.0
 10
-71.955799999999996
 20
76.73790000000001
 30
0.0
 10
-78.083100000000002
 20
75.846000000000004
 30
0.0
 10
-83.494500000000002
 20
72.271500000000003
 30
0.0
 10
-86.718400000000003
 20
66.986400000000003
 30
0.0
 10
-86.718400000000003
 20
66.986400000000003
 30
0.0
 10
-93.124000000000009
 20
57.778100000000002
 30
0.0
 10
-97.839100000000002
 20
47.507800000000003
 30
0.0
 10
-100.64790000000001
 20
36.648800000000001
 30
0.0
 10
-100.64790000000001
 20
36.648800000000001
 30
0.0
 10
-101.0395
 20
35.1417
 30
0.0
 10
-102.5339
 20
34.193100000000001
 30
0.0
 10
-104.0639
 20
34.484100000000005
 30
0.0
 10
-104.0639
 20
34.484100000000005
 30
0.0
 10
-104.0639
 20
34.484100000000005
 30
0.0
 10
-137.17789999999999
 20
40.684699999999999
 30
0.0
 10
-137.17789999999999
 20
40.684699999999999
 30
0.0
 10
-137.17789999999999
 20
40.684699999999999
 30
0.0
 10
-137.17789999999999
 20
40.684699999999999
 30
0.0
 10
-174.97980000000001
 20
47.759700000000002
 30
0.0
 10
-174.97980000000001
 20
47.759700000000002
 30
0.0
 10
-174.97980000000001
 20
47.759700000000002
 30
0.0
 10
-175.41660000000002
 20
47.845500000000001
 30
0.0
 10
-175.86610000000002
 20
47.729400000000005
 30
0.0
 10
-176.20840000000001
 20
47.445100000000004
 30
0.0
 10
-176.20840000000001
 20
47.445100000000004
 30
0.0
 10
-176.55080000000001
 20
47.160900000000005
 30
0.0
 10
-176.53480000000002
 20
46.7376
 30
0.0
 10
-176.5309
 20
46.2926
 30
0.0
 10
-176.5309
 20
46.2926
 30
0.0
 10
-176.5309
 20
46.2926
 30
0.0
 10
-176.5309
 20
23.877000000000002
 30
0.0
 10
-176.5309
 20
23.877000000000002
 30
0.0
 10
-176.5309
 20
23.877000000000002
 30
0.0
 10
-176.5309
 20
23.877000000000002
 30
0.0
 10
-117.29170000000001
 20
23.884399999999999
 30
0.0
 10
-117.29170000000001
 20
23.884399999999999
 30
0.0
 10
-117.29170000000001
 20
23.884399999999999
 30
0.0
 10
-117.29170000000001
 20
23.884399999999999
 30
0.0
 10
-117.29170000000001
 20
21.882200000000001
 30
0.0
 10
-117.29170000000001
 20
21.882200000000001
 30
0.0
 10
-117.29170000000001
 20
21.882200000000001
 30
0.0
 10
-117.29170000000001
 20
21.882200000000001
 30
0.0
 10
-117.29170000000001
 20
19.879899999999999
 30
0.0
 10
-117.29170000000001
 20
19.879899999999999
 30
0.0
 10
-117.29170000000001
 20
19.879899999999999
 30
0.0
 10
-117.29170000000001
 20
19.879899999999999
 30
0.0
 10
-176.5309
 20
19.8873
 30
0.0
 10
-176.5309
 20
19.8873
 30
0.0
 10
-176.5309
 20
19.8873
 30
0.0
 10
-176.5309
 20
19.8873
 30
0.0
 10
-176.5309
 20
-2.5284
 30
0.0
 10
-176.5309
 20
-2.5284
 30
0.0
 10
-176.5309
 20
-2.5284
 30
0.0
 10
-176.53480000000002
 20
-2.9733000000000001
 30
0.0
 10
-176.55080000000001
 20
-3.3966000000000003
 30
0.0
 10
-176.20840000000001
 20
-3.6808000000000001
 30
0.0
 10
-176.20840000000001
 20
-3.6808000000000001
 30
0.0
 10
-175.86610000000002
 20
-3.9652000000000003
 30
0.0
 10
-175.41660000000002
 20
-4.0811000000000002
 30
0.0
 10
-174.97980000000001
 20
-3.9955000000000003
 30
0.0
 10
-174.97980000000001
 20
-3.9955000000000003
 30
0.0
 10
-174.97980000000001
 20
-3.9955000000000003
 30
0.0
 10
-137.17789999999999
 20
3.0795000000000003
 30
0.0
 10
-137.17789999999999
 20
3.0795000000000003
 30
0.0
 10
-137.17789999999999
 20
3.0795000000000003
 30
0.0
 10
-137.17789999999999
 20
3.0795000000000003
 30
0.0
 10
-104.0639
 20
9.2802000000000007
 30
0.0
 10
-104.0639
 20
9.2802000000000007
 30
0.0
 10
-104.0639
 20
9.2802000000000007
 30
0.0
 10
-102.5339
 20
9.5711000000000013
 30
0.0
 10
-101.0395
 20
8.6224000000000007
 30
0.0
 10
-100.64790000000001
 20
7.1154999999999999
 30
0.0
 10
-100.64790000000001
 20
7.1154999999999999
 30
0.0
 10
-97.839100000000002
 20
-3.7435
 30
0.0
 10
-93.124000000000009
 20
-14.013900000000001
 30
0.0
 10
-86.718400000000003
 20
-23.222100000000001
 30
0.0
 10
-86.718400000000003
 20
-23.222100000000001
 30
0.0
 10
-83.494500000000002
 20
-28.507300000000001
 30
0.0
 10
-78.083100000000002
 20
-32.081800000000001
 30
0.0
 10
-71.955799999999996
 20
-32.973500000000001
 30
0.0
 10
-71.955799999999996
 20
-32.973500000000001
 30
0.0
 10
-65.828500000000005
 20
-33.865300000000005
 30
0.0
 10
-59.650800000000004
 20
-32.007200000000005
 30
0.0
 10
-55.053600000000003
 20
-27.860400000000002
 30
0.0
 10
-55.053600000000003
 20
-27.860400000000002
 30
0.0
 10
-52.5259
 20
-25.709700000000002
 30
0.0
 10
-50.3446
 20
-23.184200000000001
 30
0.0
 10
-48.584900000000005
 20
-20.370699999999999
 30
0.0
 10
-48.584900000000005
 20
-20.370699999999999
 30
0.0
 10
-46.876200000000004
 20
-17.722799999999999
 30
0.0
 10
-45.626899999999999
 20
-14.806500000000002
 30
0.0
 10
-44.8889
 20
-11.742800000000001
 30
0.0
 10
-44.8889
 20
-11.742800000000001
 30
0.0
 10
-42.386200000000002
 20
-4.0352000000000006
 30
0.0
 10
-42.8874
 20
4.3276000000000003
 30
0.0
 10
-46.296900000000001
 20
11.679500000000001
 30
0.0
 10
-46.296900000000001
 20
11.679500000000001
 30
0.0
 10
-47.201900000000002
 20
13.494100000000001
 30
0.0
 10
-48.319000000000003
 20
15.193900000000001
 30
0.0
 10
-49.625300000000003
 20
16.744900000000001
 30
0.0
 10
-49.625300000000003
 20
16.744900000000001
 30
0.0
 10
-49.625300000000003
 20
16.744900000000001
 30
0.0
 10
-52.581500000000005
 20
18.883400000000002
 30
0.0
 10
-52.581500000000005
 20
18.883400000000002
 30
0.0
 10
-52.581500000000005
 20
18.883400000000002
 30
0.0
 10
-53.574800000000003
 20
19.601800000000001
 30
0.0
 10
-54.113400000000006
 20
20.656400000000001
 30
0.0
 10
-54.113400000000006
 20
21.882200000000001
 30
0.0
 10
-54.113400000000006
 20
21.882200000000001
 30
0.0
 10
-54.113300000000002
 20
23.107900000000001
 30
0.0
 10
-53.5747
 20
24.162600000000001
 30
0.0
 10
-52.581500000000005
 20
24.881
 30
0.0
 10
-52.581500000000005
 20
24.881
 30
0.0
 10
-52.581500000000005
 20
24.881
 30
0.0
 10
-49.625300000000003
 20
27.019500000000001
 30
0.0
 10
-49.625300000000003
 20
27.019500000000001
 30
0.0
 10
-49.625300000000003
 20
27.019500000000001
 30
0.0
 10
-48.319000000000003
 20
28.570400000000003
 30
0.0
 10
-47.201900000000002
 20
30.270400000000002
 30
0.0
 10
-46.296900000000001
 20
32.084699999999998
 30
0.0
 10
-46.296900000000001
 20
32.084699999999998
 30
0.0
 10
-42.8874
 20
39.436599999999999
 30
0.0
 10
-42.386200000000002
 20
47.799500000000002
 30
0.0
 10
-44.8889
 20
55.507100000000001
 30
0.0
  0
SPLINE
  5
28
100
AcDbEntity
  8
0
370
     5
 62
     1
100
AcDbSpline
210
0.0
220
0.0
230
1.0
 70
     1
 71
     3
 72
   164
 73
   160
 74
     0
 42
0.0000000001
 43
0.0000000001
 40
0.0
 40
0.0
 40
0.0
 40
0.0
 40
0.025
 40
0.025
 40
0.025
 40
0.025
 40
0.05
 40
0.05
 40
0.05
 40
0.05
 40
0.075
 40
0.075
 40
0.075
 40
0.075
 40
0.1
 40
0.1
 40
0.1
 40
0.1
 40
0.125
 40
0.125
 40
0.125
 40
0.125
 40
0.15
 40
0.15
 40
0.15
 40
0.15
 40
0.175
 40
0.175
 40
0.175
 40
0.175
 40
0.2
 40
0.2
 40
0.2
 40
0.2
 40
0.225
 40
0.225
 40
0.225
 40
0.225
 40
0.25
 40
0.25
 40
0.25
 40
0.25
 40
0.275
 40
0.275
 40
0.275
 40
0.275
 40
0.3
 40
0.3
 40
0.3
 40
0.3
 40
0.325
 40
0.325
 40
0.325
 40
0.325
 40
0.35
 40
0.35
 40
0.35
 40
0.35
 40
0.3750000000000001
 40
0.3750000000000001
 40
0.3750000000000001
 40
0.3750000000000001
 40
0.4000000000000001
 40
0.4000000000000001
 40
0.4000000000000001
 40
0.4000000000000001
 40
0.4250000000000001
 40
0.4250000000000001
 40
0.4250000000000001
 40
0.4250000000000001
 40
0.4500000000000001
 40
0.4500000000000001
 40
0.4500000000000001
 40
0.4500000000000001
 40
0.4750000000000001
 40
0.4750000000000001
 40
0.4750000000000001
 40
0.4750000000000001
 40
0.5000000000000001
 40
0.5000000000000001
 40
0.5000000000000001
 40
0.5000000000000001
 40
0.5250000000000001
 40
0.5250000000000001
 40
0.5250000000000001
 40
0.5250000000000001
 40
0.5500000000000002
 40
0.5500000000000002
 40
0.5500000000000002
 40
0.5500000000000002
 40
0.5750000000000002
 40
0.5750000000000002
 40
0.5750000000000002
 40
0.5750000000000002
 40
0.6000000000000002
 40
0.6000000000000002
 40
0.6000000000000002
 40
0.6000000000000002
 40
0.6250000000000002
 40
0.6250000000000002
 40
0.6250000000000002
 40
0.6250000000000002
 40
0.6500000000000002
 40
0.6500000000000002
 40
0.6500000000000002
 40
0.6500000000000002
 40
0.6750000000000003
 40
0.6750000000000003
 40
0.6750000000000003
 40
0.6750000000000003
 40
0.7000000000000003
 40
0.7000000000000003
 40
0.7000000000000003
 40
0.7000000000000003
 40
0.7250000000000003
 40
0.7250000000000003
 40
0.7250000000000003
 40
0.7250000000000003
 40
0.7500000000000003
 40
0.7500000000000003
 40
0.7500000000000003
 40
0.7500000000000003
 40
0.7750000000000004
 40
0.7750000000000004
 40
0.7750000000000004
 40
0.7750000000000004
 40
0.8000000000000004
 40
0.8000000000000004
 40
0.8000000000000004
 40
0.8000000000000004
 40
0.8250000000000004
 40
0.8250000000000004
 40
0.8250000000000004
 40
0.8250000000000004
 40
0.8500000000000004
 40
0.8500000000000004
 40
0.8500000000000004
 40
0.8500000000000004
 40
0.8750000000000004
 40
0.8750000000000004
 40
0.8750000000000004
 40
0.8750000000000004
 40
0.9000000000000005
 40
0.9000000000000005
 40
0.9000000000000005
 40
0.9000000000000005
 40
0.9250000000000005
 40
0.9250000000000005
 40
0.9250000000000005
 40
0.9250000000000005
 40
0.9500000000000005
 40
0.9500000000000005
 40
0.9500000000000005
 40
0.9500000000000005
 40
0.9750000000000005
 40
0.9750000000000005
 40
0.9750000000000005
 40
0.9750000000000005
 40
1.0
 40
1.0
 40
1.0
 40
1.0
 10
95.163899999999998
 20
-33.572200000000002
 30
0.0
 10
95.017700000000005
 20
-33.572200000000002
 30
0.0
 10
94.871000000000009
 20
-33.570900000000002
 30
0.0
 10
94.724400000000003
 20
-33.567100000000003
 30
0.0
 10
94.724400000000003
 20
-33.567100000000003
 30
0.0
 10
89.128600000000006
 20
-33.424300000000002
 30
0.0
 10
83.9208
 20
-30.558100000000003
 30
0.0
 10
80.776800000000009
 20
-25.927800000000001
 30
0.0
 10
80.776800000000009
 20
-25.927800000000001
 30
0.0
 10
80.084299999999999
 20
-25.23
 30
0.0
 10
79.092500000000001
 20
-24.919600000000003
 30
0.0
 10
78.125900000000001
 20
-25.0992
 30
0.0
 10
78.125900000000001
 20
-25.0992
 30
0.0
 10
76.418800000000005
 20
-25.6999
 30
0.0
 10
74.695300000000003
 20
-26.2529
 30
0.0
 10
72.957400000000007
 20
-26.757100000000001
 30
0.0
 10
72.957400000000007
 20
-26.757100000000001
 30
0.0
 10
68.16510000000001
 20
-28.185200000000002
 30
0.0
 10
63.281400000000005
 20
-29.2882
 30
0.0
 10
58.340500000000006
 20
-30.058800000000002
 30
0.0
 10
58.340500000000006
 20
-30.058800000000002
 30
0.0
 10
56.785000000000004
 20
-30.3233
 30
0.0
 10
55.218600000000002
 20
-30.521000000000001
 30
0.0
 10
53.646000000000001
 20
-30.651200000000003
 30
0.0
 10
53.646000000000001
 20
-30.651200000000003
 30
0.0
 10
50.006399999999999
 20
-30.953700000000001
 30
0.0
 10
46.344700000000003
 20
-30.894100000000002
 30
0.0
 10
42.716900000000003
 20
-30.473500000000001
 30
0.0
 10
42.716900000000003
 20
-30.473500000000001
 30
0.0
 10
41.6783
 20
-30.377800000000001
 30
0.0
 10
40.645200000000003
 20
-30.229500000000002
 30
0.0
 10
39.621700000000004
 20
-30.029200000000003
 30
0.0
 10
39.621700000000004
 20
-30.029200000000003
 30
0.0
 10
38.285600000000002
 20
-29.7652
 30
0.0
 10
36.969300000000004
 20
-29.409000000000002
 30
0.0
 10
35.682400000000001
 20
-28.9633
 30
0.0
 10
35.682400000000001
 20
-28.9633
 30
0.0
 10
34.2104
 20
-28.533000000000001
 30
0.0
 10
32.7898
 20
-27.9421
 30
0.0
 10
31.447000000000003
 20
-27.2013
 30
0.0
 10
31.447000000000003
 20
-27.2013
 30
0.0
 10
27.320800000000002
 20
-25.086000000000002
 30
0.0
 10
24.7212
 20
-20.844000000000001
 30
0.0
 10
24.710100000000001
 20
-16.207800000000002
 30
0.0
 10
24.710100000000001
 20
-16.207800000000002
 30
0.0
 10
24.699100000000001
 20
-11.5717
 30
0.0
 10
27.3308
 20
-7.2904
 30
0.0
 10
31.447000000000003
 20
-5.1552000000000007
 30
0.0
 10
31.447000000000003
 20
-5.1552000000000007
 30
0.0
 10
34.971299999999999
 20
-3.3846000000000003
 30
0.0
 10
38.792000000000002
 20
-2.2754000000000003
 30
0.0
 10
42.716900000000003
 20
-1.8834000000000002
 30
0.0
 10
42.716900000000003
 20
-1.8834000000000002
 30
0.0
 10
47.9176
 20
-1.2796000000000001
 30
0.0
 10
53.179200000000002
 20
-1.4194
 30
0.0
 10
58.340500000000006
 20
-2.2979000000000003
 30
0.0
 10
58.340500000000006
 20
-2.2979000000000003
 30
0.0
 10
63.281400000000005
 20
-3.0684
 30
0.0
 10
68.16510000000001
 20
-4.1716000000000006
 30
0.0
 10
72.957400000000007
 20
-5.5994000000000002
 30
0.0
 10
72.957400000000007
 20
-5.5994000000000002
 30
0.0
 10
74.790800000000004
 20
-6.1329000000000002
 30
0.0
 10
76.6083
 20
-6.7204000000000006
 30
0.0
 10
78.4071
 20
-7.3613
 30
0.0
 10
78.4071
 20
-7.3613
 30
0.0
 10
78.807200000000009
 20
-7.5639000000000003
 30
0.0
 10
79.271900000000002
 20
-7.5962000000000005
 30
0.0
 10
79.695999999999998
 20
-7.4509000000000007
 30
0.0
 10
79.695999999999998
 20
-7.4509000000000007
 30
0.0
 10
80.1203
 20
-7.3054000000000006
 30
0.0
 10
80.4666
 20
-6.9968000000000004
 30
0.0
 10
80.658100000000005
 20
-6.5913000000000004
 30
0.0
 10
80.658100000000005
 20
-6.5913000000000004
 30
0.0
 10
83.846600000000009
 20
-1.7558
 30
0.0
 10
89.235600000000005
 20
1.1735
 30
0.0
 10
95.028600000000012
 20
1.2203000000000002
 30
0.0
 10
95.028600000000012
 20
1.2203000000000002
 30
0.0
 10
95.073800000000006
 20
1.2207000000000001
 30
0.0
 10
95.118800000000007
 20
1.2202
 30
0.0
 10
95.163899999999998
 20
1.2203000000000002
 30
0.0
 10
95.163899999999998
 20
1.2203000000000002
 30
0.0
 10
95.2089
 20
1.2202
 30
0.0
 10
95.253900000000002
 20
1.2207000000000001
 30
0.0
 10
95.298900000000003
 20
1.2203000000000002
 30
0.0
 10
95.298900000000003
 20
1.2203000000000002
 30
0.0
 10
101.0921
 20
1.1735
 30
0.0
 10
106.48100000000001
 20
-1.7558
 30
0.0
 10
109.66980000000001
 20
-6.5913000000000004
 30
0.0
 10
109.66980000000001
 20
-6.5913000000000004
 30
0.0
 10
109.86110000000001
 20
-6.9968000000000004
 30
0.0
 10
110.20740000000001
 20
-7.3054000000000006
 30
0.0
 10
110.6315
 20
-7.4509000000000007
 30
0.0
 10
110.6315
 20
-7.4509000000000007
 30
0.0
 10
111.0557
 20
-7.5962000000000005
 30
0.0
 10
111.52080000000001
 20
-7.5639000000000003
 30
0.0
 10
111.92060000000001
 20
-7.3613
 30
0.0
 10
111.92060000000001
 20
-7.3613
 30
0.0
 10
113.71940000000001
 20
-6.7204000000000006
 30
0.0
 10
115.5368
 20
-6.1329000000000002
 30
0.0
 10
117.3703
 20
-5.5994000000000002
 30
0.0
 10
117.3703
 20
-5.5994000000000002
 30
0.0
 10
122.16250000000001
 20
-4.1716000000000006
 30
0.0
 10
127.04640000000001
 20
-3.0684
 30
0.0
 10
131.98699999999999
 20
-2.2979000000000003
 30
0.0
 10
131.98699999999999
 20
-2.2979000000000003
 30
0.0
 10
137.14850000000001
 20
-1.4194
 30
0.0
 10
142.4102
 20
-1.2796000000000001
 30
0.0
 10
147.61090000000002
 20
-1.8834000000000002
 30
0.0
 10
147.61090000000002
 20
-1.8834000000000002
 30
0.0
 10
151.53560000000002
 20
-2.2754000000000003
 30
0.0
 10
155.3563
 20
-3.3846000000000003
 30
0.0
 10
158.88070000000002
 20
-5.1552000000000007
 30
0.0
 10
158.88070000000002
 20
-5.1552000000000007
 30
0.0
 10
162.99690000000001
 20
-7.2904
 30
0.0
 10
165.62860000000001
 20
-11.5717
 30
0.0
 10
165.6174
 20
-16.207800000000002
 30
0.0
 10
165.6174
 20
-16.207800000000002
 30
0.0
 10
165.60660000000001
 20
-20.844000000000001
 30
0.0
 10
163.00700000000001
 20
-25.086000000000002
 30
0.0
 10
158.88070000000002
 20
-27.2013
 30
0.0
 10
158.88070000000002
 20
-27.2013
 30
0.0
 10
157.5378
 20
-27.9421
 30
0.0
 10
156.1172
 20
-28.533000000000001
 30
0.0
 10
154.64510000000001
 20
-28.9633
 30
0.0
 10
154.64510000000001
 20
-28.9633
 30
0.0
 10
153.35840000000002
 20
-29.409000000000002
 30
0.0
 10
152.042
 20
-29.7652
 30
0.0
 10
150.70590000000001
 20
-30.029200000000003
 30
0.0
 10
150.70590000000001
 20
-30.029200000000003
 30
0.0
 10
149.6823
 20
-30.229500000000002
 30
0.0
 10
148.64930000000001
 20
-30.377800000000001
 30
0.0
 10
147.61090000000002
 20
-30.473500000000001
 30
0.0
 10
147.61090000000002
 20
-30.473500000000001
 30
0.0
 10
143.9828
 20
-30.894100000000002
 30
0.0
 10
140.32140000000001
 20
-30.953700000000001
 30
0.0
 10
136.6815
 20
-30.651200000000003
 30
0.0
 10
136.6815
 20
-30.651200000000003
 30
0.0
 10
135.10910000000001
 20
-30.521000000000001
 30
0.0
 10
133.5427
 20
-30.3233
 30
0.0
 10
131.98699999999999
 20
-30.058800000000002
 30
0.0
 10
131.98699999999999
 20
-30.058800000000002
 30
0.0
 10
127.04640000000001
 20
-29.2882
 30
0.0
 10
122.16250000000001
 20
-28.185200000000002
 30
0.0
 10
117.3703
 20
-26.757100000000001
 30
0.0
 10
117.3703
 20
-26.757100000000001
 30
0.0
 10
115.6324
 20
-26.2529
 30
0.0
 10
113.9088
 20
-25.6999
 30
0.0
 10
112.20190000000001
 20
-25.0992
 30
0.0
 10
112.20190000000001
 20
-25.0992
 30
0.0
 10
111.2351
 20
-24.919600000000003
 30
0.0
 10
110.24340000000001
 20
-25.23
 30
0.0
 10
109.5509
 20
-25.927800000000001
 30
0.0
 10
109.5509
 20
-25.927800000000001
 30
0.0
 10
106.4067
 20
-30.558100000000003
 30
0.0
 10
101.1991
 20
-33.424300000000002
 30
0.0
 10
95.603300000000004
 20
-33.567100000000003
 30
0.0
 10
95.603300000000004
 20
-33.567100000000003
 30
0.0
 10
95.456699999999998
 20
-33.570900000000002
 30
0.0
 10
95.310100000000006
 20
-33.572200000000002
 30
0.0
 10
95.163899999999998
 20
-33.572200000000002
 30
0.0
  0
SPLINE
  5
29
100
AcDbEntity
  8
0
370
     5
 62
     1
100
AcDbSpline
210
0.0
220
0.0
230
1.0
 70
     1
 71
     3
 72
    20
 73
    16
 74
     0
 42
0.0000000001
 43
0.0000000001
 40
0.0
 40
0.0
 40
0.0
 40
0.0
 40
0.25
 40
0.25
 40
0.25
 40
0.25
 40
0.5
 40
0.5
 40
0.5
 40
0.5
 40
0.75
 40
0.75
 40
0.75
 40
0.75
 40
1.0
 40
1.0
 40
1.0
 40
1.0
 10
95.163899999999998
 20
-9.5185000000000013
 30
0.0
 10
98.840699999999998
 20
-9.5185000000000013
 30
0.0
 10
101.82270000000001
 20
-12.4998
 30
0.0
 10
101.82270000000001
 20
-16.175900000000002
 30
0.0
 10
101.82270000000001
 20
-16.175900000000002
 30
0.0
 10
101.82270000000001
 20
-19.851900000000001
 30
0.0
 10
98.840699999999998
 20
-22.833100000000002
 30
0.0
 10
95.163899999999998
 20
-22.833100000000002
 30
0.0
 10
95.163899999999998
 20
-22.833100000000002
 30
0.0
 10
91.486900000000006
 20
-22.833100000000002
 30
0.0
 10
88.505099999999999
 20
-19.851900000000001
 30
0.0
 10
88.505099999999999
 20
-16.175900000000002
 30
0.0
 10
88.505099999999999
 20
-16.175900000000002
 30
0.0
 10
88.505099999999999
 20
-12.4998
 30
0.0
 10
91.486900000000006
 20
-9.5185000000000013
 30
0.0
 10
95.163899999999998
 20
-9.5185000000000013
 30
0.0
  0
SPLINE
  5
2A
100
AcDbEntity
  8
0
370
     5
 62
     1
100
AcDbSpline
210
0.0
220
0.0
230
1.0
 70
     1
 71
     3
 72
    60
 73
    56
 74
     0
 42
0.0000000001
 43
0.0000000001
 40
0.0
 40
0.0
 40
0.0
 40
0.0
 40
0.0714285714285714
 40
0.0714285714285714
 40
0.0714285714285714
 40
0.0714285714285714
 40
0.1428571428571429
 40
0.1428571428571429
 40
0.1428571428571429
 40
0.1428571428571429
 40
0.2142857142857143
 40
0.2142857142857143
 40
0.2142857142857143
 40
0.2142857142857143
 40
0.2857142857142857
 40
0.2857142857142857
 40
0.2857142857142857
 40
0.2857142857142857
 40
0.3571428571428571
 40
0.3571428571428571
 40
0.3571428571428571
 40
0.3571428571428571
 40
0.4285714285714285
 40
0.4285714285714285
 40
0.4285714285714285
 40
0.4285714285714285
 40
0.4999999999999999
 40
0.4999999999999999
 40
0.4999999999999999
 40
0.4999999999999999
 40
0.5714285714285713
 40
0.5714285714285713
 40
0.5714285714285713
 40
0.5714285714285713
 40
0.6428571428571427
 40
0.6428571428571427
 40
0.6428571428571427
 40
0.6428571428571427
 40
0.7142857142857141
 40
0.7142857142857141
 40
0.7142857142857141
 40
0.7142857142857141
 40
0.7857142857142855
 40
0.7857142857142855
 40
0.7857142857142855
 40
0.7857142857142855
 40
0.8571428571428569
 40
0.8571428571428569
 40
0.8571428571428569
 40
0.8571428571428569
 40
0.9285714285714283
 40
0.9285714285714283
 40
0.9285714285714283
 40
0.9285714285714283
 40
1.0
 40
1.0
 40
1.0
 40
1.0
 10
-187.3192
 20
82.657600000000002
 30
0.0
 10
-187.66420000000002
 20
82.657600000000002
 30
0.0
 10
-188.0095
 20
82.568300000000008
 30
0.0
 10
-188.31890000000001
 20
82.389700000000005
 30
0.0
 10
-188.31890000000001
 20
82.389700000000005
 30
0.0
 10
-188.9374
 20
82.032700000000006
 30
0.0
 10
-189.3185
 20
81.373000000000005
 30
0.0
 10
-189.3185
 20
80.658799999999999
 30
0.0
 10
-189.3185
 20
80.658799999999999
 30
0.0
 10
-189.3185
 20
80.658799999999999
 30
0.0
 10
-189.3185
 20
70.294700000000006
 30
0.0
 10
-189.3185
 20
70.294700000000006
 30
0.0
 10
-189.3185
 20
70.294700000000006
 30
0.0
 10
-189.3185
 20
70.294700000000006
 30
0.0
 10
-193.98330000000001
 20
70.294700000000006
 30
0.0
 10
-193.98330000000001
 20
70.294700000000006
 30
0.0
 10
-193.98330000000001
 20
70.294700000000006
 30
0.0
 10
-193.98330000000001
 20
70.294700000000006
 30
0.0
 10
-193.98330000000001
 20
80.658799999999999
 30
0.0
 10
-193.98330000000001
 20
80.658799999999999
 30
0.0
 10
-193.98330000000001
 20
80.658799999999999
 30
0.0
 10
-193.98330000000001
 20
80.658799999999999
 30
0.0
 10
-196.9451
 20
81.251100000000008
 30
0.0
 10
-196.9451
 20
81.251100000000008
 30
0.0
 10
-196.9451
 20
81.251100000000008
 30
0.0
 10
-196.9451
 20
87.013600000000011
 30
0.0
 10
-196.12310000000002
 20
93.596900000000005
 30
0.0
 10
-187.3192
 20
94.083100000000002
 30
0.0
 10
-187.3192
 20
94.083100000000002
 30
0.0
 10
-178.5153
 20
93.596900000000005
 30
0.0
 10
-177.69310000000002
 20
87.013600000000011
 30
0.0
 10
-177.69310000000002
 20
81.251100000000008
 30
0.0
 10
-177.69310000000002
 20
81.251100000000008
 30
0.0
 10
-177.69310000000002
 20
81.251100000000008
 30
0.0
 10
-180.6549
 20
80.658799999999999
 30
0.0
 10
-180.6549
 20
80.658799999999999
 30
0.0
 10
-180.6549
 20
80.658799999999999
 30
0.0
 10
-180.6549
 20
80.658799999999999
 30
0.0
 10
-180.6549
 20
70.294700000000006
 30
0.0
 10
-180.6549
 20
70.294700000000006
 30
0.0
 10
-180.6549
 20
70.294700000000006
 30
0.0
 10
-180.6549
 20
70.294700000000006
 30
0.0
 10
-185.32000000000002
 20
70.294700000000006
 30
0.0
 10
-185.32000000000002
 20
70.294700000000006
 30
0.0
 10
-185.32000000000002
 20
70.294700000000006
 30
0.0
 10
-185.32000000000002
 20
70.294700000000006
 30
0.0
 10
-185.32000000000002
 20
80.658799999999999
 30
0.0
 10
-185.32000000000002
 20
80.658799999999999
 30
0.0
 10
-185.32000000000002
 20
80.658799999999999
 30
0.0
 10
-185.32000000000002
 20
81.373000000000005
 30
0.0
 10
-185.70100000000002
 20
82.032700000000006
 30
0.0
 10
-186.31960000000001
 20
82.389700000000005
 30
0.0
 10
-186.31960000000001
 20
82.389700000000005
 30
0.0
 10
-186.62880000000001
 20
82.568300000000008
 30
0.0
 10
-186.97400000000002
 20
82.657600000000002
 30
0.0
 10
-187.3192
 20
82.657600000000002
 30
0.0
  0
SPLINE
  5
2B
100
AcDbEntity
  8
0
370
     5
 62
     1
100
AcDbSpline
210
0.0
220
0.0
230
1.0
 70
     1
 71
     3
 72
   116
 73
   112
 74
     0
 42
0.0000000001
 43
0.0000000001
 40
0.0
 40
0.0
 40
0.0
 40
0.0
 40
0.0357142857142857
 40
0.0357142857142857
 40
0.0357142857142857
 40
0.0357142857142857
 40
0.0714285714285714
 40
0.0714285714285714
 40
0.0714285714285714
 40
0.0714285714285714
 40
0.1071428571428571
 40
0.1071428571428571
 40
0.1071428571428571
 40
0.1071428571428571
 40
0.1428571428571429
 40
0.1428571428571429
 40
0.1428571428571429
 40
0.1428571428571429
 40
0.1785714285714286
 40
0.1785714285714286
 40
0.1785714285714286
 40
0.1785714285714286
 40
0.2142857142857143
 40
0.2142857142857143
 40
0.2142857142857143
 40
0.2142857142857143
 40
0.2499999999999999
 40
0.2499999999999999
 40
0.2499999999999999
 40
0.2499999999999999
 40
0.2857142857142856
 40
0.2857142857142856
 40
0.2857142857142856
 40
0.2857142857142856
 40
0.3214285714285713
 40
0.3214285714285713
 40
0.3214285714285713
 40
0.3214285714285713
 40
0.357142857142857
 40
0.357142857142857
 40
0.357142857142857
 40
0.357142857142857
 40
0.3928571428571427
 40
0.3928571428571427
 40
0.3928571428571427
 40
0.3928571428571427
 40
0.4285714285714284
 40
0.4285714285714284
 40
0.4285714285714284
 40
0.4285714285714284
 40
0.4642857142857141
 40
0.4642857142857141
 40
0.4642857142857141
 40
0.4642857142857141
 40
0.4999999999999998
 40
0.4999999999999998
 40
0.4999999999999998
 40
0.4999999999999998
 40
0.5357142857142856
 40
0.5357142857142856
 40
0.5357142857142856
 40
0.5357142857142856
 40
0.5714285714285713
 40
0.5714285714285713
 40
0.5714285714285713
 40
0.5714285714285713
 40
0.607142857142857
 40
0.607142857142857
 40
0.607142857142857
 40
0.607142857142857
 40
0.6428571428571427
 40
0.6428571428571427
 40
0.6428571428571427
 40
0.6428571428571427
 40
0.6785714285714284
 40
0.6785714285714284
 40
0.6785714285714284
 40
0.6785714285714284
 40
0.7142857142857141
 40
0.7142857142857141
 40
0.7142857142857141
 40
0.7142857142857141
 40
0.7499999999999998
 40
0.7499999999999998
 40
0.7499999999999998
 40
0.7499999999999998
 40
0.7857142857142855
 40
0.7857142857142855
 40
0.7857142857142855
 40
0.7857142857142855
 40
0.8214285714285712
 40
0.8214285714285712
 40
0.8214285714285712
 40
0.8214285714285712
 40
0.8571428571428569
 40
0.8571428571428569
 40
0.8571428571428569
 40
0.8571428571428569
 40
0.8928571428571426
 40
0.8928571428571426
 40
0.8928571428571426
 40
0.8928571428571426
 40
0.9285714285714283
 40
0.9285714285714283
 40
0.9285714285714283
 40
0.9285714285714283
 40
0.964285714285714
 40
0.964285714285714
 40
0.964285714285714
 40
0.964285714285714
 40
1.0
 40
1.0
 40
1.0
 40
1.0
 10
-83.06450000000001
 20
-195.96700000000001
 30
0.0
 10
-83.06450000000001
 20
-195.96700000000001
 30
0.0
 10
-83.031500000000008
 20
-195.97490000000002
 30
0.0
 10
-83.031500000000008
 20
-195.97490000000002
 30
0.0
 10
-83.031500000000008
 20
-195.97490000000002
 30
0.0
 10
-83.031500000000008
 20
-195.97490000000002
 30
0.0
 10
-82.804700000000011
 20
-195.97490000000002
 30
0.0
 10
-82.804700000000011
 20
-195.97490000000002
 30
0.0
 10
-82.804700000000011
 20
-195.97490000000002
 30
0.0
 10
-82.804700000000011
 20
-195.97490000000002
 30
0.0
 10
150.74540000000002
 20
-195.97490000000002
 30
0.0
 10
150.74540000000002
 20
-195.97490000000002
 30
0.0
 10
150.74540000000002
 20
-195.97490000000002
 30
0.0
 10
150.74540000000002
 20
-195.97490000000002
 30
0.0
 10
150.75640000000001
 20
-195.97490000000002
 30
0.0
 10
150.75640000000001
 20
-195.97490000000002
 30
0.0
 10
150.75640000000001
 20
-195.97490000000002
 30
0.0
 10
159.5384
 20
-195.76560000000001
 30
0.0
 10
167.8357
 20
-192.07820000000001
 30
0.0
 10
173.89790000000002
 20
-185.72190000000001
 30
0.0
 10
173.89790000000002
 20
-185.72190000000001
 30
0.0
 10
179.9597
 20
-179.3656
 30
0.0
 10
183.24770000000001
 20
-170.86170000000001
 30
0.0
 10
183.0384
 20
-162.08190000000002
 30
0.0
 10
183.0384
 20
-162.08190000000002
 30
0.0
 10
182.82920000000001
 20
-153.3015
 30
0.0
 10
179.14090000000002
 20
-145.0061
 30
0.0
 10
172.78300000000002
 20
-138.94550000000001
 30
0.0
 10
172.78300000000002
 20
-138.94550000000001
 30
0.0
 10
162.5248
 20
-129.167
 30
0.0
 10
150.6454
 20
-129.84700000000001
 30
0.0
 10
138.0684
 20
-129.8459
 30
0.0
 10
138.0684
 20
-129.8459
 30
0.0
 10
137.6754
 20
-129.84540000000001
 30
0.0
 10
137.30020000000002
 20
-130.00130000000001
 30
0.0
 10
137.02209999999999
 20
-130.279
 30
0.0
 10
137.02209999999999
 20
-130.279
 30
0.0
 10
136.74420000000001
 20
-130.5565
 30
0.0
 10
136.58760000000001
 20
-130.9332
 30
0.0
 10
136.5873
 20
-131.3263
 30
0.0
 10
136.5873
 20
-131.3263
 30
0.0
 10
136.5873
 20
-131.3263
 30
0.0
 10
136.58240000000001
 20
-160.15950000000001
 30
0.0
 10
136.58240000000001
 20
-160.15950000000001
 30
0.0
 10
136.58240000000001
 20
-160.15950000000001
 30
0.0
 10
136.58240000000001
 20
-160.15950000000001
 30
0.0
 10
132.58260000000001
 20
-160.15880000000001
 30
0.0
 10
132.58260000000001
 20
-160.15880000000001
 30
0.0
 10
132.58260000000001
 20
-160.15880000000001
 30
0.0
 10
132.58260000000001
 20
-160.15880000000001
 30
0.0
 10
132.5873
 20
-131.32570000000001
 30
0.0
 10
132.5873
 20
-131.32570000000001
 30
0.0
 10
132.5873
 20
-131.32570000000001
 30
0.0
 10
132.58760000000001
 20
-130.93270000000001
 30
0.0
 10
132.43180000000001
 20
-130.55760000000001
 30
0.0
 10
132.1542
 20
-130.27950000000001
 30
0.0
 10
132.1542
 20
-130.27950000000001
 30
0.0
 10
131.87649999999999
 20
-130.00140000000002
 30
0.0
 10
131.49950000000001
 20
-129.845
 30
0.0
 10
131.10679999999999
 20
-129.84470000000002
 30
0.0
 10
131.10679999999999
 20
-129.84470000000002
 30
0.0
 10
75.740700000000004
 20
-129.8364
 30
0.0
 10
35.402000000000001
 20
-129.79040000000001
 30
0.0
 10
8.6228999999999996
 20
-129.83360000000002
 30
0.0
 10
8.6228999999999996
 20
-129.83360000000002
 30
0.0
 10
-56.161200000000001
 20
-129.84309999999999
 30
0.0
 10
0.1481
 20
-129.83510000000001
 30
0.0
 10
-63.392800000000001
 20
-129.84470000000002
 30
0.0
 10
-63.392800000000001
 20
-129.84470000000002
 30
0.0
 10
-63.785700000000006
 20
-129.845
 30
0.0
 10
-64.162400000000005
 20
-130.00140000000002
 30
0.0
 10
-64.440200000000004
 20
-130.27950000000001
 30
0.0
 10
-64.440200000000004
 20
-130.27950000000001
 30
0.0
 10
-64.7179
 20
-130.55760000000001
 30
0.0
 10
-64.873699999999999
 20
-130.93270000000001
 30
0.0
 10
-64.873400000000004
 20
-131.32570000000001
 30
0.0
 10
-64.873400000000004
 20
-131.32570000000001
 30
0.0
 10
-64.873400000000004
 20
-131.32570000000001
 30
0.0
 10
-64.868899999999996
 20
-160.15880000000001
 30
0.0
 10
-64.868899999999996
 20
-160.15880000000001
 30
0.0
 10
-64.868899999999996
 20
-160.15880000000001
 30
0.0
 10
-64.868899999999996
 20
-160.15880000000001
 30
0.0
 10
-68.868899999999996
 20
-160.15880000000001
 30
0.0
 10
-68.868899999999996
 20
-160.15880000000001
 30
0.0
 10
-68.868899999999996
 20
-160.15880000000001
 30
0.0
 10
-68.868899999999996
 20
-160.15880000000001
 30
0.0
 10
-68.873400000000004
 20
-131.3263
 30
0.0
 10
-68.873400000000004
 20
-131.3263
 30
0.0
 10
-68.873400000000004
 20
-131.3263
 30
0.0
 10
-68.873699999999999
 20
-130.9332
 30
0.0
 10
-69.030200000000008
 20
-130.5565
 30
0.0
 10
-69.308199999999999
 20
-130.279
 30
0.0
 10
-69.308199999999999
 20
-130.279
 30
0.0
 10
-69.586399999999998
 20
-130.00130000000001
 30
0.0
 10
-69.961600000000004
 20
-129.84540000000001
 30
0.0
 10
-70.354500000000002
 20
-129.8459
 30
0.0
 10
-70.354500000000002
 20
-129.8459
 30
0.0
 10
-82.855000000000004
 20
-129.84720000000002
 30
0.0
 10
-94.63600000000001
 20
-129.22669999999999
 30
0.0
 10
-104.8313
 20
-138.94550000000001
 30
0.0
 10
-104.8313
 20
-138.94550000000001
 30
0.0
 10
-111.1892
 20
-145.0061
 30
0.0
 10
-114.87750000000001
 20
-153.3015
 30
0.0
 10
-115.0866
 20
-162.08190000000002
 30
0.0
 10
-115.0866
 20
-162.08190000000002
 30
0.0
 10
-115.29600000000001
 20
-170.86170000000001
 30
0.0
 10
-112.00790000000001
 20
-179.3656
 30
0.0
 10
-105.9461
 20
-185.72190000000001
 30
0.0
 10
-105.9461
 20
-185.72190000000001
 30
0.0
 10
-99.943899999999999
 20
-192.01560000000001
 30
0.0
 10
-91.75030000000001
 20
-195.6919
 30
0.0
 10
-83.06450000000001
 20
-195.96700000000001
 30
0.0
  0
SPLINE
  5
2C
100
AcDbEntity
  8
0
370
     5
 62
     1
100
AcDbSpline
210
0.0
220
0.0
230
1.0
 70
     1
 71
     3
 72
   176
 73
   172
 74
     0
 42
0.0000000001
 43
0.0000000001
 40
0.0
 40
0.0
 40
0.0
 40
0.0
 40
0.0232558139534884
 40
0.0232558139534884
 40
0.0232558139534884
 40
0.0232558139534884
 40
0.0465116279069767
 40
0.0465116279069767
 40
0.0465116279069767
 40
0.0465116279069767
 40
0.0697674418604651
 40
0.0697674418604651
 40
0.0697674418604651
 40
0.0697674418604651
 40
0.0930232558139535
 40
0.0930232558139535
 40
0.0930232558139535
 40
0.0930232558139535
 40
0.1162790697674419
 40
0.1162790697674419
 40
0.1162790697674419
 40
0.1162790697674419
 40
0.1395348837209302
 40
0.1395348837209302
 40
0.1395348837209302
 40
0.1395348837209302
 40
0.1627906976744186
 40
0.1627906976744186
 40
0.1627906976744186
 40
0.1627906976744186
 40
0.186046511627907
 40
0.186046511627907
 40
0.186046511627907
 40
0.186046511627907
 40
0.2093023255813953
 40
0.2093023255813953
 40
0.2093023255813953
 40
0.2093023255813953
 40
0.2325581395348837
 40
0.2325581395348837
 40
0.2325581395348837
 40
0.2325581395348837
 40
0.2558139534883721
 40
0.2558139534883721
 40
0.2558139534883721
 40
0.2558139534883721
 40
0.2790697674418604
 40
0.2790697674418604
 40
0.2790697674418604
 40
0.2790697674418604
 40
0.3023255813953488
 40
0.3023255813953488
 40
0.3023255813953488
 40
0.3023255813953488
 40
0.3255813953488371
 40
0.3255813953488371
 40
0.3255813953488371
 40
0.3255813953488371
 40
0.3488372093023255
 40
0.3488372093023255
 40
0.3488372093023255
 40
0.3488372093023255
 40
0.3720930232558138
 40
0.3720930232558138
 40
0.3720930232558138
 40
0.3720930232558138
 40
0.3953488372093022
 40
0.3953488372093022
 40
0.3953488372093022
 40
0.3953488372093022
 40
0.4186046511627906
 40
0.4186046511627906
 40
0.4186046511627906
 40
0.4186046511627906
 40
0.4418604651162789
 40
0.4418604651162789
 40
0.4418604651162789
 40
0.4418604651162789
 40
0.4651162790697673
 40
0.4651162790697673
 40
0.4651162790697673
 40
0.4651162790697673
 40
0.4883720930232556
 40
0.4883720930232556
 40
0.4883720930232556
 40
0.4883720930232556
 40
0.511627906976744
 40
0.511627906976744
 40
0.511627906976744
 40
0.511627906976744
 40
0.5348837209302324
 40
0.5348837209302324
 40
0.5348837209302324
 40
0.5348837209302324
 40
0.5581395348837208
 40
0.5581395348837208
 40
0.5581395348837208
 40
0.5581395348837208
 40
0.5813953488372092
 40
0.5813953488372092
 40
0.5813953488372092
 40
0.5813953488372092
 40
0.6046511627906976
 40
0.6046511627906976
 40
0.6046511627906976
 40
0.6046511627906976
 40
0.6279069767441861
 40
0.6279069767441861
 40
0.6279069767441861
 40
0.6279069767441861
 40
0.6511627906976745
 40
0.6511627906976745
 40
0.6511627906976745
 40
0.6511627906976745
 40
0.6744186046511629
 40
0.6744186046511629
 40
0.6744186046511629
 40
0.6744186046511629
 40
0.6976744186046513
 40
0.6976744186046513
 40
0.6976744186046513
 40
0.6976744186046513
 40
0.7209302325581397
 40
0.7209302325581397
 40
0.7209302325581397
 40
0.7209302325581397
 40
0.7441860465116281
 40
0.7441860465116281
 40
0.7441860465116281
 40
0.7441860465116281
 40
0.7674418604651165
 40
0.7674418604651165
 40
0.7674418604651165
 40
0.7674418604651165
 40
0.790697674418605
 40
0.790697674418605
 40
0.790697674418605
 40
0.790697674418605
 40
0.8139534883720934
 40
0.8139534883720934
 40
0.8139534883720934
 40
0.8139534883720934
 40
0.8372093023255818
 40
0.8372093023255818
 40
0.8372093023255818
 40
0.8372093023255818
 40
0.8604651162790702
 40
0.8604651162790702
 40
0.8604651162790702
 40
0.8604651162790702
 40
0.8837209302325586
 40
0.8837209302325586
 40
0.8837209302325586
 40
0.8837209302325586
 40
0.906976744186047
 40
0.906976744186047
 40
0.906976744186047
 40
0.906976744186047
 40
0.9302325581395354
 40
0.9302325581395354
 40
0.9302325581395354
 40
0.9302325581395354
 40
0.9534883720930238
 40
0.9534883720930238
 40
0.9534883720930238
 40
0.9534883720930238
 40
0.9767441860465123
 40
0.9767441860465123
 40
0.9767441860465123
 40
0.9767441860465123
 40
1.0
 40
1.0
 40
1.0
 40
1.0
 10
21.0227
 20
66.299199999999999
 30
0.0
 10
20.802400000000002
 20
66.299700000000001
 30
0.0
 10
44.7879
 20
66.27640000000001
 30
0.0
 10
48.859999999999999
 20
66.276200000000003
 30
0.0
 10
48.859999999999999
 20
66.276200000000003
 30
0.0
 10
52.945100000000004
 20
66.27640000000001
 30
0.0
 10
54.504600000000003
 20
66.329800000000006
 30
0.0
 10
56.675600000000003
 20
64.322500000000005
 30
0.0
 10
56.675600000000003
 20
64.322500000000005
 30
0.0
 10
54.041499999999999
 20
58.240000000000002
 30
0.0
 10
47.933700000000002
 20
54.3949
 30
0.0
 10
41.309699999999999
 20
54.658500000000004
 30
0.0
 10
41.309699999999999
 20
54.658500000000004
 30
0.0
 10
41.309699999999999
 20
54.658500000000004
 30
0.0
 10
-1.7795000000000001
 20
60.583000000000006
 30
0.0
 10
-1.7795000000000001
 20
60.583000000000006
 30
0.0
 10
-1.7795000000000001
 20
60.583000000000006
 30
0.0
 10
-4.3677000000000001
 20
60.790800000000004
 30
0.0
 10
-10.468300000000001
 20
66.006399999999999
 30
0.0
 10
-9.4763000000000002
 20
68.8048
 30
0.0
 10
-9.4763000000000002
 20
68.8048
 30
0.0
 10
-9.4763000000000002
 20
68.8048
 30
0.0
 10
2.2134
 20
69.180199999999999
 30
0.0
 10
2.2134
 20
69.180199999999999
 30
0.0
 10
2.2134
 20
69.180199999999999
 30
0.0
 10
2.2134
 20
69.180199999999999
 30
0.0
 10
23.9682
 20
85.079999999999998
 30
0.0
 10
23.9682
 20
85.079999999999998
 30
0.0
 10
23.9682
 20
85.079999999999998
 30
0.0
 10
23.9682
 20
85.079999999999998
 30
0.0
 10
33.829799999999999
 20
111.23820000000001
 30
0.0
 10
33.829799999999999
 20
111.23820000000001
 30
0.0
 10
33.829799999999999
 20
111.23820000000001
 30
0.0
 10
33.829799999999999
 20
111.23820000000001
 30
0.0
 10
23.610900000000001
 20
124.5399
 30
0.0
 10
23.610900000000001
 20
124.5399
 30
0.0
 10
23.610900000000001
 20
124.5399
 30
0.0
 10
23.610900000000001
 20
124.5399
 30
0.0
 10
13.944700000000001
 20
124.1503
 30
0.0
 10
13.944700000000001
 20
124.1503
 30
0.0
 10
13.944700000000001
 20
124.1503
 30
0.0
 10
14.505500000000001
 20
129.32330000000002
 30
0.0
 10
18.840600000000002
 20
133.274
 30
0.0
 10
24.044500000000003
 20
133.3432
 30
0.0
 10
24.044500000000003
 20
133.3432
 30
0.0
 10
24.044500000000003
 20
133.3432
 30
0.0
 10
43.382300000000001
 20
136.57680000000002
 30
0.0
 10
43.382300000000001
 20
136.57680000000002
 30
0.0
 10
43.382300000000001
 20
136.57680000000002
 30
0.0
 10
43.382300000000001
 20
136.57680000000002
 30
0.0
 10
54.852700000000006
 20
167.00200000000001
 30
0.0
 10
54.852700000000006
 20
167.00200000000001
 30
0.0
 10
54.852700000000006
 20
167.00200000000001
 30
0.0
 10
54.852700000000006
 20
167.00200000000001
 30
0.0
 10
44.633600000000001
 20
180.3039
 30
0.0
 10
44.633600000000001
 20
180.3039
 30
0.0
 10
44.633600000000001
 20
180.3039
 30
0.0
 10
44.633600000000001
 20
180.3039
 30
0.0
 10
34.967500000000001
 20
179.9143
 30
0.0
 10
34.967500000000001
 20
179.9143
 30
0.0
 10
34.967500000000001
 20
179.9143
 30
0.0
 10
35.528300000000002
 20
185.0872
 30
0.0
 10
39.863399999999999
 20
189.03800000000001
 30
0.0
 10
45.067399999999999
 20
189.10720000000001
 30
0.0
 10
45.067399999999999
 20
189.10720000000001
 30
0.0
 10
45.067399999999999
 20
189.10720000000001
 30
0.0
 10
75.377600000000001
 20
194.17580000000001
 30
0.0
 10
75.377600000000001
 20
194.17580000000001
 30
0.0
 10
75.377600000000001
 20
194.17580000000001
 30
0.0
 10
77.710999999999999
 20
195.05620000000002
 30
0.0
 10
80.1571
 20
195.6054
 30
0.0
 10
82.643000000000001
 20
195.80720000000002
 30
0.0
 10
82.643000000000001
 20
195.80720000000002
 30
0.0
 10
83.349100000000007
 20
195.89350000000002
 30
0.0
 10
84.058900000000008
 20
195.94040000000001
 30
0.0
 10
84.770099999999999
 20
195.94840000000002
 30
0.0
 10
84.770099999999999
 20
195.94840000000002
 30
0.0
 10
92.503100000000003
 20
196.42500000000001
 30
0.0
 10
99.438299999999998
 20
190.71010000000001
 30
0.0
 10
100.93520000000001
 20
183.1097
 30
0.0
 10
100.93520000000001
 20
183.1097
 30
0.0
 10
88.994100000000003
 20
183.1097
 30
0.0
 10
77.052400000000006
 20
183.1097
 30
0.0
 10
65.111100000000008
 20
183.1097
 30
0.0
 10
65.111100000000008
 20
183.1097
 30
0.0
 10
65.111100000000008
 20
183.1097
 30
0.0
 10
65.111100000000008
 20
179.1155
 30
0.0
 10
65.111100000000008
 20
179.1155
 30
0.0
 10
65.111100000000008
 20
179.1155
 30
0.0
 10
65.111100000000008
 20
179.1155
 30
0.0
 10
84.831400000000002
 20
179.11520000000002
 30
0.0
 10
84.831400000000002
 20
179.11520000000002
 30
0.0
 10
84.831400000000002
 20
179.11520000000002
 30
0.0
 10
87.517099999999999
 20
179.11510000000001
 30
0.0
 10
89.071700000000007
 20
177.73910000000001
 30
0.0
 10
88.294499999999999
 20
175.0712
 30
0.0
 10
88.294499999999999
 20
175.0712
 30
0.0
 10
88.013300000000001
 20
174.1079
 30
0.0
 10
87.263000000000005
 20
173.35230000000001
 30
0.0
 10
86.301400000000001
 20
173.06550000000001
 30
0.0
 10
86.301400000000001
 20
173.06550000000001
 30
0.0
 10
86.301400000000001
 20
173.06550000000001
 30
0.0
 10
66.8827
 20
165.34810000000002
 30
0.0
 10
66.8827
 20
165.34810000000002
 30
0.0
 10
66.8827
 20
165.34810000000002
 30
0.0
 10
66.8827
 20
165.34810000000002
 30
0.0
 10
61.611400000000003
 20
151.36700000000002
 30
0.0
 10
61.611400000000003
 20
151.36700000000002
 30
0.0
 10
61.611400000000003
 20
151.36700000000002
 30
0.0
 10
61.611400000000003
 20
151.36700000000002
 30
0.0
 10
57.051100000000005
 20
139.2687
 30
0.0
 10
57.051100000000005
 20
139.2687
 30
0.0
 10
57.051100000000005
 20
139.2687
 30
0.0
 10
58.547000000000004
 20
139.6583
 30
0.0
 10
60.075900000000004
 20
139.9179
 30
0.0
 10
61.620100000000001
 20
140.04330000000002
 30
0.0
 10
61.620100000000001
 20
140.04330000000002
 30
0.0
 10
62.3262
 20
140.12950000000001
 30
0.0
 10
63.036100000000005
 20
140.1765
 30
0.0
 10
63.747200000000007
 20
140.18450000000001
 30
0.0
 10
63.747200000000007
 20
140.18450000000001
 30
0.0
 10
71.4803
 20
140.6611
 30
0.0
 10
78.355200000000011
 20
134.93729999999999
 30
0.0
 10
79.852000000000004
 20
127.3369
 30
0.0
 10
79.852000000000004
 20
127.3369
 30
0.0
 10
79.852100000000007
 20
127.337
 30
0.0
 10
44.028100000000002
 20
127.3369
 30
0.0
 10
44.027999999999999
 20
127.3369
 30
0.0
 10
44.027999999999999
 20
127.3369
 30
0.0
 10
44.027999999999999
 20
127.3369
 30
0.0
 10
44.028100000000002
 20
123.34150000000001
 30
0.0
 10
44.028100000000002
 20
123.34150000000001
 30
0.0
 10
44.028100000000002
 20
123.34150000000001
 30
0.0
 10
44.028100000000002
 20
123.34150000000001
 30
0.0
 10
63.891500000000001
 20
123.35130000000001
 30
0.0
 10
63.891500000000001
 20
123.35130000000001
 30
0.0
 10
63.891500000000001
 20
123.35130000000001
 30
0.0
 10
66.42580000000001
 20
123.0031
 30
0.0
 10
68.037800000000004
 20
121.9372
 30
0.0
 10
67.271500000000003
 20
119.30710000000001
 30
0.0
 10
67.271500000000003
 20
119.30710000000001
 30
0.0
 10
66.990600000000001
 20
118.34400000000001
 30
0.0
 10
66.240200000000002
 20
117.5886
 30
0.0
 10
65.278599999999997
 20
117.30160000000001
 30
0.0
 10
65.278599999999997
 20
117.30160000000001
 30
0.0
 10
65.278599999999997
 20
117.30160000000001
 30
0.0
 10
45.859900000000003
 20
109.58420000000001
 30
0.0
 10
45.859900000000003
 20
109.58420000000001
 30
0.0
 10
45.859900000000003
 20
109.58420000000001
 30
0.0
 10
45.859900000000003
 20
109.58420000000001
 30
0.0
 10
40.5886
 20
95.603099999999998
 30
0.0
 10
40.5886
 20
95.603099999999998
 30
0.0
 10
40.5886
 20
95.603099999999998
 30
0.0
 10
40.5886
 20
95.603099999999998
 30
0.0
 10
35.9983
 20
83.425600000000003
 30
0.0
 10
35.9983
 20
83.425600000000003
 30
0.0
 10
35.9983
 20
83.425600000000003
 30
0.0
 10
35.9983
 20
83.425600000000003
 30
0.0
 10
43.165900000000001
 20
76.955700000000007
 30
0.0
 10
43.165900000000001
 20
76.955700000000007
 30
0.0
 10
43.165900000000001
 20
76.955700000000007
 30
0.0
 10
45.5396
 20
75.628600000000006
 30
0.0
 10
44.5655
 20
70.291300000000007
 30
0.0
 10
42.296900000000001
 20
70.291300000000007
 30
0.0
 10
42.296900000000001
 20
70.291300000000007
 30
0.0
 10
42.296900000000001
 20
70.291300000000007
 30
0.0
 10
21.0595
 20
70.29140000000001
 30
0.0
 10
21.0595
 20
70.29140000000001
 30
0.0
 10
21.0595
 20
70.29140000000001
 30
0.0
 10
21.0595
 20
70.29140000000001
 30
0.0
 10
21.0227
 20
66.299199999999999
 30
0.0
 10
21.0227
 20
66.299199999999999
 30
0.0
  0
SPLINE
  5
2D
100
AcDbEntity
  8
0
370
     5
 62
     1
100
AcDbSpline
210
0.0
220
0.0
230
1.0
 70
     1
 71
     3
 72
   112
 73
   108
 74
     0
 42
0.0000000001
 43
0.0000000001
 40
0.0
 40
0.0
 40
0.0
 40
0.0
 40
0.037037037037037
 40
0.037037037037037
 40
0.037037037037037
 40
0.037037037037037
 40
0.0740740740740741
 40
0.0740740740740741
 40
0.0740740740740741
 40
0.0740740740740741
 40
0.1111111111111111
 40
0.1111111111111111
 40
0.1111111111111111
 40
0.1111111111111111
 40
0.1481481481481481
 40
0.1481481481481481
 40
0.1481481481481481
 40
0.1481481481481481
 40
0.1851851851851852
 40
0.1851851851851852
 40
0.1851851851851852
 40
0.1851851851851852
 40
0.2222222222222222
 40
0.2222222222222222
 40
0.2222222222222222
 40
0.2222222222222222
 40
0.2592592592592592
 40
0.2592592592592592
 40
0.2592592592592592
 40
0.2592592592592592
 40
0.2962962962962963
 40
0.2962962962962963
 40
0.2962962962962963
 40
0.2962962962962963
 40
0.3333333333333333
 40
0.3333333333333333
 40
0.3333333333333333
 40
0.3333333333333333
 40
0.3703703703703704
 40
0.3703703703703704
 40
0.3703703703703704
 40
0.3703703703703704
 40
0.4074074074074074
 40
0.4074074074074074
 40
0.4074074074074074
 40
0.4074074074074074
 40
0.4444444444444444
 40
0.4444444444444444
 40
0.4444444444444444
 40
0.4444444444444444
 40
0.4814814814814815
 40
0.4814814814814815
 40
0.4814814814814815
 40
0.4814814814814815
 40
0.5185185185185185
 40
0.5185185185185185
 40
0.5185185185185185
 40
0.5185185185185185
 40
0.5555555555555556
 40
0.5555555555555556
 40
0.5555555555555556
 40
0.5555555555555556
 40
0.5925925925925926
 40
0.5925925925925926
 40
0.5925925925925926
 40
0.5925925925925926
 40
0.6296296296296295
 40
0.6296296296296295
 40
0.6296296296296295
 40
0.6296296296296295
 40
0.6666666666666665
 40
0.6666666666666665
 40
0.6666666666666665
 40
0.6666666666666665
 40
0.7037037037037035
 40
0.7037037037037035
 40
0.7037037037037035
 40
0.7037037037037035
 40
0.7407407407407405
 40
0.7407407407407405
 40
0.7407407407407405
 40
0.7407407407407405
 40
0.7777777777777775
 40
0.7777777777777775
 40
0.7777777777777775
 40
0.7777777777777775
 40
0.8148148148148144
 40
0.8148148148148144
 40
0.8148148148148144
 40
0.8148148148148144
 40
0.8518518518518514
 40
0.8518518518518514
 40
0.8518518518518514
 40
0.8518518518518514
 40
0.8888888888888884
 40
0.8888888888888884
 40
0.8888888888888884
 40
0.8888888888888884
 40
0.9259259259259254
 40
0.9259259259259254
 40
0.9259259259259254
 40
0.9259259259259254
 40
0.9629629629629624
 40
0.9629629629629624
 40
0.9629629629629624
 40
0.9629629629629624
 40
1.0
 40
1.0
 40
1.0
 40
1.0
 10
-217.50580000000002
 20
16.2729
 30
0.0
 10
-217.50580000000002
 20
16.2729
 30
0.0
 10
-217.50580000000002
 20
-0.0139
 30
0.0
 10
-217.50580000000002
 20
-0.0139
 30
0.0
 10
-217.50580000000002
 20
-0.0139
 30
0.0
 10
-217.50580000000002
 20
-0.0139
 30
0.0
 10
-192.0932
 20
-0.0139
 30
0.0
 10
-192.0932
 20
-0.0139
 30
0.0
 10
-192.0932
 20
-0.0139
 30
0.0
 10
-192.0932
 20
-0.0139
 30
0.0
 10
-187.6652
 20
17.753299999999999
 30
0.0
 10
-187.6652
 20
17.753299999999999
 30
0.0
 10
-187.6652
 20
17.753299999999999
 30
0.0
 10
-187.6652
 20
17.753299999999999
 30
0.0
 10
-187.6652
 20
39.962299999999999
 30
0.0
 10
-187.6652
 20
39.962299999999999
 30
0.0
 10
-187.6652
 20
39.962299999999999
 30
0.0
 10
-187.66570000000002
 20
40.747100000000003
 30
0.0
 10
-187.97800000000001
 20
41.503399999999999
 30
0.0
 10
-188.5334
 20
42.057900000000004
 30
0.0
 10
-188.5334
 20
42.057900000000004
 30
0.0
 10
-189.089
 20
42.612500000000004
 30
0.0
 10
-189.84200000000001
 20
42.924100000000003
 30
0.0
 10
-190.62700000000001
 20
42.923500000000004
 30
0.0
 10
-190.62700000000001
 20
42.923500000000004
 30
0.0
 10
-190.62700000000001
 20
42.923500000000004
 30
0.0
 10
-194.38120000000001
 20
42.923500000000004
 30
0.0
 10
-194.38120000000001
 20
42.923500000000004
 30
0.0
 10
-194.38120000000001
 20
42.923500000000004
 30
0.0
 10
-194.38120000000001
 20
42.923500000000004
 30
0.0
 10
-194.38120000000001
 20
20.791900000000002
 30
0.0
 10
-194.38120000000001
 20
20.791900000000002
 30
0.0
 10
-194.38120000000001
 20
20.791900000000002
 30
0.0
 10
-194.38120000000001
 20
20.791900000000002
 30
0.0
 10
-198.37970000000001
 20
20.791900000000002
 30
0.0
 10
-198.37970000000001
 20
20.791900000000002
 30
0.0
 10
-198.37970000000001
 20
20.791900000000002
 30
0.0
 10
-198.37970000000001
 20
20.791900000000002
 30
0.0
 10
-198.37970000000001
 20
42.923500000000004
 30
0.0
 10
-198.37970000000001
 20
42.923500000000004
 30
0.0
 10
-198.37970000000001
 20
42.923500000000004
 30
0.0
 10
-198.37970000000001
 20
42.923500000000004
 30
0.0
 10
-203.9554
 20
42.923500000000004
 30
0.0
 10
-203.9554
 20
42.923500000000004
 30
0.0
 10
-203.9554
 20
42.923500000000004
 30
0.0
 10
-203.9554
 20
42.923500000000004
 30
0.0
 10
-217.2689
 20
58.188400000000001
 30
0.0
 10
-217.2689
 20
58.188400000000001
 30
0.0
 10
-217.2689
 20
58.188400000000001
 30
0.0
 10
-217.83010000000002
 20
58.832100000000004
 30
0.0
 10
-218.64580000000001
 20
59.204800000000006
 30
0.0
 10
-219.5001
 20
59.2042
 30
0.0
 10
-219.5001
 20
59.2042
 30
0.0
 10
-220.35420000000002
 20
59.203400000000002
 30
0.0
 10
-221.1662
 20
58.833100000000002
 30
0.0
 10
-221.72640000000001
 20
58.188400000000001
 30
0.0
 10
-221.72640000000001
 20
58.188400000000001
 30
0.0
 10
-221.72640000000001
 20
58.188400000000001
 30
0.0
 10
-235.0548
 20
42.923500000000004
 30
0.0
 10
-235.0548
 20
42.923500000000004
 30
0.0
 10
-235.0548
 20
42.923500000000004
 30
0.0
 10
-235.0548
 20
42.923500000000004
 30
0.0
 10
-240.6054
 20
42.923500000000004
 30
0.0
 10
-240.6054
 20
42.923500000000004
 30
0.0
 10
-240.6054
 20
42.923500000000004
 30
0.0
 10
-240.6054
 20
42.923500000000004
 30
0.0
 10
-240.6054
 20
20.791900000000002
 30
0.0
 10
-240.6054
 20
20.791900000000002
 30
0.0
 10
-240.6054
 20
20.791900000000002
 30
0.0
 10
-240.6054
 20
20.791900000000002
 30
0.0
 10
-244.60380000000001
 20
20.791900000000002
 30
0.0
 10
-244.60380000000001
 20
20.791900000000002
 30
0.0
 10
-244.60380000000001
 20
20.791900000000002
 30
0.0
 10
-244.60380000000001
 20
20.791900000000002
 30
0.0
 10
-244.60380000000001
 20
42.923500000000004
 30
0.0
 10
-244.60380000000001
 20
42.923500000000004
 30
0.0
 10
-244.60380000000001
 20
42.923500000000004
 30
0.0
 10
-244.60380000000001
 20
42.923500000000004
 30
0.0
 10
-248.38290000000001
 20
42.923500000000004
 30
0.0
 10
-248.38290000000001
 20
42.923500000000004
 30
0.0
 10
-248.38290000000001
 20
42.923500000000004
 30
0.0
 10
-249.16810000000001
 20
42.923000000000002
 30
0.0
 10
-249.9246
 20
42.610600000000005
 30
0.0
 10
-250.47920000000002
 20
42.055399999999999
 30
0.0
 10
-250.47920000000002
 20
42.055399999999999
 30
0.0
 10
-251.03390000000002
 20
41.500100000000003
 30
0.0
 10
-251.34540000000001
 20
40.747100000000003
 30
0.0
 10
-251.34490000000002
 20
39.962299999999999
 30
0.0
 10
-251.34490000000002
 20
39.962299999999999
 30
0.0
 10
-251.34490000000002
 20
39.962299999999999
 30
0.0
 10
-251.34490000000002
 20
17.753299999999999
 30
0.0
 10
-251.34490000000002
 20
17.753299999999999
 30
0.0
 10
-251.34490000000002
 20
17.753299999999999
 30
0.0
 10
-251.34490000000002
 20
17.753299999999999
 30
0.0
 10
-246.9169
 20
-0.0139
 30
0.0
 10
-246.9169
 20
-0.0139
 30
0.0
 10
-246.9169
 20
-0.0139
 30
0.0
 10
-246.9169
 20
-0.0139
 30
0.0
 10
-221.5042
 20
-0.0139
 30
0.0
 10
-221.5042
 20
-0.0139
 30
0.0
 10
-221.5042
 20
-0.0139
 30
0.0
 10
-221.5042
 20
-0.0139
 30
0.0
 10
-221.5042
 20
16.2728
 30
0.0
 10
-221.5042
 20
16.2728
 30
0.0
 10
-221.5042
 20
16.2728
 30
0.0
 10
-221.5042
 20
16.2728
 30
0.0
 10
-217.50580000000002
 20
16.2729
 30
0.0
 10
-217.50580000000002
 20
16.2729
 30
0.0
  0
SPLINE
  5
2E
100
AcDbEntity
  8
0
370
     5
 62
     1
100
AcDbSpline
210
0.0
220
0.0
230
1.0
 70
     1
 71
     3
 72
    88
 73
    84
 74
     0
 42
0.0000000001
 43
0.0000000001
 40
0.0
 40
0.0
 40
0.0
 40
0.0
 40
0.0476190476190476
 40
0.0476190476190476
 40
0.0476190476190476
 40
0.0476190476190476
 40
0.0952380952380952
 40
0.0952380952380952
 40
0.0952380952380952
 40
0.0952380952380952
 40
0.1428571428571429
 40
0.1428571428571429
 40
0.1428571428571429
 40
0.1428571428571429
 40
0.1904761904761905
 40
0.1904761904761905
 40
0.1904761904761905
 40
0.1904761904761905
 40
0.2380952380952381
 40
0.2380952380952381
 40
0.2380952380952381
 40
0.2380952380952381
 40
0.2857142857142857
 40
0.2857142857142857
 40
0.2857142857142857
 40
0.2857142857142857
 40
0.3333333333333333
 40
0.3333333333333333
 40
0.3333333333333333
 40
0.3333333333333333
 40
0.3809523809523809
 40
0.3809523809523809
 40
0.3809523809523809
 40
0.3809523809523809
 40
0.4285714285714286
 40
0.4285714285714286
 40
0.4285714285714286
 40
0.4285714285714286
 40
0.4761904761904762
 40
0.4761904761904762
 40
0.4761904761904762
 40
0.4761904761904762
 40
0.5238095238095237
 40
0.5238095238095237
 40
0.5238095238095237
 40
0.5238095238095237
 40
0.5714285714285714
 40
0.5714285714285714
 40
0.5714285714285714
 40
0.5714285714285714
 40
0.6190476190476191
 40
0.6190476190476191
 40
0.6190476190476191
 40
0.6190476190476191
 40
0.6666666666666667
 40
0.6666666666666667
 40
0.6666666666666667
 40
0.6666666666666667
 40
0.7142857142857144
 40
0.7142857142857144
 40
0.7142857142857144
 40
0.7142857142857144
 40
0.7619047619047621
 40
0.7619047619047621
 40
0.7619047619047621
 40
0.7619047619047621
 40
0.8095238095238098
 40
0.8095238095238098
 40
0.8095238095238098
 40
0.8095238095238098
 40
0.8571428571428574
 40
0.8571428571428574
 40
0.8571428571428574
 40
0.8571428571428574
 40
0.9047619047619051
 40
0.9047619047619051
 40
0.9047619047619051
 40
0.9047619047619051
 40
0.9523809523809528
 40
0.9523809523809528
 40
0.9523809523809528
 40
0.9523809523809528
 40
1.0
 40
1.0
 40
1.0
 40
1.0
 10
-30.760400000000001
 20
-21.572600000000001
 30
0.0
 10
-30.7576
 20
-23.144200000000001
 30
0.0
 10
-30.130400000000002
 20
-24.650300000000001
 30
0.0
 10
-29.017000000000003
 20
-25.759700000000002
 30
0.0
 10
-29.017000000000003
 20
-25.759700000000002
 30
0.0
 10
-27.903300000000002
 20
-26.869200000000003
 30
0.0
 10
-26.402000000000001
 20
-27.4909
 30
0.0
 10
-24.829900000000002
 20
-27.488100000000003
 30
0.0
 10
-24.829900000000002
 20
-27.488100000000003
 30
0.0
 10
-24.829900000000002
 20
-27.488100000000003
 30
0.0
 10
13.673900000000001
 20
-27.4406
 30
0.0
 10
13.673900000000001
 20
-27.4406
 30
0.0
 10
13.673900000000001
 20
-27.4406
 30
0.0
 10
13.673900000000001
 20
-27.4406
 30
0.0
 10
13.6638
 20
-19.101100000000002
 30
0.0
 10
13.6638
 20
-19.101100000000002
 30
0.0
 10
13.6638
 20
-19.101100000000002
 30
0.0
 10
13.6638
 20
-19.101100000000002
 30
0.0
 10
-7.069
 20
-19.101100000000002
 30
0.0
 10
-7.069
 20
-19.101100000000002
 30
0.0
 10
-7.069
 20
-19.101100000000002
 30
0.0
 10
-7.069
 20
-19.101100000000002
 30
0.0
 10
-7.0730000000000004
 20
-15.1035
 30
0.0
 10
-7.0730000000000004
 20
-15.1035
 30
0.0
 10
-7.0730000000000004
 20
-15.1035
 30
0.0
 10
-7.0730000000000004
 20
-15.1035
 30
0.0
 10
13.6653
 20
-15.1035
 30
0.0
 10
13.6653
 20
-15.1035
 30
0.0
 10
13.6653
 20
-15.1035
 30
0.0
 10
13.6653
 20
-15.1035
 30
0.0
 10
13.6653
 20
34.9407
 30
0.0
 10
13.6653
 20
34.9407
 30
0.0
 10
13.6653
 20
34.9407
 30
0.0
 10
13.6653
 20
34.9407
 30
0.0
 10
-7.1337000000000002
 20
34.9407
 30
0.0
 10
-7.1337000000000002
 20
34.9407
 30
0.0
 10
-7.1337000000000002
 20
34.9407
 30
0.0
 10
-7.1337000000000002
 20
34.9407
 30
0.0
 10
-7.1391
 20
38.938300000000005
 30
0.0
 10
-7.1391
 20
38.938300000000005
 30
0.0
 10
-7.1391
 20
38.938300000000005
 30
0.0
 10
-7.1391
 20
38.938300000000005
 30
0.0
 10
13.6653
 20
38.938300000000005
 30
0.0
 10
13.6653
 20
38.938300000000005
 30
0.0
 10
13.6653
 20
38.938300000000005
 30
0.0
 10
13.6653
 20
38.938300000000005
 30
0.0
 10
13.6653
 20
47.325700000000005
 30
0.0
 10
13.6653
 20
47.325700000000005
 30
0.0
 10
13.6653
 20
47.325700000000005
 30
0.0
 10
13.6653
 20
47.325700000000005
 30
0.0
 10
-22.699000000000002
 20
47.325700000000005
 30
0.0
 10
-22.699000000000002
 20
47.325700000000005
 30
0.0
 10
-22.699000000000002
 20
47.325700000000005
 30
0.0
 10
-26.574400000000001
 20
47.317
 30
0.0
 10
-29.443900000000003
 20
43.472300000000004
 30
0.0
 10
-28.3916
 20
39.757300000000001
 30
0.0
 10
-28.3916
 20
39.757300000000001
 30
0.0
 10
-28.3916
 20
39.757300000000001
 30
0.0
 10
-30.833200000000001
 20
38.391600000000004
 30
0.0
 10
-30.833200000000001
 20
38.391600000000004
 30
0.0
 10
-30.833200000000001
 20
38.391600000000004
 30
0.0
 10
-30.833200000000001
 20
38.391600000000004
 30
0.0
 10
-30.822400000000002
 20
29.419
 30
0.0
 10
-30.822400000000002
 20
29.419
 30
0.0
 10
-30.822400000000002
 20
29.419
 30
0.0
 10
-30.706600000000002
 20
29.384800000000002
 30
0.0
 10
-30.594000000000001
 20
29.344700000000003
 30
0.0
 10
-30.479400000000002
 20
29.308
 30
0.0
 10
-30.479400000000002
 20
29.308
 30
0.0
 10
-24.5886
 20
29.015600000000003
 30
0.0
 10
-17.268800000000002
 20
20.014600000000002
 30
0.0
 10
-17.268800000000002
 20
8.9573999999999998
 30
0.0
 10
-17.268800000000002
 20
8.9573999999999998
 30
0.0
 10
-17.268800000000002
 20
8.9573999999999998
 30
0.0
 10
-17.269100000000002
 20
8.9227000000000007
 30
0.0
 10
-17.269100000000002
 20
8.9227000000000007
 30
0.0
 10
-17.269100000000002
 20
8.9227000000000007
 30
0.0
 10
-17.152699999999999
 20
1.7583
 30
0.0
 10
-22.033900000000003
 20
-11.400700000000001
 30
0.0
 10
-30.773100000000003
 20
-11.400700000000001
 30
0.0
 10
-30.773100000000003
 20
-11.400700000000001
 30
0.0
 10
-30.773100000000003
 20
-11.400700000000001
 30
0.0
 10
-30.760400000000001
 20
-21.572600000000001
 30
0.0
 10
-30.760400000000001
 20
-21.572600000000001
 30
0.0
  0
SPLINE
  5
2F
100
AcDbEntity
  8
0
370
     5
 62
     1
100
AcDbSpline
210
0.0
220
0.0
230
1.0
 70
     1
 71
     3
 72
    88
 73
    84
 74
     0
 42
0.0000000001
 43
0.0000000001
 40
0.0
 40
0.0
 40
0.0
 40
0.0
 40
0.0476190476190476
 40
0.0476190476190476
 40
0.0476190476190476
 40
0.0476190476190476
 40
0.0952380952380952
 40
0.0952380952380952
 40
0.0952380952380952
 40
0.0952380952380952
 40
0.1428571428571429
 40
0.1428571428571429
 40
0.1428571428571429
 40
0.1428571428571429
 40
0.1904761904761905
 40
0.1904761904761905
 40
0.1904761904761905
 40
0.1904761904761905
 40
0.2380952380952381
 40
0.2380952380952381
 40
0.2380952380952381
 40
0.2380952380952381
 40
0.2857142857142857
 40
0.2857142857142857
 40
0.2857142857142857
 40
0.2857142857142857
 40
0.3333333333333333
 40
0.3333333333333333
 40
0.3333333333333333
 40
0.3333333333333333
 40
0.3809523809523809
 40
0.3809523809523809
 40
0.3809523809523809
 40
0.3809523809523809
 40
0.4285714285714286
 40
0.4285714285714286
 40
0.4285714285714286
 40
0.4285714285714286
 40
0.4761904761904762
 40
0.4761904761904762
 40
0.4761904761904762
 40
0.4761904761904762
 40
0.5238095238095237
 40
0.5238095238095237
 40
0.5238095238095237
 40
0.5238095238095237
 40
0.5714285714285714
 40
0.5714285714285714
 40
0.5714285714285714
 40
0.5714285714285714
 40
0.6190476190476191
 40
0.6190476190476191
 40
0.6190476190476191
 40
0.6190476190476191
 40
0.6666666666666667
 40
0.6666666666666667
 40
0.6666666666666667
 40
0.6666666666666667
 40
0.7142857142857144
 40
0.7142857142857144
 40
0.7142857142857144
 40
0.7142857142857144
 40
0.7619047619047621
 40
0.7619047619047621
 40
0.7619047619047621
 40
0.7619047619047621
 40
0.8095238095238098
 40
0.8095238095238098
 40
0.8095238095238098
 40
0.8095238095238098
 40
0.8571428571428574
 40
0.8571428571428574
 40
0.8571428571428574
 40
0.8571428571428574
 40
0.9047619047619051
 40
0.9047619047619051
 40
0.9047619047619051
 40
0.9047619047619051
 40
0.9523809523809528
 40
0.9523809523809528
 40
0.9523809523809528
 40
0.9523809523809528
 40
1.0
 40
1.0
 40
1.0
 40
1.0
 10
-214.76820000000001
 20
-140.2013
 30
0.0
 10
-216.34030000000001
 20
-140.2039
 30
0.0
 10
-217.84690000000001
 20
-140.83100000000002
 30
0.0
 10
-218.95660000000001
 20
-141.9444
 30
0.0
 10
-218.95660000000001
 20
-141.9444
 30
0.0
 10
-220.06610000000001
 20
-143.05780000000001
 30
0.0
 10
-220.68800000000002
 20
-144.55860000000001
 30
0.0
 10
-220.68530000000001
 20
-146.13050000000001
 30
0.0
 10
-220.68530000000001
 20
-146.13050000000001
 30
0.0
 10
-220.68530000000001
 20
-146.13050000000001
 30
0.0
 10
-220.63770000000002
 20
-184.6259
 30
0.0
 10
-220.63770000000002
 20
-184.6259
 30
0.0
 10
-220.63770000000002
 20
-184.6259
 30
0.0
 10
-220.63770000000002
 20
-184.6259
 30
0.0
 10
-212.2963
 20
-184.6157
 30
0.0
 10
-212.2963
 20
-184.6157
 30
0.0
 10
-212.2963
 20
-184.6157
 30
0.0
 10
-212.2963
 20
-184.6157
 30
0.0
 10
-212.2963
 20
-163.88730000000001
 30
0.0
 10
-212.2963
 20
-163.88730000000001
 30
0.0
 10
-212.2963
 20
-163.88730000000001
 30
0.0
 10
-212.2963
 20
-163.88730000000001
 30
0.0
 10
-208.29780000000002
 20
-163.8835
 30
0.0
 10
-208.29780000000002
 20
-163.8835
 30
0.0
 10
-208.29780000000002
 20
-163.8835
 30
0.0
 10
-208.29780000000002
 20
-163.8835
 30
0.0
 10
-208.29780000000002
 20
-184.6173
 30
0.0
 10
-208.29780000000002
 20
-184.6173
 30
0.0
 10
-208.29780000000002
 20
-184.6173
 30
0.0
 10
-208.29780000000002
 20
-184.6173
 30
0.0
 10
-158.24260000000001
 20
-184.6173
 30
0.0
 10
-158.24260000000001
 20
-184.6173
 30
0.0
 10
-158.24260000000001
 20
-184.6173
 30
0.0
 10
-158.24260000000001
 20
-184.6173
 30
0.0
 10
-158.24260000000001
 20
-163.8228
 30
0.0
 10
-158.24260000000001
 20
-163.8228
 30
0.0
 10
-158.24260000000001
 20
-163.8228
 30
0.0
 10
-158.24260000000001
 20
-163.8228
 30
0.0
 10
-154.24420000000001
 20
-163.81740000000002
 30
0.0
 10
-154.24420000000001
 20
-163.81740000000002
 30
0.0
 10
-154.24420000000001
 20
-163.81740000000002
 30
0.0
 10
-154.24420000000001
 20
-163.81740000000002
 30
0.0
 10
-154.24420000000001
 20
-184.6173
 30
0.0
 10
-154.24420000000001
 20
-184.6173
 30
0.0
 10
-154.24420000000001
 20
-184.6173
 30
0.0
 10
-154.24420000000001
 20
-184.6173
 30
0.0
 10
-145.85480000000001
 20
-184.6173
 30
0.0
 10
-145.85480000000001
 20
-184.6173
 30
0.0
 10
-145.85480000000001
 20
-184.6173
 30
0.0
 10
-145.85480000000001
 20
-184.6173
 30
0.0
 10
-145.85480000000001
 20
-148.26090000000002
 30
0.0
 10
-145.85480000000001
 20
-148.26090000000002
 30
0.0
 10
-145.85480000000001
 20
-148.26090000000002
 30
0.0
 10
-145.86360000000002
 20
-144.38640000000001
 30
0.0
 10
-149.70910000000001
 20
-141.51730000000001
 30
0.0
 10
-153.42510000000001
 20
-142.56960000000001
 30
0.0
 10
-153.42510000000001
 20
-142.56960000000001
 30
0.0
 10
-153.42510000000001
 20
-142.56960000000001
 30
0.0
 10
-154.79089999999999
 20
-140.1285
 30
0.0
 10
-154.79089999999999
 20
-140.1285
 30
0.0
 10
-154.79089999999999
 20
-140.1285
 30
0.0
 10
-154.79089999999999
 20
-140.1285
 30
0.0
 10
-163.7654
 20
-140.13930000000002
 30
0.0
 10
-163.7654
 20
-140.13930000000002
 30
0.0
 10
-163.7654
 20
-140.13930000000002
 30
0.0
 10
-163.7998
 20
-140.2551
 30
0.0
 10
-163.83970000000002
 20
-140.36770000000001
 30
0.0
 10
-163.87640000000002
 20
-140.48220000000001
 30
0.0
 10
-163.87640000000002
 20
-140.48220000000001
 30
0.0
 10
-164.16910000000001
 20
-146.37180000000001
 30
0.0
 10
-173.17180000000002
 20
-153.68980000000002
 30
0.0
 10
-184.23160000000001
 20
-153.68980000000002
 30
0.0
 10
-184.23160000000001
 20
-153.68980000000002
 30
0.0
 10
-184.23160000000001
 20
-153.68980000000002
 30
0.0
 10
-184.2663
 20
-153.68940000000001
 30
0.0
 10
-184.2663
 20
-153.68940000000001
 30
0.0
 10
-184.2663
 20
-153.68940000000001
 30
0.0
 10
-191.4323
 20
-153.80590000000001
 30
0.0
 10
-204.5943
 20
-148.92580000000001
 30
0.0
 10
-204.5943
 20
-140.18860000000001
 30
0.0
 10
-204.5943
 20
-140.18860000000001
 30
0.0
 10
-204.5943
 20
-140.18860000000001
 30
0.0
 10
-214.76820000000001
 20
-140.2013
 30
0.0
 10
-214.76820000000001
 20
-140.2013
 30
0.0
  0
SPLINE
  5
30
100
AcDbEntity
  8
0
370
     5
 62
     1
100
AcDbSpline
210
0.0
220
0.0
230
1.0
 70
     1
 71
     3
 72
   128
 73
   124
 74
     0
 42
0.0000000001
 43
0.0000000001
 40
0.0
 40
0.0
 40
0.0
 40
0.0
 40
0.032258064516129
 40
0.032258064516129
 40
0.032258064516129
 40
0.032258064516129
 40
0.0645161290322581
 40
0.0645161290322581
 40
0.0645161290322581
 40
0.0645161290322581
 40
0.0967741935483871
 40
0.0967741935483871
 40
0.0967741935483871
 40
0.0967741935483871
 40
0.1290322580645161
 40
0.1290322580645161
 40
0.1290322580645161
 40
0.1290322580645161
 40
0.1612903225806452
 40
0.1612903225806452
 40
0.1612903225806452
 40
0.1612903225806452
 40
0.1935483870967742
 40
0.1935483870967742
 40
0.1935483870967742
 40
0.1935483870967742
 40
0.2258064516129032
 40
0.2258064516129032
 40
0.2258064516129032
 40
0.2258064516129032
 40
0.2580645161290323
 40
0.2580645161290323
 40
0.2580645161290323
 40
0.2580645161290323
 40
0.2903225806451613
 40
0.2903225806451613
 40
0.2903225806451613
 40
0.2903225806451613
 40
0.3225806451612903
 40
0.3225806451612903
 40
0.3225806451612903
 40
0.3225806451612903
 40
0.3548387096774193
 40
0.3548387096774193
 40
0.3548387096774193
 40
0.3548387096774193
 40
0.3870967741935483
 40
0.3870967741935483
 40
0.3870967741935483
 40
0.3870967741935483
 40
0.4193548387096773
 40
0.4193548387096773
 40
0.4193548387096773
 40
0.4193548387096773
 40
0.4516129032258063
 40
0.4516129032258063
 40
0.4516129032258063
 40
0.4516129032258063
 40
0.4838709677419353
 40
0.4838709677419353
 40
0.4838709677419353
 40
0.4838709677419353
 40
0.5161290322580643
 40
0.5161290322580643
 40
0.5161290322580643
 40
0.5161290322580643
 40
0.5483870967741933
 40
0.5483870967741933
 40
0.5483870967741933
 40
0.5483870967741933
 40
0.5806451612903223
 40
0.5806451612903223
 40
0.5806451612903223
 40
0.5806451612903223
 40
0.6129032258064513
 40
0.6129032258064513
 40
0.6129032258064513
 40
0.6129032258064513
 40
0.6451612903225803
 40
0.6451612903225803
 40
0.6451612903225803
 40
0.6451612903225803
 40
0.6774193548387093
 40
0.6774193548387093
 40
0.6774193548387093
 40
0.6774193548387093
 40
0.7096774193548383
 40
0.7096774193548383
 40
0.7096774193548383
 40
0.7096774193548383
 40
0.7419354838709673
 40
0.7419354838709673
 40
0.7419354838709673
 40
0.7419354838709673
 40
0.7741935483870963
 40
0.7741935483870963
 40
0.7741935483870963
 40
0.7741935483870963
 40
0.8064516129032253
 40
0.8064516129032253
 40
0.8064516129032253
 40
0.8064516129032253
 40
0.8387096774193543
 40
0.8387096774193543
 40
0.8387096774193543
 40
0.8387096774193543
 40
0.8709677419354833
 40
0.8709677419354833
 40
0.8709677419354833
 40
0.8709677419354833
 40
0.9032258064516123
 40
0.9032258064516123
 40
0.9032258064516123
 40
0.9032258064516123
 40
0.9354838709677413
 40
0.9354838709677413
 40
0.9354838709677413
 40
0.9354838709677413
 40
0.9677419354838703
 40
0.9677419354838703
 40
0.9677419354838703
 40
0.9677419354838703
 40
1.0
 40
1.0
 40
1.0
 40
1.0
 10
191.26940000000002
 20
65.317700000000002
 30
0.0
 10
191.26940000000002
 20
49.4694
 30
0.0
 10
191.26940000000002
 20
33.6205
 30
0.0
 10
191.26940000000002
 20
17.771800000000002
 30
0.0
 10
191.26940000000002
 20
17.771800000000002
 30
0.0
 10
191.26940000000002
 20
17.771800000000002
 30
0.0
 10
221.6354
 20
17.776700000000002
 30
0.0
 10
221.6354
 20
17.776700000000002
 30
0.0
 10
221.6354
 20
17.776700000000002
 30
0.0
 10
221.63550000000001
 20
17.776700000000002
 30
0.0
 10
221.6352
 20
14.628300000000001
 30
0.0
 10
221.6352
 20
14.628300000000001
 30
0.0
 10
221.6352
 20
14.628300000000001
 30
0.0
 10
203.82770000000002
 20
13.862400000000001
 30
0.0
 10
191.53960000000001
 20
-0.4920000000000001
 30
0.0
 10
191.27710000000002
 20
-18.310300000000002
 30
0.0
 10
191.27710000000002
 20
-18.310300000000002
 30
0.0
 10
191.27710000000002
 20
-18.310300000000002
 30
0.0
 10
191.28110000000001
 20
-57.190800000000003
 30
0.0
 10
191.28110000000001
 20
-57.190800000000003
 30
0.0
 10
191.28110000000001
 20
-57.190800000000003
 30
0.0
 10
191.28110000000001
 20
-57.190800000000003
 30
0.0
 10
221.6352
 20
-57.185900000000004
 30
0.0
 10
221.6352
 20
-57.185900000000004
 30
0.0
 10
221.6352
 20
-57.185900000000004
 30
0.0
 10
221.6352
 20
-57.185900000000004
 30
0.0
 10
221.63580000000002
 20
-61.183600000000006
 30
0.0
 10
221.63580000000002
 20
-61.183600000000006
 30
0.0
 10
221.63580000000002
 20
-61.183600000000006
 30
0.0
 10
221.63580000000002
 20
-61.183600000000006
 30
0.0
 10
191.2817
 20
-61.188400000000001
 30
0.0
 10
191.2817
 20
-61.188400000000001
 30
0.0
 10
191.2817
 20
-61.188400000000001
 30
0.0
 10
191.2817
 20
-61.188400000000001
 30
0.0
 10
191.28370000000001
 20
-73.699399999999997
 30
0.0
 10
191.28370000000001
 20
-73.699399999999997
 30
0.0
 10
191.28370000000001
 20
-73.699399999999997
 30
0.0
 10
191.0744
 20
-82.479600000000005
 30
0.0
 10
194.36240000000001
 20
-90.983200000000011
 30
0.0
 10
200.42440000000002
 20
-97.339700000000008
 30
0.0
 10
200.42440000000002
 20
-97.339700000000008
 30
0.0
 10
206.4863
 20
-103.69590000000001
 30
0.0
 10
214.78360000000001
 20
-107.38350000000001
 30
0.0
 10
223.56560000000002
 20
-107.59270000000001
 30
0.0
 10
223.56560000000002
 20
-107.59270000000001
 30
0.0
 10
232.34780000000001
 20
-107.8018
 30
0.0
 10
240.85330000000002
 20
-104.5146
 30
0.0
 10
247.21120000000002
 20
-98.454000000000008
 30
0.0
 10
247.21120000000002
 20
-98.454000000000008
 30
0.0
 10
253.56890000000001
 20
-92.3934
 30
0.0
 10
257.25729999999999
 20
-84.097999999999999
 30
0.0
 10
257.46640000000002
 20
-75.317800000000005
 30
0.0
 10
257.46640000000002
 20
-75.317800000000005
 30
0.0
 10
257.46640000000002
 20
-75.317800000000005
 30
0.0
 10
257.4556
 20
-5.7252999999999998
 30
0.0
 10
257.4556
 20
-5.7252999999999998
 30
0.0
 10
257.4556
 20
-5.7252999999999998
 30
0.0
 10
257.4556
 20
-5.7252999999999998
 30
0.0
 10
257.46640000000002
 20
39.546900000000001
 30
0.0
 10
257.46640000000002
 20
39.546900000000001
 30
0.0
 10
257.46640000000002
 20
39.546900000000001
 30
0.0
 10
257.46640000000002
 20
39.546900000000001
 30
0.0
 10
224.9126
 20
39.546800000000005
 30
0.0
 10
224.9126
 20
39.546800000000005
 30
0.0
 10
224.9126
 20
39.546800000000005
 30
0.0
 10
224.9126
 20
39.546800000000005
 30
0.0
 10
224.9126
 20
43.511700000000005
 30
0.0
 10
224.9126
 20
43.511700000000005
 30
0.0
 10
224.9126
 20
43.511700000000005
 30
0.0
 10
224.9126
 20
43.511700000000005
 30
0.0
 10
257.46640000000002
 20
43.5426
 30
0.0
 10
257.46640000000002
 20
43.5426
 30
0.0
 10
257.46640000000002
 20
43.5426
 30
0.0
 10
257.46640000000002
 20
43.5426
 30
0.0
 10
257.4556
 20
88.814800000000005
 30
0.0
 10
257.4556
 20
88.814800000000005
 30
0.0
 10
257.4556
 20
88.814800000000005
 30
0.0
 10
257.4556
 20
88.814800000000005
 30
0.0
 10
257.46640000000002
 20
158.40730000000002
 30
0.0
 10
257.46640000000002
 20
158.40730000000002
 30
0.0
 10
257.46640000000002
 20
158.40730000000002
 30
0.0
 10
257.25729999999999
 20
167.1875
 30
0.0
 10
253.56890000000001
 20
175.483
 30
0.0
 10
247.21120000000002
 20
181.5436
 30
0.0
 10
247.21120000000002
 20
181.5436
 30
0.0
 10
240.85330000000002
 20
187.60420000000002
 30
0.0
 10
232.34780000000001
 20
190.8913
 30
0.0
 10
223.56560000000002
 20
190.68220000000002
 30
0.0
 10
223.56560000000002
 20
190.68220000000002
 30
0.0
 10
214.78360000000001
 20
190.47300000000001
 30
0.0
 10
206.4863
 20
186.78550000000001
 30
0.0
 10
200.42440000000002
 20
180.42910000000001
 30
0.0
 10
200.42440000000002
 20
180.42910000000001
 30
0.0
 10
194.36240000000001
 20
174.0727
 30
0.0
 10
191.0744
 20
165.56910000000002
 30
0.0
 10
191.28370000000001
 20
156.78890000000001
 30
0.0
 10
191.28370000000001
 20
156.78890000000001
 30
0.0
 10
191.28370000000001
 20
156.78890000000001
 30
0.0
 10
191.2817
 20
144.27780000000001
 30
0.0
 10
191.2817
 20
144.27780000000001
 30
0.0
 10
191.2817
 20
144.27780000000001
 30
0.0
 10
191.2817
 20
144.27780000000001
 30
0.0
 10
221.6352
 20
144.27340000000001
 30
0.0
 10
221.6352
 20
144.27340000000001
 30
0.0
 10
221.6352
 20
144.27340000000001
 30
0.0
 10
221.6352
 20
144.27340000000001
 30
0.0
 10
221.6352
 20
140.2757
 30
0.0
 10
221.6352
 20
140.2757
 30
0.0
 10
221.6352
 20
140.2757
 30
0.0
 10
221.6352
 20
140.2757
 30
0.0
 10
191.28110000000001
 20
140.28030000000001
 30
0.0
 10
191.28110000000001
 20
140.28030000000001
 30
0.0
 10
191.28110000000001
 20
140.28030000000001
 30
0.0
 10
191.27860000000001
 20
115.24650000000001
 30
0.0
 10
184.30440000000002
 20
70.067000000000007
 30
0.0
 10
221.6352
 20
68.461399999999998
 30
0.0
 10
221.6352
 20
68.461399999999998
 30
0.0
 10
221.6353
 20
68.461399999999998
 30
0.0
 10
221.63560000000001
 20
65.313200000000009
 30
0.0
 10
221.6354
 20
65.313100000000006
 30
0.0
 10
221.6354
 20
65.313100000000006
 30
0.0
 10
221.6354
 20
65.313100000000006
 30
0.0
 10
191.26940000000002
 20
65.317700000000002
 30
0.0
 10
191.26940000000002
 20
65.317700000000002
 30
0.0
  0
SPLINE
  5
31
100
AcDbEntity
  8
0
370
     5
 62
     1
100
AcDbSpline
210
0.0
220
0.0
230
1.0
 70
     1
 71
     3
 72
    28
 73
    24
 74
     0
 42
0.0000000001
 43
0.0000000001
 40
0.0
 40
0.0
 40
0.0
 40
0.0
 40
0.1666666666666667
 40
0.1666666666666667
 40
0.1666666666666667
 40
0.1666666666666667
 40
0.3333333333333333
 40
0.3333333333333333
 40
0.3333333333333333
 40
0.3333333333333333
 40
0.5
 40
0.5
 40
0.5
 40
0.5
 40
0.6666666666666666
 40
0.6666666666666666
 40
0.6666666666666666
 40
0.6666666666666666
 40
0.8333333333333333
 40
0.8333333333333333
 40
0.8333333333333333
 40
0.8333333333333333
 40
1.0
 40
1.0
 40
1.0
 40
1.0
 10
-174.0198
 20
173.95080000000002
 30
0.0
 10
-172.75540000000001
 20
172.7405
 30
0.0
 10
-171.0735
 20
172.0651
 30
0.0
 10
-169.32259999999999
 20
172.06540000000001
 30
0.0
 10
-169.32259999999999
 20
172.06540000000001
 30
0.0
 10
-165.57250000000002
 20
172.0684
 30
0.0
 10
-162.53460000000001
 20
175.0994
 30
0.0
 10
-162.5368
 20
178.84620000000001
 30
0.0
 10
-162.5368
 20
178.84620000000001
 30
0.0
 10
-162.53790000000001
 20
180.64580000000001
 30
0.0
 10
-163.25450000000001
 20
182.37140000000002
 30
0.0
 10
-164.52870000000001
 20
183.64320000000001
 30
0.0
 10
-164.52870000000001
 20
183.64320000000001
 30
0.0
 10
-165.8031
 20
184.91480000000001
 30
0.0
 10
-167.5224
 20
185.62880000000001
 30
0.0
 10
-169.3235
 20
185.6277
 30
0.0
 10
-169.3235
 20
185.6277
 30
0.0
 10
-172.09910000000002
 20
185.61690000000002
 30
0.0
 10
-174.58950000000002
 20
183.92100000000002
 30
0.0
 10
-175.61440000000002
 20
181.34380000000002
 30
0.0
 10
-175.61440000000002
 20
181.34380000000002
 30
0.0
 10
-176.63930000000002
 20
178.7664
 30
0.0
 10
-176.03110000000001
 20
175.86190000000002
 30
0.0
 10
-174.0198
 20
173.95080000000002
 30
0.0
  0
SPLINE
  5
32
100
AcDbEntity
  8
0
370
     5
 62
     1
100
AcDbSpline
210
0.0
220
0.0
230
1.0
 70
     1
 71
     3
 72
    28
 73
    24
 74
     0
 42
0.0000000001
 43
0.0000000001
 40
0.0
 40
0.0
 40
0.0
 40
0.0
 40
0.1666666666666667
 40
0.1666666666666667
 40
0.1666666666666667
 40
0.1666666666666667
 40
0.3333333333333333
 40
0.3333333333333333
 40
0.3333333333333333
 40
0.3333333333333333
 40
0.5
 40
0.5
 40
0.5
 40
0.5
 40
0.6666666666666666
 40
0.6666666666666666
 40
0.6666666666666666
 40
0.6666666666666666
 40
0.8333333333333333
 40
0.8333333333333333
 40
0.8333333333333333
 40
0.8333333333333333
 40
1.0
 40
1.0
 40
1.0
 40
1.0
 10
-169.3227
 20
166.04820000000001
 30
0.0
 10
-165.92600000000002
 20
166.0506
 30
0.0
 10
-162.66920000000002
 20
167.40200000000002
 30
0.0
 10
-160.26910000000001
 20
169.80520000000001
 30
0.0
 10
-160.26910000000001
 20
169.80520000000001
 30
0.0
 10
-157.86870000000002
 20
172.20870000000002
 30
0.0
 10
-156.52170000000001
 20
175.45080000000002
 30
0.0
 10
-156.5239
 20
178.84720000000002
 30
0.0
 10
-156.5239
 20
178.84720000000002
 30
0.0
 10
-156.52890000000002
 20
185.91990000000001
 30
0.0
 10
-162.25030000000001
 20
191.64960000000002
 30
0.0
 10
-169.3237
 20
191.64530000000002
 30
0.0
 10
-169.3237
 20
191.64530000000002
 30
0.0
 10
-173.85570000000001
 20
191.63740000000001
 30
0.0
 10
-178.04660000000001
 20
189.23680000000002
 30
0.0
 10
-180.34550000000002
 20
185.3314
 30
0.0
 10
-180.34550000000002
 20
185.3314
 30
0.0
 10
-182.64440000000002
 20
181.42600000000002
 30
0.0
 10
-182.73170000000002
 20
176.63750000000002
 30
0.0
 10
-180.53870000000001
 20
172.67170000000002
 30
0.0
 10
-180.53870000000001
 20
172.67170000000002
 30
0.0
 10
-178.2851
 20
168.5838
 30
0.0
 10
-173.99100000000001
 20
166.04580000000001
 30
0.0
 10
-169.3227
 20
166.04820000000001
 30
0.0
  0
SPLINE
  5
33
100
AcDbEntity
  8
0
370
     5
 62
     1
100
AcDbSpline
210
0.0
220
0.0
230
1.0
 70
     1
 71
     3
 72
    28
 73
    24
 74
     0
 42
0.0000000001
 43
0.0000000001
 40
0.0
 40
0.0
 40
0.0
 40
0.0
 40
0.1666666666666667
 40
0.1666666666666667
 40
0.1666666666666667
 40
0.1666666666666667
 40
0.3333333333333333
 40
0.3333333333333333
 40
0.3333333333333333
 40
0.3333333333333333
 40
0.5
 40
0.5
 40
0.5
 40
0.5
 40
0.6666666666666666
 40
0.6666666666666666
 40
0.6666666666666666
 40
0.6666666666666666
 40
0.8333333333333333
 40
0.8333333333333333
 40
0.8333333333333333
 40
0.8333333333333333
 40
1.0
 40
1.0
 40
1.0
 40
1.0
 10
-138.41249999999999
 20
173.95070000000001
 30
0.0
 10
-137.1482
 20
172.74040000000002
 30
0.0
 10
-135.46620000000001
 20
172.065
 30
0.0
 10
-133.71530000000001
 20
172.06540000000001
 30
0.0
 10
-133.71530000000001
 20
172.06540000000001
 30
0.0
 10
-129.96520000000001
 20
172.0684
 30
0.0
 10
-126.9273
 20
175.0994
 30
0.0
 10
-126.9294
 20
178.84620000000001
 30
0.0
 10
-126.9294
 20
178.84620000000001
 30
0.0
 10
-126.93050000000001
 20
180.64580000000001
 30
0.0
 10
-127.64710000000001
 20
182.37130000000002
 30
0.0
 10
-128.92140000000001
 20
183.6431
 30
0.0
 10
-128.92140000000001
 20
183.6431
 30
0.0
 10
-130.19580000000002
 20
184.91480000000001
 30
0.0
 10
-131.91500000000002
 20
185.62870000000001
 30
0.0
 10
-133.71620000000001
 20
185.6276
 30
0.0
 10
-133.71620000000001
 20
185.6276
 30
0.0
 10
-136.49190000000002
 20
185.61680000000001
 30
0.0
 10
-138.9821
 20
183.92100000000002
 30
0.0
 10
-140.00700000000001
 20
181.34370000000001
 30
0.0
 10
-140.00700000000001
 20
181.34370000000001
 30
0.0
 10
-141.03190000000001
 20
178.7663
 30
0.0
 10
-140.4238
 20
175.86190000000002
 30
0.0
 10
-138.41249999999999
 20
173.95070000000001
 30
0.0
  0
SPLINE
  5
34
100
AcDbEntity
  8
0
370
     5
 62
     1
100
AcDbSpline
210
0.0
220
0.0
230
1.0
 70
     1
 71
     3
 72
    28
 73
    24
 74
     0
 42
0.0000000001
 43
0.0000000001
 40
0.0
 40
0.0
 40
0.0
 40
0.0
 40
0.1666666666666667
 40
0.1666666666666667
 40
0.1666666666666667
 40
0.1666666666666667
 40
0.3333333333333333
 40
0.3333333333333333
 40
0.3333333333333333
 40
0.3333333333333333
 40
0.5
 40
0.5
 40
0.5
 40
0.5
 40
0.6666666666666666
 40
0.6666666666666666
 40
0.6666666666666666
 40
0.6666666666666666
 40
0.8333333333333333
 40
0.8333333333333333
 40
0.8333333333333333
 40
0.8333333333333333
 40
1.0
 40
1.0
 40
1.0
 40
1.0
 10
-133.71530000000001
 20
166.04820000000001
 30
0.0
 10
-130.3185
 20
166.0506
 30
0.0
 10
-127.06190000000001
 20
167.40200000000002
 30
0.0
 10
-124.66170000000001
 20
169.80520000000001
 30
0.0
 10
-124.66170000000001
 20
169.80520000000001
 30
0.0
 10
-122.2616
 20
172.20860000000002
 30
0.0
 10
-120.9144
 20
175.45080000000002
 30
0.0
 10
-120.91670000000001
 20
178.84720000000002
 30
0.0
 10
-120.91670000000001
 20
178.84720000000002
 30
0.0
 10
-120.92150000000001
 20
185.91990000000001
 30
0.0
 10
-126.643
 20
191.64960000000002
 30
0.0
 10
-133.71630000000002
 20
191.64530000000002
 30
0.0
 10
-133.71630000000002
 20
191.64530000000002
 30
0.0
 10
-138.2484
 20
191.63740000000001
 30
0.0
 10
-142.4393
 20
189.23670000000001
 30
0.0
 10
-144.73820000000001
 20
185.3314
 30
0.0
 10
-144.73820000000001
 20
185.3314
 30
0.0
 10
-147.03710000000001
 20
181.42600000000002
 30
0.0
 10
-147.12440000000001
 20
176.63750000000002
 30
0.0
 10
-144.93129999999999
 20
172.67170000000002
 30
0.0
 10
-144.93129999999999
 20
172.67170000000002
 30
0.0
 10
-142.67780000000002
 20
168.5838
 30
0.0
 10
-138.3837
 20
166.04580000000001
 30
0.0
 10
-133.71530000000001
 20
166.04820000000001
 30
0.0
  0
SPLINE
  5
35
100
AcDbEntity
  8
0
370
     5
 62
     1
100
AcDbSpline
210
0.0
220
0.0
230
1.0
 70
     1
 71
     3
 72
    72
 73
    68
 74
     0
 42
0.0000000001
 43
0.0000000001
 40
0.0
 40
0.0
 40
0.0
 40
0.0
 40
0.0588235294117647
 40
0.0588235294117647
 40
0.0588235294117647
 40
0.0588235294117647
 40
0.1176470588235294
 40
0.1176470588235294
 40
0.1176470588235294
 40
0.1176470588235294
 40
0.1764705882352941
 40
0.1764705882352941
 40
0.1764705882352941
 40
0.1764705882352941
 40
0.2352941176470588
 40
0.2352941176470588
 40
0.2352941176470588
 40
0.2352941176470588
 40
0.2941176470588235
 40
0.2941176470588235
 40
0.2941176470588235
 40
0.2941176470588235
 40
0.3529411764705883
 40
0.3529411764705883
 40
0.3529411764705883
 40
0.3529411764705883
 40
0.411764705882353
 40
0.411764705882353
 40
0.411764705882353
 40
0.411764705882353
 40
0.4705882352941177
 40
0.4705882352941177
 40
0.4705882352941177
 40
0.4705882352941177
 40
0.5294117647058824
 40
0.5294117647058824
 40
0.5294117647058824
 40
0.5294117647058824
 40
0.5882352941176471
 40
0.5882352941176471
 40
0.5882352941176471
 40
0.5882352941176471
 40
0.6470588235294118
 40
0.6470588235294118
 40
0.6470588235294118
 40
0.6470588235294118
 40
0.7058823529411765
 40
0.7058823529411765
 40
0.7058823529411765
 40
0.7058823529411765
 40
0.7647058823529412
 40
0.7647058823529412
 40
0.7647058823529412
 40
0.7647058823529412
 40
0.823529411764706
 40
0.823529411764706
 40
0.823529411764706
 40
0.823529411764706
 40
0.8823529411764707
 40
0.8823529411764707
 40
0.8823529411764707
 40
0.8823529411764707
 40
0.9411764705882354
 40
0.9411764705882354
 40
0.9411764705882354
 40
0.9411764705882354
 40
1.0
 40
1.0
 40
1.0
 40
1.0
 10
-88.43610000000001
 20
165.5359
 30
0.0
 10
-88.43610000000001
 20
165.5359
 30
0.0
 10
-89.620699999999999
 20
165.5361
 30
0.0
 10
-89.620699999999999
 20
165.5361
 30
0.0
 10
-89.620699999999999
 20
165.5361
 30
0.0
 10
-89.620699999999999
 20
165.5361
 30
0.0
 10
-89.620699999999999
 20
171.45860000000002
 30
0.0
 10
-89.620699999999999
 20
171.45860000000002
 30
0.0
 10
-89.620699999999999
 20
171.45860000000002
 30
0.0
 10
-89.620699999999999
 20
171.45860000000002
 30
0.0
 10
-99.987400000000008
 20
171.45860000000002
 30
0.0
 10
-99.987400000000008
 20
171.45860000000002
 30
0.0
 10
-99.987400000000008
 20
171.45860000000002
 30
0.0
 10
-99.987400000000008
 20
171.45860000000002
 30
0.0
 10
-99.987400000000008
 20
176.1225
 30
0.0
 10
-99.987400000000008
 20
176.1225
 30
0.0
 10
-99.987400000000008
 20
176.1225
 30
0.0
 10
-99.987400000000008
 20
176.1225
 30
0.0
 10
-89.620699999999999
 20
176.1225
 30
0.0
 10
-89.620699999999999
 20
176.1225
 30
0.0
 10
-89.620699999999999
 20
176.1225
 30
0.0
 10
-88.906500000000008
 20
176.1225
 30
0.0
 10
-88.246600000000001
 20
176.5034
 30
0.0
 10
-87.889400000000009
 20
177.12190000000001
 30
0.0
 10
-87.889400000000009
 20
177.12190000000001
 30
0.0
 10
-87.532300000000006
 20
177.74030000000002
 30
0.0
 10
-87.532300000000006
 20
178.50220000000002
 30
0.0
 10
-87.889400000000009
 20
179.1207
 30
0.0
 10
-87.889400000000009
 20
179.1207
 30
0.0
 10
-88.246600000000001
 20
179.73920000000001
 30
0.0
 10
-88.906500000000008
 20
180.12010000000001
 30
0.0
 10
-89.620699999999999
 20
180.12010000000001
 30
0.0
 10
-89.620699999999999
 20
180.12010000000001
 30
0.0
 10
-89.620699999999999
 20
180.12010000000001
 30
0.0
 10
-99.987400000000008
 20
180.12010000000001
 30
0.0
 10
-99.987400000000008
 20
180.12010000000001
 30
0.0
 10
-99.987400000000008
 20
180.12010000000001
 30
0.0
 10
-99.987400000000008
 20
180.12010000000001
 30
0.0
 10
-99.987400000000008
 20
184.78400000000002
 30
0.0
 10
-99.987400000000008
 20
184.78400000000002
 30
0.0
 10
-99.987400000000008
 20
184.78400000000002
 30
0.0
 10
-99.987400000000008
 20
184.78400000000002
 30
0.0
 10
-95.159500000000008
 20
184.78400000000002
 30
0.0
 10
-95.159500000000008
 20
184.78400000000002
 30
0.0
 10
-95.159500000000008
 20
184.78400000000002
 30
0.0
 10
-95.159500000000008
 20
184.78400000000002
 30
0.0
 10
-89.620800000000003
 20
184.78400000000002
 30
0.0
 10
-89.620800000000003
 20
184.78400000000002
 30
0.0
 10
-89.620800000000003
 20
184.78400000000002
 30
0.0
 10
-89.620800000000003
 20
184.78400000000002
 30
0.0
 10
-89.620800000000003
 20
190.69150000000002
 30
0.0
 10
-89.620800000000003
 20
190.69150000000002
 30
0.0
 10
-89.620800000000003
 20
190.69150000000002
 30
0.0
 10
-89.620800000000003
 20
190.69150000000002
 30
0.0
 10
-88.450900000000004
 20
190.69150000000002
 30
0.0
 10
-88.450900000000004
 20
190.69150000000002
 30
0.0
 10
-88.450900000000004
 20
190.69150000000002
 30
0.0
 10
-79.823700000000002
 20
190.8143
 30
0.0
 10
-71.652200000000008
 20
186.79810000000001
 30
0.0
 10
-66.474100000000007
 20
179.89790000000002
 30
0.0
 10
-66.474100000000007
 20
179.89790000000002
 30
0.0
 10
-65.684300000000007
 20
178.846
 30
0.0
 10
-65.685000000000002
 20
177.3972
 30
0.0
 10
-66.474000000000004
 20
176.34460000000001
 30
0.0
 10
-66.474000000000004
 20
176.34460000000001
 30
0.0
 10
-71.643799999999999
 20
169.44140000000002
 30
0.0
 10
-79.81110000000001
 20
165.4247
 30
0.0
 10
-88.43610000000001
 20
165.5359
 30
0.0
  0
SPLINE
  5
36
100
AcDbEntity
  8
0
370
     5
 62
     1
100
AcDbSpline
210
0.0
220
0.0
230
1.0
 70
     1
 71
     3
 72
   176
 73
   172
 74
     0
 42
0.0000000001
 43
0.0000000001
 40
0.0
 40
0.0
 40
0.0
 40
0.0
 40
0.0232558139534884
 40
0.0232558139534884
 40
0.0232558139534884
 40
0.0232558139534884
 40
0.0465116279069767
 40
0.0465116279069767
 40
0.0465116279069767
 40
0.0465116279069767
 40
0.0697674418604651
 40
0.0697674418604651
 40
0.0697674418604651
 40
0.0697674418604651
 40
0.0930232558139535
 40
0.0930232558139535
 40
0.0930232558139535
 40
0.0930232558139535
 40
0.1162790697674419
 40
0.1162790697674419
 40
0.1162790697674419
 40
0.1162790697674419
 40
0.1395348837209302
 40
0.1395348837209302
 40
0.1395348837209302
 40
0.1395348837209302
 40
0.1627906976744186
 40
0.1627906976744186
 40
0.1627906976744186
 40
0.1627906976744186
 40
0.186046511627907
 40
0.186046511627907
 40
0.186046511627907
 40
0.186046511627907
 40
0.2093023255813953
 40
0.2093023255813953
 40
0.2093023255813953
 40
0.2093023255813953
 40
0.2325581395348837
 40
0.2325581395348837
 40
0.2325581395348837
 40
0.2325581395348837
 40
0.2558139534883721
 40
0.2558139534883721
 40
0.2558139534883721
 40
0.2558139534883721
 40
0.2790697674418604
 40
0.2790697674418604
 40
0.2790697674418604
 40
0.2790697674418604
 40
0.3023255813953488
 40
0.3023255813953488
 40
0.3023255813953488
 40
0.3023255813953488
 40
0.3255813953488371
 40
0.3255813953488371
 40
0.3255813953488371
 40
0.3255813953488371
 40
0.3488372093023255
 40
0.3488372093023255
 40
0.3488372093023255
 40
0.3488372093023255
 40
0.3720930232558138
 40
0.3720930232558138
 40
0.3720930232558138
 40
0.3720930232558138
 40
0.3953488372093022
 40
0.3953488372093022
 40
0.3953488372093022
 40
0.3953488372093022
 40
0.4186046511627906
 40
0.4186046511627906
 40
0.4186046511627906
 40
0.4186046511627906
 40
0.4418604651162789
 40
0.4418604651162789
 40
0.4418604651162789
 40
0.4418604651162789
 40
0.4651162790697673
 40
0.4651162790697673
 40
0.4651162790697673
 40
0.4651162790697673
 40
0.4883720930232556
 40
0.4883720930232556
 40
0.4883720930232556
 40
0.4883720930232556
 40
0.511627906976744
 40
0.511627906976744
 40
0.511627906976744
 40
0.511627906976744
 40
0.5348837209302324
 40
0.5348837209302324
 40
0.5348837209302324
 40
0.5348837209302324
 40
0.5581395348837208
 40
0.5581395348837208
 40
0.5581395348837208
 40
0.5581395348837208
 40
0.5813953488372092
 40
0.5813953488372092
 40
0.5813953488372092
 40
0.5813953488372092
 40
0.6046511627906976
 40
0.6046511627906976
 40
0.6046511627906976
 40
0.6046511627906976
 40
0.6279069767441861
 40
0.6279069767441861
 40
0.6279069767441861
 40
0.6279069767441861
 40
0.6511627906976745
 40
0.6511627906976745
 40
0.6511627906976745
 40
0.6511627906976745
 40
0.6744186046511629
 40
0.6744186046511629
 40
0.6744186046511629
 40
0.6744186046511629
 40
0.6976744186046513
 40
0.6976744186046513
 40
0.6976744186046513
 40
0.6976744186046513
 40
0.7209302325581397
 40
0.7209302325581397
 40
0.7209302325581397
 40
0.7209302325581397
 40
0.7441860465116281
 40
0.7441860465116281
 40
0.7441860465116281
 40
0.7441860465116281
 40
0.7674418604651165
 40
0.7674418604651165
 40
0.7674418604651165
 40
0.7674418604651165
 40
0.790697674418605
 40
0.790697674418605
 40
0.790697674418605
 40
0.790697674418605
 40
0.8139534883720934
 40
0.8139534883720934
 40
0.8139534883720934
 40
0.8139534883720934
 40
0.8372093023255818
 40
0.8372093023255818
 40
0.8372093023255818
 40
0.8372093023255818
 40
0.8604651162790702
 40
0.8604651162790702
 40
0.8604651162790702
 40
0.8604651162790702
 40
0.8837209302325586
 40
0.8837209302325586
 40
0.8837209302325586
 40
0.8837209302325586
 40
0.906976744186047
 40
0.906976744186047
 40
0.906976744186047
 40
0.906976744186047
 40
0.9302325581395354
 40
0.9302325581395354
 40
0.9302325581395354
 40
0.9302325581395354
 40
0.9534883720930238
 40
0.9534883720930238
 40
0.9534883720930238
 40
0.9534883720930238
 40
0.9767441860465123
 40
0.9767441860465123
 40
0.9767441860465123
 40
0.9767441860465123
 40
1.0
 40
1.0
 40
1.0
 40
1.0
 10
77.764499999999998
 20
36.228700000000003
 30
0.0
 10
77.544200000000004
 20
36.229100000000003
 30
0.0
 10
101.5296
 20
36.206000000000003
 30
0.0
 10
105.60180000000001
 20
36.2059
 30
0.0
 10
105.60180000000001
 20
36.2059
 30
0.0
 10
109.68690000000001
 20
36.206000000000003
 30
0.0
 10
111.24640000000001
 20
36.2592
 30
0.0
 10
113.41720000000001
 20
34.252000000000002
 30
0.0
 10
113.41720000000001
 20
34.252000000000002
 30
0.0
 10
110.78320000000001
 20
28.169500000000003
 30
0.0
 10
104.67540000000001
 20
24.324400000000001
 30
0.0
 10
98.051500000000004
 20
24.588000000000001
 30
0.0
 10
98.051500000000004
 20
24.588000000000001
 30
0.0
 10
98.051500000000004
 20
24.588000000000001
 30
0.0
 10
54.962200000000003
 20
30.512500000000003
 30
0.0
 10
54.962200000000003
 20
30.512500000000003
 30
0.0
 10
54.962200000000003
 20
30.512500000000003
 30
0.0
 10
52.374100000000006
 20
30.720400000000001
 30
0.0
 10
46.273299999999999
 20
35.9358
 30
0.0
 10
47.2654
 20
38.734200000000001
 30
0.0
 10
47.2654
 20
38.734200000000001
 30
0.0
 10
47.2654
 20
38.734200000000001
 30
0.0
 10
58.955100000000002
 20
39.109900000000003
 30
0.0
 10
58.955100000000002
 20
39.109900000000003
 30
0.0
 10
58.955100000000002
 20
39.109900000000003
 30
0.0
 10
58.955100000000002
 20
39.109900000000003
 30
0.0
 10
80.710000000000008
 20
55.009600000000006
 30
0.0
 10
80.710000000000008
 20
55.009600000000006
 30
0.0
 10
80.710000000000008
 20
55.009600000000006
 30
0.0
 10
80.710000000000008
 20
55.009600000000006
 30
0.0
 10
90.571600000000004
 20
81.167600000000007
 30
0.0
 10
90.571600000000004
 20
81.167600000000007
 30
0.0
 10
90.571600000000004
 20
81.167600000000007
 30
0.0
 10
90.571600000000004
 20
81.167600000000007
 30
0.0
 10
80.35260000000001
 20
94.469500000000011
 30
0.0
 10
80.35260000000001
 20
94.469500000000011
 30
0.0
 10
80.35260000000001
 20
94.469500000000011
 30
0.0
 10
80.35260000000001
 20
94.469500000000011
 30
0.0
 10
70.686500000000009
 20
94.079900000000009
 30
0.0
 10
70.686500000000009
 20
94.079900000000009
 30
0.0
 10
70.686500000000009
 20
94.079900000000009
 30
0.0
 10
71.24730000000001
 20
99.252800000000008
 30
0.0
 10
75.582400000000007
 20
103.20350000000001
 30
0.0
 10
80.786299999999997
 20
103.2728
 30
0.0
 10
80.786299999999997
 20
103.2728
 30
0.0
 10
80.786299999999997
 20
103.2728
 30
0.0
 10
100.1242
 20
106.5064
 30
0.0
 10
100.1242
 20
106.5064
 30
0.0
 10
100.1242
 20
106.5064
 30
0.0
 10
100.1242
 20
106.5064
 30
0.0
 10
111.59440000000001
 20
136.93170000000001
 30
0.0
 10
111.59440000000001
 20
136.93170000000001
 30
0.0
 10
111.59440000000001
 20
136.93170000000001
 30
0.0
 10
111.59440000000001
 20
136.93170000000001
 30
0.0
 10
101.3754
 20
150.23340000000002
 30
0.0
 10
101.3754
 20
150.23340000000002
 30
0.0
 10
101.3754
 20
150.23340000000002
 30
0.0
 10
101.3754
 20
150.23340000000002
 30
0.0
 10
91.70920000000001
 20
149.84380000000002
 30
0.0
 10
91.70920000000001
 20
149.84380000000002
 30
0.0
 10
91.70920000000001
 20
149.84380000000002
 30
0.0
 10
92.270099999999999
 20
155.01680000000002
 30
0.0
 10
96.605100000000007
 20
158.9675
 30
0.0
 10
101.8092
 20
159.0367
 30
0.0
 10
101.8092
 20
159.0367
 30
0.0
 10
101.8092
 20
159.0367
 30
0.0
 10
132.11940000000001
 20
164.1052
 30
0.0
 10
132.11940000000001
 20
164.1052
 30
0.0
 10
132.11940000000001
 20
164.1052
 30
0.0
 10
134.4528
 20
164.98560000000001
 30
0.0
 10
136.89879999999999
 20
165.5351
 30
0.0
 10
139.38470000000001
 20
165.73670000000001
 30
0.0
 10
139.38470000000001
 20
165.73670000000001
 30
0.0
 10
140.0908
 20
165.82300000000001
 30
0.0
 10
140.8006
 20
165.87
 30
0.0
 10
141.51170000000002
 20
165.87800000000001
 30
0.0
 10
141.51170000000002
 20
165.87800000000001
 30
0.0
 10
149.2449
 20
166.3545
 30
0.0
 10
156.18000000000001
 20
160.6396
 30
0.0
 10
157.67700000000002
 20
153.03919999999999
 30
0.0
 10
157.67700000000002
 20
153.03919999999999
 30
0.0
 10
145.73570000000001
 20
153.03919999999999
 30
0.0
 10
133.79410000000001
 20
153.0393
 30
0.0
 10
121.85300000000001
 20
153.0393
 30
0.0
 10
121.85300000000001
 20
153.0393
 30
0.0
 10
121.85300000000001
 20
153.0393
 30
0.0
 10
121.85290000000001
 20
149.04500000000002
 30
0.0
 10
121.85290000000001
 20
149.04500000000002
 30
0.0
 10
121.85290000000001
 20
149.04500000000002
 30
0.0
 10
121.85290000000001
 20
149.04500000000002
 30
0.0
 10
141.57330000000002
 20
149.0446
 30
0.0
 10
141.57330000000002
 20
149.0446
 30
0.0
 10
141.57330000000002
 20
149.0446
 30
0.0
 10
144.25880000000001
 20
149.0446
 30
0.0
 10
145.8135
 20
147.6688
 30
0.0
 10
145.03630000000001
 20
145.00060000000002
 30
0.0
 10
145.03630000000001
 20
145.00060000000002
 30
0.0
 10
144.7551
 20
144.03740000000002
 30
0.0
 10
144.00490000000002
 20
143.28210000000001
 30
0.0
 10
143.04320000000001
 20
142.99510000000001
 30
0.0
 10
143.04320000000001
 20
142.99510000000001
 30
0.0
 10
143.04320000000001
 20
142.99510000000001
 30
0.0
 10
123.62450000000001
 20
135.27780000000001
 30
0.0
 10
123.62450000000001
 20
135.27780000000001
 30
0.0
 10
123.62450000000001
 20
135.27780000000001
 30
0.0
 10
123.62450000000001
 20
135.27780000000001
 30
0.0
 10
118.3532
 20
121.29660000000001
 30
0.0
 10
118.3532
 20
121.29660000000001
 30
0.0
 10
118.3532
 20
121.29660000000001
 30
0.0
 10
118.3532
 20
121.29660000000001
 30
0.0
 10
113.7928
 20
109.1983
 30
0.0
 10
113.7928
 20
109.1983
 30
0.0
 10
113.7928
 20
109.1983
 30
0.0
 10
115.28870000000001
 20
109.58800000000001
 30
0.0
 10
116.8177
 20
109.84740000000001
 30
0.0
 10
118.3618
 20
109.97280000000001
 30
0.0
 10
118.3618
 20
109.97280000000001
 30
0.0
 10
119.06800000000001
 20
110.0591
 30
0.0
 10
119.7779
 20
110.10610000000001
 30
0.0
 10
120.4889
 20
110.114
 30
0.0
 10
120.4889
 20
110.114
 30
0.0
 10
128.22200000000001
 20
110.59050000000001
 30
0.0
 10
135.09690000000001
 20
104.8669
 30
0.0
 10
136.59390000000002
 20
97.266500000000008
 30
0.0
 10
136.59390000000002
 20
97.266500000000008
 30
0.0
 10
136.59390000000002
 20
97.2667
 30
0.0
 10
100.7698
 20
97.266500000000008
 30
0.0
 10
100.7697
 20
97.266500000000008
 30
0.0
 10
100.7697
 20
97.266500000000008
 30
0.0
 10
100.7697
 20
97.266500000000008
 30
0.0
 10
100.7698
 20
93.271200000000007
 30
0.0
 10
100.7698
 20
93.271200000000007
 30
0.0
 10
100.7698
 20
93.271200000000007
 30
0.0
 10
100.7698
 20
93.271200000000007
 30
0.0
 10
120.6332
 20
93.28070000000001
 30
0.0
 10
120.6332
 20
93.28070000000001
 30
0.0
 10
120.6332
 20
93.28070000000001
 30
0.0
 10
123.16760000000001
 20
92.932700000000011
 30
0.0
 10
124.77950000000001
 20
91.866700000000009
 30
0.0
 10
124.0133
 20
89.236699999999999
 30
0.0
 10
124.0133
 20
89.236699999999999
 30
0.0
 10
123.73240000000001
 20
88.273400000000009
 30
0.0
 10
122.982
 20
87.518100000000004
 30
0.0
 10
122.02040000000001
 20
87.231200000000001
 30
0.0
 10
122.02040000000001
 20
87.231200000000001
 30
0.0
 10
122.02040000000001
 20
87.231200000000001
 30
0.0
 10
102.60170000000001
 20
79.513800000000003
 30
0.0
 10
102.60170000000001
 20
79.513800000000003
 30
0.0
 10
102.60170000000001
 20
79.513800000000003
 30
0.0
 10
102.60170000000001
 20
79.513800000000003
 30
0.0
 10
97.330300000000008
 20
65.532499999999999
 30
0.0
 10
97.330300000000008
 20
65.532499999999999
 30
0.0
 10
97.330300000000008
 20
65.532499999999999
 30
0.0
 10
97.330300000000008
 20
65.532499999999999
 30
0.0
 10
92.740000000000009
 20
53.3551
 30
0.0
 10
92.740000000000009
 20
53.3551
 30
0.0
 10
92.740000000000009
 20
53.3551
 30
0.0
 10
92.740000000000009
 20
53.3551
 30
0.0
 10
99.907700000000006
 20
46.885300000000001
 30
0.0
 10
99.907700000000006
 20
46.885300000000001
 30
0.0
 10
99.907700000000006
 20
46.885300000000001
 30
0.0
 10
102.28150000000001
 20
45.558100000000003
 30
0.0
 10
101.3073
 20
40.2209
 30
0.0
 10
99.038700000000006
 20
40.220800000000004
 30
0.0
 10
99.038700000000006
 20
40.220800000000004
 30
0.0
 10
99.038700000000006
 20
40.220800000000004
 30
0.0
 10
77.801200000000009
 20
40.2209
 30
0.0
 10
77.801200000000009
 20
40.2209
 30
0.0
 10
77.801200000000009
 20
40.2209
 30
0.0
 10
77.801200000000009
 20
40.2209
 30
0.0
 10
77.764499999999998
 20
36.228700000000003
 30
0.0
 10
77.764499999999998
 20
36.228700000000003
 30
0.0
  0
SPLINE
  5
37
100
AcDbEntity
  8
0
370
     5
 62
     1
100
AcDbSpline
210
0.0
220
0.0
230
1.0
 70
     1
 71
     3
 72
   240
 73
   236
 74
     0
 42
0.0000000001
 43
0.0000000001
 40
0.0
 40
0.0
 40
0.0
 40
0.0
 40
0.0169491525423729
 40
0.0169491525423729
 40
0.0169491525423729
 40
0.0169491525423729
 40
0.0338983050847458
 40
0.0338983050847458
 40
0.0338983050847458
 40
0.0338983050847458
 40
0.0508474576271186
 40
0.0508474576271186
 40
0.0508474576271186
 40
0.0508474576271186
 40
0.0677966101694915
 40
0.0677966101694915
 40
0.0677966101694915
 40
0.0677966101694915
 40
0.0847457627118644
 40
0.0847457627118644
 40
0.0847457627118644
 40
0.0847457627118644
 40
0.1016949152542373
 40
0.1016949152542373
 40
0.1016949152542373
 40
0.1016949152542373
 40
0.1186440677966102
 40
0.1186440677966102
 40
0.1186440677966102
 40
0.1186440677966102
 40
0.1355932203389831
 40
0.1355932203389831
 40
0.1355932203389831
 40
0.1355932203389831
 40
0.1525423728813559
 40
0.1525423728813559
 40
0.1525423728813559
 40
0.1525423728813559
 40
0.1694915254237288
 40
0.1694915254237288
 40
0.1694915254237288
 40
0.1694915254237288
 40
0.1864406779661017
 40
0.1864406779661017
 40
0.1864406779661017
 40
0.1864406779661017
 40
0.2033898305084746
 40
0.2033898305084746
 40
0.2033898305084746
 40
0.2033898305084746
 40
0.2203389830508475
 40
0.2203389830508475
 40
0.2203389830508475
 40
0.2203389830508475
 40
0.2372881355932204
 40
0.2372881355932204
 40
0.2372881355932204
 40
0.2372881355932204
 40
0.2542372881355933
 40
0.2542372881355933
 40
0.2542372881355933
 40
0.2542372881355933
 40
0.2711864406779662
 40
0.2711864406779662
 40
0.2711864406779662
 40
0.2711864406779662
 40
0.2881355932203391
 40
0.2881355932203391
 40
0.2881355932203391
 40
0.2881355932203391
 40
0.3050847457627119
 40
0.3050847457627119
 40
0.3050847457627119
 40
0.3050847457627119
 40
0.3220338983050848
 40
0.3220338983050848
 40
0.3220338983050848
 40
0.3220338983050848
 40
0.3389830508474577
 40
0.3389830508474577
 40
0.3389830508474577
 40
0.3389830508474577
 40
0.3559322033898306
 40
0.3559322033898306
 40
0.3559322033898306
 40
0.3559322033898306
 40
0.3728813559322035
 40
0.3728813559322035
 40
0.3728813559322035
 40
0.3728813559322035
 40
0.3898305084745764
 40
0.3898305084745764
 40
0.3898305084745764
 40
0.3898305084745764
 40
0.4067796610169493
 40
0.4067796610169493
 40
0.4067796610169493
 40
0.4067796610169493
 40
0.4237288135593222
 40
0.4237288135593222
 40
0.4237288135593222
 40
0.4237288135593222
 40
0.4406779661016951
 40
0.4406779661016951
 40
0.4406779661016951
 40
0.4406779661016951
 40
0.457627118644068
 40
0.457627118644068
 40
0.457627118644068
 40
0.457627118644068
 40
0.4745762711864409
 40
0.4745762711864409
 40
0.4745762711864409
 40
0.4745762711864409
 40
0.4915254237288138
 40
0.4915254237288138
 40
0.4915254237288138
 40
0.4915254237288138
 40
0.5084745762711866
 40
0.5084745762711866
 40
0.5084745762711866
 40
0.5084745762711866
 40
0.5254237288135595
 40
0.5254237288135595
 40
0.5254237288135595
 40
0.5254237288135595
 40
0.5423728813559323
 40
0.5423728813559323
 40
0.5423728813559323
 40
0.5423728813559323
 40
0.5593220338983052
 40
0.5593220338983052
 40
0.5593220338983052
 40
0.5593220338983052
 40
0.576271186440678
 40
0.576271186440678
 40
0.576271186440678
 40
0.576271186440678
 40
0.5932203389830508
 40
0.5932203389830508
 40
0.5932203389830508
 40
0.5932203389830508
 40
0.6101694915254237
 40
0.6101694915254237
 40
0.6101694915254237
 40
0.6101694915254237
 40
0.6271186440677965
 40
0.6271186440677965
 40
0.6271186440677965
 40
0.6271186440677965
 40
0.6440677966101693
 40
0.6440677966101693
 40
0.6440677966101693
 40
0.6440677966101693
 40
0.6610169491525422
 40
0.6610169491525422
 40
0.6610169491525422
 40
0.6610169491525422
 40
0.677966101694915
 40
0.677966101694915
 40
0.677966101694915
 40
0.677966101694915
 40
0.6949152542372878
 40
0.6949152542372878
 40
0.6949152542372878
 40
0.6949152542372878
 40
0.7118644067796607
 40
0.7118644067796607
 40
0.7118644067796607
 40
0.7118644067796607
 40
0.7288135593220335
 40
0.7288135593220335
 40
0.7288135593220335
 40
0.7288135593220335
 40
0.7457627118644064
 40
0.7457627118644064
 40
0.7457627118644064
 40
0.7457627118644064
 40
0.7627118644067792
 40
0.7627118644067792
 40
0.7627118644067792
 40
0.7627118644067792
 40
0.779661016949152
 40
0.779661016949152
 40
0.779661016949152
 40
0.779661016949152
 40
0.7966101694915249
 40
0.7966101694915249
 40
0.7966101694915249
 40
0.7966101694915249
 40
0.8135593220338977
 40
0.8135593220338977
 40
0.8135593220338977
 40
0.8135593220338977
 40
0.8305084745762705
 40
0.8305084745762705
 40
0.8305084745762705
 40
0.8305084745762705
 40
0.8474576271186434
 40
0.8474576271186434
 40
0.8474576271186434
 40
0.8474576271186434
 40
0.8644067796610162
 40
0.8644067796610162
 40
0.8644067796610162
 40
0.8644067796610162
 40
0.881355932203389
 40
0.881355932203389
 40
0.881355932203389
 40
0.881355932203389
 40
0.8983050847457619
 40
0.8983050847457619
 40
0.8983050847457619
 40
0.8983050847457619
 40
0.9152542372881347
 40
0.9152542372881347
 40
0.9152542372881347
 40
0.9152542372881347
 40
0.9322033898305075
 40
0.9322033898305075
 40
0.9322033898305075
 40
0.9322033898305075
 40
0.9491525423728804
 40
0.9491525423728804
 40
0.9491525423728804
 40
0.9491525423728804
 40
0.9661016949152532
 40
0.9661016949152532
 40
0.9661016949152532
 40
0.9661016949152532
 40
0.9830508474576261
 40
0.9830508474576261
 40
0.9830508474576261
 40
0.9830508474576261
 40
1.0
 40
1.0
 40
1.0
 40
1.0
 10
-211.1754
 20
-21.002700000000001
 30
0.0
 10
-211.1754
 20
-21.002700000000001
 30
0.0
 10
-211.1754
 20
-46.256500000000003
 30
0.0
 10
-211.1754
 20
-46.256500000000003
 30
0.0
 10
-211.1754
 20
-46.256500000000003
 30
0.0
 10
-211.1754
 20
-46.256500000000003
 30
0.0
 10
-207.15940000000001
 20
-46.256500000000003
 30
0.0
 10
-207.15940000000001
 20
-46.256500000000003
 30
0.0
 10
-207.15940000000001
 20
-46.256500000000003
 30
0.0
 10
-207.15940000000001
 20
-46.256500000000003
 30
0.0
 10
-207.15940000000001
 20
-18.510100000000001
 30
0.0
 10
-207.15940000000001
 20
-18.510100000000001
 30
0.0
 10
-207.15940000000001
 20
-18.510100000000001
 30
0.0
 10
-201.298
 20
-15.377400000000002
 30
0.0
 10
-194.6934
 20
-13.8918
 30
0.0
 10
-188.05460000000002
 20
-14.210600000000001
 30
0.0
 10
-188.05460000000002
 20
-14.210600000000001
 30
0.0
 10
-188.05460000000002
 20
-14.210600000000001
 30
0.0
 10
-188.05460000000002
 20
-46.256500000000003
 30
0.0
 10
-188.05460000000002
 20
-46.256500000000003
 30
0.0
 10
-188.05460000000002
 20
-46.256500000000003
 30
0.0
 10
-188.05460000000002
 20
-46.256500000000003
 30
0.0
 10
-184.06390000000002
 20
-46.256500000000003
 30
0.0
 10
-184.06390000000002
 20
-46.256500000000003
 30
0.0
 10
-184.06390000000002
 20
-46.256500000000003
 30
0.0
 10
-184.06390000000002
 20
-46.256500000000003
 30
0.0
 10
-184.06390000000002
 20
-14.210600000000001
 30
0.0
 10
-184.06390000000002
 20
-14.210600000000001
 30
0.0
 10
-184.06390000000002
 20
-14.210600000000001
 30
0.0
 10
-177.42520000000002
 20
-13.8918
 30
0.0
 10
-170.82040000000001
 20
-15.377400000000002
 30
0.0
 10
-164.95910000000001
 20
-18.510100000000001
 30
0.0
 10
-164.95910000000001
 20
-18.510100000000001
 30
0.0
 10
-164.95910000000001
 20
-18.510100000000001
 30
0.0
 10
-164.95910000000001
 20
-46.256500000000003
 30
0.0
 10
-164.95910000000001
 20
-46.256500000000003
 30
0.0
 10
-164.95910000000001
 20
-46.256500000000003
 30
0.0
 10
-164.95910000000001
 20
-46.256500000000003
 30
0.0
 10
-160.94320000000002
 20
-46.256500000000003
 30
0.0
 10
-160.94320000000002
 20
-46.256500000000003
 30
0.0
 10
-160.94320000000002
 20
-46.256500000000003
 30
0.0
 10
-160.94320000000002
 20
-46.256500000000003
 30
0.0
 10
-160.94320000000002
 20
-21.002700000000001
 30
0.0
 10
-160.94320000000002
 20
-21.002700000000001
 30
0.0
 10
-160.94320000000002
 20
-21.002700000000001
 30
0.0
 10
-157.7653
 20
-23.262
 30
0.0
 10
-154.96640000000002
 20
-26.013000000000002
 30
0.0
 10
-152.65270000000001
 20
-29.151
 30
0.0
 10
-152.65270000000001
 20
-29.151
 30
0.0
 10
-152.74340000000001
 20
-41.6706
 30
0.0
 10
-153.82990000000001
 20
-54.559400000000004
 30
0.0
 10
-156.29640000000001
 20
-66.83420000000001
 30
0.0
 10
-156.29640000000001
 20
-66.83420000000001
 30
0.0
 10
-156.29640000000001
 20
-66.83420000000001
 30
0.0
 10
-133.03190000000001
 20
-113.6169
 30
0.0
 10
-133.03190000000001
 20
-113.6169
 30
0.0
 10
-133.03190000000001
 20
-113.6169
 30
0.0
 10
-133.03190000000001
 20
-113.6169
 30
0.0
 10
-130.5658
 20
-113.6169
 30
0.0
 10
-130.5658
 20
-113.6169
 30
0.0
 10
-130.5658
 20
-113.6169
 30
0.0
 10
-130.5658
 20
-113.6169
 30
0.0
 10
-129.39080000000001
 20
-116.49520000000001
 30
0.0
 10
-129.39080000000001
 20
-116.49520000000001
 30
0.0
 10
-129.39080000000001
 20
-116.49520000000001
 30
0.0
 10
-129.39080000000001
 20
-116.49520000000001
 30
0.0
 10
-118.62350000000001
 20
-116.49520000000001
 30
0.0
 10
-118.62350000000001
 20
-116.49520000000001
 30
0.0
 10
-118.62350000000001
 20
-116.49520000000001
 30
0.0
 10
-116.71720000000001
 20
-116.35050000000001
 30
0.0
 10
-114.99430000000001
 20
-117.6661
 30
0.0
 10
-114.6521
 20
-119.54660000000001
 30
0.0
 10
-114.6521
 20
-119.54660000000001
 30
0.0
 10
-114.6521
 20
-119.54660000000001
 30
0.0
 10
-114.6521
 20
-121.2801
 30
0.0
 10
-114.6521
 20
-121.2801
 30
0.0
 10
-114.6521
 20
-121.2801
 30
0.0
 10
-114.6521
 20
-121.2801
 30
0.0
 10
-126.06840000000001
 20
-121.2801
 30
0.0
 10
-126.06840000000001
 20
-121.2801
 30
0.0
 10
-126.06840000000001
 20
-121.2801
 30
0.0
 10
-126.599
 20
-121.2835
 30
0.0
 10
-127.09060000000001
 20
-121.5472
 30
0.0
 10
-127.4633
 20
-121.9248
 30
0.0
 10
-127.4633
 20
-121.9248
 30
0.0
 10
-127.8361
 20
-122.3023
 30
0.0
 10
-128.0438
 20
-122.81230000000001
 30
0.0
 10
-128.0403
 20
-123.34280000000001
 30
0.0
 10
-128.0403
 20
-123.34280000000001
 30
0.0
 10
-128.03700000000001
 20
-123.8733
 30
0.0
 10
-127.82300000000001
 20
-124.37820000000001
 30
0.0
 10
-127.44540000000001
 20
-124.7509
 30
0.0
 10
-127.44540000000001
 20
-124.7509
 30
0.0
 10
-127.06790000000001
 20
-125.12360000000001
 30
0.0
 10
-126.55770000000001
 20
-125.29320000000001
 30
0.0
 10
-126.0271
 20
-125.2899
 30
0.0
 10
-126.0271
 20
-125.2899
 30
0.0
 10
-126.0271
 20
-125.2899
 30
0.0
 10
-114.6521
 20
-125.27000000000001
 30
0.0
 10
-114.6521
 20
-125.27000000000001
 30
0.0
 10
-114.6521
 20
-125.27000000000001
 30
0.0
 10
-114.6521
 20
-125.27000000000001
 30
0.0
 10
-114.6521
 20
-126.9509
 30
0.0
 10
-114.6521
 20
-126.9509
 30
0.0
 10
-114.6521
 20
-126.9509
 30
0.0
 10
-114.97150000000001
 20
-128.83510000000001
 30
0.0
 10
-116.62280000000001
 20
-130.1782
 30
0.0
 10
-118.53060000000001
 20
-130.05790000000002
 30
0.0
 10
-118.53060000000001
 20
-130.05790000000002
 30
0.0
 10
-118.53060000000001
 20
-130.05790000000002
 30
0.0
 10
-129.26650000000001
 20
-130.05790000000002
 30
0.0
 10
-129.26650000000001
 20
-130.05790000000002
 30
0.0
 10
-129.26650000000001
 20
-130.05790000000002
 30
0.0
 10
-129.26650000000001
 20
-130.05790000000002
 30
0.0
 10
-130.43100000000001
 20
-133.10079999999999
 30
0.0
 10
-130.43100000000001
 20
-133.10079999999999
 30
0.0
 10
-130.43100000000001
 20
-133.10079999999999
 30
0.0
 10
-130.43100000000001
 20
-133.10079999999999
 30
0.0
 10
-138.83510000000001
 20
-133.10079999999999
 30
0.0
 10
-138.83510000000001
 20
-133.10079999999999
 30
0.0
 10
-138.83510000000001
 20
-133.10079999999999
 30
0.0
 10
-142.92189999999999
 20
-133.12630000000001
 30
0.0
 10
-146.2424
 20
-129.89320000000001
 30
0.0
 10
-146.26840000000001
 20
-125.80730000000001
 30
0.0
 10
-146.26840000000001
 20
-125.80730000000001
 30
0.0
 10
-146.26840000000001
 20
-125.80730000000001
 30
0.0
 10
-146.35120000000001
 20
-113.72510000000001
 30
0.0
 10
-146.35120000000001
 20
-113.72510000000001
 30
0.0
 10
-146.35120000000001
 20
-113.72510000000001
 30
0.0
 10
-146.35120000000001
 20
-113.72510000000001
 30
0.0
 10
-173.89590000000001
 20
-71.19980000000001
 30
0.0
 10
-173.89590000000001
 20
-71.19980000000001
 30
0.0
 10
-173.89590000000001
 20
-71.19980000000001
 30
0.0
 10
-177.63670000000002
 20
-72.724400000000003
 30
0.0
 10
-181.61500000000001
 20
-73.588999999999999
 30
0.0
 10
-185.6514
 20
-73.753900000000002
 30
0.0
 10
-185.6514
 20
-73.753900000000002
 30
0.0
 10
-185.78730000000002
 20
-73.75030000000001
 30
0.0
 10
-185.92330000000001
 20
-73.74560000000001
 30
0.0
 10
-186.0592
 20
-73.740499999999997
 30
0.0
 10
-186.0592
 20
-73.740499999999997
 30
0.0
 10
-186.1952
 20
-73.74560000000001
 30
0.0
 10
-186.33100000000002
 20
-73.75030000000001
 30
0.0
 10
-186.46700000000001
 20
-73.753900000000002
 30
0.0
 10
-186.46700000000001
 20
-73.753900000000002
 30
0.0
 10
-190.5034
 20
-73.588999999999999
 30
0.0
 10
-194.48180000000002
 20
-72.724400000000003
 30
0.0
 10
-198.2226
 20
-71.19980000000001
 30
0.0
 10
-198.2226
 20
-71.19980000000001
 30
0.0
 10
-198.2226
 20
-71.19980000000001
 30
0.0
 10
-225.7672
 20
-113.72510000000001
 30
0.0
 10
-225.7672
 20
-113.72510000000001
 30
0.0
 10
-225.7672
 20
-113.72510000000001
 30
0.0
 10
-225.7672
 20
-113.72510000000001
 30
0.0
 10
-225.84990000000002
 20
-125.80730000000001
 30
0.0
 10
-225.84990000000002
 20
-125.80730000000001
 30
0.0
 10
-225.84990000000002
 20
-125.80730000000001
 30
0.0
 10
-225.876
 20
-129.89320000000001
 30
0.0
 10
-229.19660000000002
 20
-133.12630000000001
 30
0.0
 10
-233.2834
 20
-133.10079999999999
 30
0.0
 10
-233.2834
 20
-133.10079999999999
 30
0.0
 10
-233.2834
 20
-133.10079999999999
 30
0.0
 10
-241.68740000000003
 20
-133.10079999999999
 30
0.0
 10
-241.68740000000003
 20
-133.10079999999999
 30
0.0
 10
-241.68740000000003
 20
-133.10079999999999
 30
0.0
 10
-241.68740000000003
 20
-133.10079999999999
 30
0.0
 10
-242.85180000000003
 20
-130.05790000000002
 30
0.0
 10
-242.85180000000003
 20
-130.05790000000002
 30
0.0
 10
-242.85180000000003
 20
-130.05790000000002
 30
0.0
 10
-242.85180000000003
 20
-130.05790000000002
 30
0.0
 10
-253.58790000000002
 20
-130.05790000000002
 30
0.0
 10
-253.58790000000002
 20
-130.05790000000002
 30
0.0
 10
-253.58790000000002
 20
-130.05790000000002
 30
0.0
 10
-255.4957
 20
-130.1782
 30
0.0
 10
-257.14699999999999
 20
-128.83510000000001
 30
0.0
 10
-257.46640000000002
 20
-126.9509
 30
0.0
 10
-257.46640000000002
 20
-126.9509
 30
0.0
 10
-257.46640000000002
 20
-126.9509
 30
0.0
 10
-257.46640000000002
 20
-125.27000000000001
 30
0.0
 10
-257.46640000000002
 20
-125.27000000000001
 30
0.0
 10
-257.46640000000002
 20
-125.27000000000001
 30
0.0
 10
-257.46640000000002
 20
-125.27000000000001
 30
0.0
 10
-246.09140000000002
 20
-125.2899
 30
0.0
 10
-246.09140000000002
 20
-125.2899
 30
0.0
 10
-246.09140000000002
 20
-125.2899
 30
0.0
 10
-245.5608
 20
-125.29320000000001
 30
0.0
 10
-245.0505
 20
-125.08580000000001
 30
0.0
 10
-244.6729
 20
-124.7132
 30
0.0
 10
-244.6729
 20
-124.7132
 30
0.0
 10
-244.2955
 20
-124.3404
 30
0.0
 10
-244.0813
 20
-123.8733
 30
0.0
 10
-244.078
 20
-123.34280000000001
 30
0.0
 10
-244.078
 20
-123.34280000000001
 30
0.0
 10
-244.07480000000001
 20
-122.81230000000001
 30
0.0
 10
-244.28230000000002
 20
-122.3023
 30
0.0
 10
-244.655
 20
-121.9248
 30
0.0
 10
-244.655
 20
-121.9248
 30
0.0
 10
-245.02800000000002
 20
-121.5472
 30
0.0
 10
-245.51940000000002
 20
-121.2835
 30
0.0
 10
-246.04990000000001
 20
-121.2801
 30
0.0
 10
-246.04990000000001
 20
-121.2801
 30
0.0
 10
-246.04990000000001
 20
-121.2801
 30
0.0
 10
-257.46640000000002
 20
-121.2801
 30
0.0
 10
-257.46640000000002
 20
-121.2801
 30
0.0
 10
-257.46640000000002
 20
-121.2801
 30
0.0
 10
-257.46640000000002
 20
-121.2801
 30
0.0
 10
-257.46640000000002
 20
-119.54660000000001
 30
0.0
 10
-257.46640000000002
 20
-119.54660000000001
 30
0.0
 10
-257.46640000000002
 20
-119.54660000000001
 30
0.0
 10
-257.1241
 20
-117.6661
 30
0.0
 10
-255.40120000000002
 20
-116.35050000000001
 30
0.0
 10
-253.495
 20
-116.49520000000001
 30
0.0
 10
-253.495
 20
-116.49520000000001
 30
0.0
 10
-253.495
 20
-116.49520000000001
 30
0.0
 10
-242.7278
 20
-116.49520000000001
 30
0.0
 10
-242.7278
 20
-116.49520000000001
 30
0.0
 10
-242.7278
 20
-116.49520000000001
 30
0.0
 10
-242.7278
 20
-116.49520000000001
 30
0.0
 10
-241.55240000000001
 20
-113.6169
 30
0.0
 10
-241.55240000000001
 20
-113.6169
 30
0.0
 10
-241.55240000000001
 20
-113.6169
 30
0.0
 10
-241.55240000000001
 20
-113.6169
 30
0.0
 10
-239.08670000000001
 20
-113.6169
 30
0.0
 10
-239.08670000000001
 20
-113.6169
 30
0.0
 10
-239.08670000000001
 20
-113.6169
 30
0.0
 10
-239.08670000000001
 20
-113.6169
 30
0.0
 10
-215.822
 20
-66.83420000000001
 30
0.0
 10
-215.822
 20
-66.83420000000001
 30
0.0
 10
-215.822
 20
-66.83420000000001
 30
0.0
 10
-218.2886
 20
-54.559400000000004
 30
0.0
 10
-219.3749
 20
-41.6706
 30
0.0
 10
-219.4657
 20
-29.151
 30
0.0
 10
-219.4657
 20
-29.151
 30
0.0
 10
-217.15210000000002
 20
-26.013000000000002
 30
0.0
 10
-214.35300000000001
 20
-23.262
 30
0.0
 10
-211.1754
 20
-21.002700000000001
 30
0.0
  0
SPLINE
  5
38
100
AcDbEntity
  8
0
370
     5
 62
     1
100
AcDbSpline
210
0.0
220
0.0
230
1.0
 70
     1
 71
     3
 72
   132
 73
   128
 74
     0
 42
0.0000000001
 43
0.0000000001
 40
0.0
 40
0.0
 40
0.0
 40
0.0
 40
0.03125
 40
0.03125
 40
0.03125
 40
0.03125
 40
0.0625
 40
0.0625
 40
0.0625
 40
0.0625
 40
0.09375
 40
0.09375
 40
0.09375
 40
0.09375
 40
0.125
 40
0.125
 40
0.125
 40
0.125
 40
0.15625
 40
0.15625
 40
0.15625
 40
0.15625
 40
0.1875
 40
0.1875
 40
0.1875
 40
0.1875
 40
0.21875
 40
0.21875
 40
0.21875
 40
0.21875
 40
0.25
 40
0.25
 40
0.25
 40
0.25
 40
0.28125
 40
0.28125
 40
0.28125
 40
0.28125
 40
0.3125
 40
0.3125
 40
0.3125
 40
0.3125
 40
0.34375
 40
0.34375
 40
0.34375
 40
0.34375
 40
0.375
 40
0.375
 40
0.375
 40
0.375
 40
0.40625
 40
0.40625
 40
0.40625
 40
0.40625
 40
0.4375
 40
0.4375
 40
0.4375
 40
0.4375
 40
0.46875
 40
0.46875
 40
0.46875
 40
0.46875
 40
0.5
 40
0.5
 40
0.5
 40
0.5
 40
0.53125
 40
0.53125
 40
0.53125
 40
0.53125
 40
0.5625
 40
0.5625
 40
0.5625
 40
0.5625
 40
0.59375
 40
0.59375
 40
0.59375
 40
0.59375
 40
0.625
 40
0.625
 40
0.625
 40
0.625
 40
0.65625
 40
0.65625
 40
0.65625
 40
0.65625
 40
0.6875
 40
0.6875
 40
0.6875
 40
0.6875
 40
0.71875
 40
0.71875
 40
0.71875
 40
0.71875
 40
0.75
 40
0.75
 40
0.75
 40
0.75
 40
0.78125
 40
0.78125
 40
0.78125
 40
0.78125
 40
0.8125
 40
0.8125
 40
0.8125
 40
0.8125
 40
0.84375
 40
0.84375
 40
0.84375
 40
0.84375
 40
0.875
 40
0.875
 40
0.875
 40
0.875
 40
0.90625
 40
0.90625
 40
0.90625
 40
0.90625
 40
0.9375
 40
0.9375
 40
0.9375
 40
0.9375
 40
0.96875
 40
0.96875
 40
0.96875
 40
0.96875
 40
1.0
 40
1.0
 40
1.0
 40
1.0
 10
-89.327600000000004
 20
-113.5215
 30
0.0
 10
-89.327600000000004
 20
-113.5215
 30
0.0
 10
-89.29440000000001
 20
-113.5296
 30
0.0
 10
-89.29440000000001
 20
-113.5296
 30
0.0
 10
-89.29440000000001
 20
-113.5296
 30
0.0
 10
-89.29440000000001
 20
-113.5296
 30
0.0
 10
-89.067700000000002
 20
-113.5296
 30
0.0
 10
-89.067700000000002
 20
-113.5296
 30
0.0
 10
-89.067700000000002
 20
-113.5296
 30
0.0
 10
-89.067700000000002
 20
-113.5296
 30
0.0
 10
144.48230000000001
 20
-113.5296
 30
0.0
 10
144.48230000000001
 20
-113.5296
 30
0.0
 10
144.48230000000001
 20
-113.5296
 30
0.0
 10
144.48230000000001
 20
-113.5296
 30
0.0
 10
144.4933
 20
-113.5296
 30
0.0
 10
144.4933
 20
-113.5296
 30
0.0
 10
144.4933
 20
-113.5296
 30
0.0
 10
153.27540000000002
 20
-113.3203
 30
0.0
 10
161.5727
 20
-109.63290000000001
 30
0.0
 10
167.63480000000001
 20
-103.2765
 30
0.0
 10
167.63480000000001
 20
-103.2765
 30
0.0
 10
173.69660000000002
 20
-96.920100000000005
 30
0.0
 10
176.9845
 20
-88.41640000000001
 30
0.0
 10
176.77520000000001
 20
-79.636400000000009
 30
0.0
 10
176.77520000000001
 20
-79.636400000000009
 30
0.0
 10
176.56610000000001
 20
-70.856099999999998
 30
0.0
 10
172.87780000000001
 20
-62.560600000000001
 30
0.0
 10
166.51990000000001
 20
-56.500100000000003
 30
0.0
 10
166.51990000000001
 20
-56.500100000000003
 30
0.0
 10
156.2619
 20
-46.721600000000002
 30
0.0
 10
144.38240000000002
 20
-47.401500000000006
 30
0.0
 10
131.80549999999999
 20
-47.400300000000001
 30
0.0
 10
131.80549999999999
 20
-47.400300000000001
 30
0.0
 10
131.41240000000002
 20
-47.400000000000006
 30
0.0
 10
131.03710000000001
 20
-47.555800000000005
 30
0.0
 10
130.75910000000002
 20
-47.833500000000001
 30
0.0
 10
130.75910000000002
 20
-47.833500000000001
 30
0.0
 10
130.48099999999999
 20
-48.1111
 30
0.0
 10
130.3245
 20
-48.487900000000003
 30
0.0
 10
130.32429999999999
 20
-48.880900000000004
 30
0.0
 10
130.32429999999999
 20
-48.880900000000004
 30
0.0
 10
130.32429999999999
 20
-48.880900000000004
 30
0.0
 10
130.31950000000001
 20
-77.71390000000001
 30
0.0
 10
130.31950000000001
 20
-77.71390000000001
 30
0.0
 10
130.31950000000001
 20
-77.71390000000001
 30
0.0
 10
130.31950000000001
 20
-77.71390000000001
 30
0.0
 10
126.31950000000001
 20
-77.713300000000004
 30
0.0
 10
126.31950000000001
 20
-77.713300000000004
 30
0.0
 10
126.31950000000001
 20
-77.713300000000004
 30
0.0
 10
126.31950000000001
 20
-77.713300000000004
 30
0.0
 10
126.32440000000001
 20
-48.880300000000005
 30
0.0
 10
126.32440000000001
 20
-48.880300000000005
 30
0.0
 10
126.32440000000001
 20
-48.880300000000005
 30
0.0
 10
126.3246
 20
-48.487400000000001
 30
0.0
 10
126.1688
 20
-48.112100000000005
 30
0.0
 10
125.89110000000001
 20
-47.834099999999999
 30
0.0
 10
125.89110000000001
 20
-47.834099999999999
 30
0.0
 10
125.61340000000001
 20
-47.556000000000004
 30
0.0
 10
125.23650000000001
 20
-47.3996
 30
0.0
 10
124.84360000000001
 20
-47.399300000000004
 30
0.0
 10
124.84360000000001
 20
-47.399300000000004
 30
0.0
 10
50.134800000000006
 20
-47.387900000000002
 30
0.0
 10
128.9188
 20
-47.400000000000006
 30
0.0
 10
52.8277
 20
-47.388200000000005
 30
0.0
 10
52.8277
 20
-47.388200000000005
 30
0.0
 10
52.037500000000001
 20
-47.386800000000001
 30
0.0
 10
51.386800000000001
 20
-48.005500000000005
 30
0.0
 10
51.3461
 20
-48.794499999999999
 30
0.0
 10
51.3461
 20
-48.794499999999999
 30
0.0
 10
49.995800000000003
 20
-61.340400000000002
 30
0.0
 10
40.196800000000003
 20
-73.200900000000004
 30
0.0
 10
27.593800000000002
 20
-72.523899999999998
 30
0.0
 10
27.593800000000002
 20
-72.523899999999998
 30
0.0
 10
14.9909
 20
-73.200900000000004
 30
0.0
 10
5.1919000000000004
 20
-61.340400000000002
 30
0.0
 10
3.8415000000000004
 20
-48.794499999999999
 30
0.0
 10
3.8415000000000004
 20
-48.794499999999999
 30
0.0
 10
3.8009000000000004
 20
-48.005500000000005
 30
0.0
 10
3.1502000000000003
 20
-47.386800000000001
 30
0.0
 10
2.3597999999999999
 20
-47.388200000000005
 30
0.0
 10
2.3597999999999999
 20
-47.388200000000005
 30
0.0
 10
-62.424300000000002
 20
-47.397800000000004
 30
0.0
 10
-6.1148000000000007
 20
-47.389800000000001
 30
0.0
 10
-69.656000000000006
 20
-47.399300000000004
 30
0.0
 10
-69.656000000000006
 20
-47.399300000000004
 30
0.0
 10
-70.0488
 20
-47.3996
 30
0.0
 10
-70.425600000000003
 20
-47.556000000000004
 30
0.0
 10
-70.70320000000001
 20
-47.834099999999999
 30
0.0
 10
-70.70320000000001
 20
-47.834099999999999
 30
0.0
 10
-70.980900000000005
 20
-48.112100000000005
 30
0.0
 10
-71.136899999999997
 20
-48.487400000000001
 30
0.0
 10
-71.136499999999998
 20
-48.880300000000005
 30
0.0
 10
-71.136499999999998
 20
-48.880300000000005
 30
0.0
 10
-71.136499999999998
 20
-48.880300000000005
 30
0.0
 10
-71.132000000000005
 20
-77.713300000000004
 30
0.0
 10
-71.132000000000005
 20
-77.713300000000004
 30
0.0
 10
-71.132000000000005
 20
-77.713300000000004
 30
0.0
 10
-71.132000000000005
 20
-77.713300000000004
 30
0.0
 10
-75.131900000000002
 20
-77.713300000000004
 30
0.0
 10
-75.131900000000002
 20
-77.713300000000004
 30
0.0
 10
-75.131900000000002
 20
-77.713300000000004
 30
0.0
 10
-75.131900000000002
 20
-77.713300000000004
 30
0.0
 10
-75.136499999999998
 20
-48.880900000000004
 30
0.0
 10
-75.136499999999998
 20
-48.880900000000004
 30
0.0
 10
-75.136499999999998
 20
-48.880900000000004
 30
0.0
 10
-75.136899999999997
 20
-48.487900000000003
 30
0.0
 10
-75.293199999999999
 20
-48.1111
 30
0.0
 10
-75.571200000000005
 20
-47.833500000000001
 30
0.0
 10
-75.571200000000005
 20
-47.833500000000001
 30
0.0
 10
-75.849500000000006
 20
-47.555800000000005
 30
0.0
 10
-76.224500000000006
 20
-47.400000000000006
 30
0.0
 10
-76.61760000000001
 20
-47.400300000000001
 30
0.0
 10
-76.61760000000001
 20
-47.400300000000001
 30
0.0
 10
-89.118000000000009
 20
-47.401700000000005
 30
0.0
 10
-100.899
 20
-46.781400000000005
 30
0.0
 10
-111.09440000000001
 20
-56.500100000000003
 30
0.0
 10
-111.09440000000001
 20
-56.500100000000003
 30
0.0
 10
-117.45230000000001
 20
-62.560600000000001
 30
0.0
 10
-121.14060000000001
 20
-70.856099999999998
 30
0.0
 10
-121.34970000000001
 20
-79.636400000000009
 30
0.0
 10
-121.34970000000001
 20
-79.636400000000009
 30
0.0
 10
-121.55900000000001
 20
-88.41640000000001
 30
0.0
 10
-118.271
 20
-96.920100000000005
 30
0.0
 10
-112.2093
 20
-103.2765
 30
0.0
 10
-112.2093
 20
-103.2765
 30
0.0
 10
-106.20700000000001
 20
-109.57000000000001
 30
0.0
 10
-98.013400000000004
 20
-113.24650000000001
 30
0.0
 10
-89.327600000000004
 20
-113.5215
 30
0.0
  0
ENDSEC
  0
SECTION
  2
OBJECTS
  0
DICTIONARY
  5
19
100
AcDbDictionary
280
     0
281
     1
  3
ACAD_GROUP
350
1A
  3
ACAD_MLINESTYLE
350
1B
  3
ACAD_LAYOUT
350
1E
  3
ACAD_PLOTSETTINGS
350
22
  3
ACAD_PLOTSTYLENAME
350
1F
  3
ACAD_WIPEOUT_VARS
350
23
  0
DICTIONARY
  5
1A
102
{ACAD_REACTORS
330
19
102
}
100
AcDbDictionary
280
     0
281
     1
  0
DICTIONARY
  5
1B
102
{ACAD_REACTORS
330
19
102
}
100
AcDbDictionary
280
     0
281
     1
  3
Standard
350
1C
  0
MLINESTYLE
  5
1C
102
{ACAD_REACTORS
330
1B
102
}
100
AcDbMlineStyle
  2
Standard
 70
     0
  3

 62
     0
 51
90.0
 52
90.0
 71
     2
 49
0.5
 62
   256
  6
BYLAYER
 49
-0.5
 62
   256
  6
BYLAYER
  0
ACDBDICTIONARYWDFLT
  5
1F
102
{ACAD_REACTORS
330
19
102
}
100
AcDbDictionary
281
     1
  3
Normal
350
1D
100
AcDbDictionaryWithDefault
340
1D
  0
ACDBPLACEHOLDER
  5
1D
102
{ACAD_REACTORS
330
1F
102
}
  0
LAYOUT
  5
20
102
{ACAD_REACTORS
330
1E
102
}
100
AcDbPlotSettings
  1

  2

  4

  6

 40
0.0
 41
0.0
 42
0.0
 43
0.0
 44
0.0
 45
0.0
 46
0.0
 47
0.0
 48
0.0
 49
0.0
140
0.0
141
0.0
142
1.0
143
1.0
 70
  1024
 72
     0
 73
     0
 74
     0
  7

 75
     0
147
1.0
148
0.0
149
0.0
100
AcDbLayout
  1
Model
 70
     0
 71
     0
 10
0.0
 20
0.0
 11
0.0
 21
0.0
 12
0.0
 22
0.0
 32
0.0
 14
0.0
 24
0.0
 34
0.0
 15
0.0
 25
0.0
 35
0.0
146
0.0
 13
0.0
 23
0.0
 33
0.0
 16
0.0
 26
0.0
 36
0.0
 17
0.0
 27
0.0
 37
0.0
 76
     0
330
A
331
0
345
0
346
0
  0
LAYOUT
  5
21
102
{ACAD_REACTORS
330
1E
102
}
100
AcDbPlotSettings
  1

  2

  4

  6

 40
0.0
 41
0.0
 42
0.0
 43
0.0
 44
0.0
 45
0.0
 46
0.0
 47
0.0
 48
0.0
 49
0.0
140
0.0
141
0.0
142
1.0
143
1.0
 70
     0
 72
     0
 73
     0
 74
     0
  7

 75
     0
147
1.0
148
0.0
149
0.0
100
AcDbLayout
  1
Layout1
 70
     0
 71
     0
 10
0.0
 20
0.0
 11
0.0
 21
0.0
 12
0.0
 22
0.0
 32
0.0
 14
0.0
 24
0.0
 34
0.0
 15
0.0
 25
0.0
 35
0.0
146
0.0
 13
0.0
 23
0.0
 33
0.0
 16
0.0
 26
0.0
 36
0.0
 17
0.0
 27
0.0
 37
0.0
 76
     0
330
B
331
0
345
0
346
0
  0
DICTIONARY
  5
1E
102
{ACAD_REACTORS
330
19
102
}
100
AcDbDictionary
280
     0
281
     1
  3
Layout1
350
21
  3
Model
350
20
  0
DICTIONARY
  5
22
102
{ACAD_REACTORS
330
19
102
}
100
AcDbDictionary
280
     0
281
     1
  0
WIPEOUTVARIABLES
  5
23
100
AcDbWipeoutVariables
 70
     1
  0
ENDSEC
  0
EOF
