  0
SECTION
  2
HEADER
  9
$ACADVER
  1
AC1015
  9
$ACADMAINTVER
 70
     6
  9
$DWGCODEPAGE
  3
DOS850
  9
$INSBASE
 10
0.0
 20
0.0
 30
0.0
  9
$EXTMIN
 10
-140.0172
 20
-119.1816
 30
1.000000E+20
  9
$EXTMAX
 10
116.205
 20
140.0174
 30
-1.000000E+20
  9
$LIMMIN
 10
0.0
 20
0.0
  9
$LIMMAX
 10
0.0
 20
0.0
  9
$ORTHOMODE
 70
     0
  9
$REGENMODE
 70
     1
  9
$FILLMODE
 70
     1
  9
$QTEXTMODE
 70
     0
  9
$MIRRTEXT
 70
     1
  9
$LTSCALE
 40
1.0
  9
$ATTMODE
 70
     1
  9
$TEXTSIZE
 40
0.2
  9
$TRACEWID
 40
0.05
  9
$TEXTSTYLE
  7
Standard
  9
$CLAYER
  8
0
  9
$CELTYPE
  6
Continuous
  9
$CECOLOR
 62
   256
  9
$CELTSCALE
 40
1.0
  9
$DISPSILH
 70
     0
  9
$DIMSCALE
 40
1.0
  9
$DIMASZ
 40
0.18
  9
$DIMEXO
 40
0.0625
  9
$DIMDLI
 40
0.38
  9
$DIMRND
 40
0.0
  9
$DIMDLE
 40
0.0
  9
$DIMEXE
 40
0.18
  9
$DIMTP
 40
0.0
  9
$DIMTM
 40
0.0
  9
$DIMTXT
 40
0.18
  9
$DIMCEN
 40
0.09
  9
$DIMTSZ
 40
0.0
  9
$DIMTOL
 70
     0
  9
$DIMLIM
 70
     0
  9
$DIMTIH
 70
     1
  9
$DIMTOH
 70
     1
  9
$DIMSE1
 70
     0
  9
$DIMSE2
 70
     0
  9
$DIMTAD
 70
     0
  9
$DIMZIN
 70
     0
  9
$DIMBLK
  1

  9
$DIMASO
 70
     1
  9
$DIMSHO
 70
     1
  9
$DIMPOST
  1

  9
$DIMAPOST
  1

  9
$DIMALT
 70
     0
  9
$DIMALTD
 70
     2
  9
$DIMALTF
 40
25.4
  9
$DIMLFAC
 40
1.0
  9
$DIMTOFL
 70
     0
  9
$DIMTVP
 40
0.0
  9
$DIMTIX
 70
     0
  9
$DIMSOXD
 70
     0
  9
$DIMSAH
 70
     0
  9
$DIMBLK1
  1

  9
$DIMBLK2
  1

  9
$DIMSTYLE
  2
Standard
  9
$DIMCLRD
 70
     0
  9
$DIMCLRE
 70
     0
  9
$DIMCLRT
 70
     0
  9
$DIMTFAC
 40
1.0
  9
$DIMGAP
 40
0.09
  9
$DIMJUST
 70
     0
  9
$DIMSD1
 70
     0
  9
$DIMSD2
 70
     0
  9
$DIMTOLJ
 70
     1
  9
$DIMTZIN
 70
     0
  9
$DIMALTZ
 70
     0
  9
$DIMALTTZ
 70
     0
  9
$DIMUPT
 70
     0
  9
$DIMDEC
 70
     4
  9
$DIMTDEC
 70
     4
  9
$DIMALTU
 70
     2
  9
$DIMALTTD
 70
     2
  9
$DIMTXSTY
  7
Standard
  9
$DIMAUNIT
 70
     0
  9
$DIMADEC
 70
     0
  9
$DIMALTRND
 40
0.0
  9
$DIMAZIN
 70
     0
  9
$DIMDSEP
 70
     0
  9
$DIMATFIT
 70
     3
  9
$DIMFRAC
 70
     0
  9
$DIMLDRBLK
  1

  9
$DIMLUNIT
 70
     2
  9
$DIMLWD
 70
     0
  9
$DIMLWE
 70
     0
  9
$DIMTMOVE
 70
     0
  9
$LUNITS
 70
     2
  9
$LUPREC
 70
     4
  9
$SKETCHINC
 40
0.1
  9
$FILLETRAD
 40
0.0
  9
$AUNITS
 70
     0
  9
$AUPREC
 70
     0
  9
$MENU
  1
acad
  9
$ELEVATION
 40
0.0
  9
$PELEVATION
 40
0.0
  9
$THICKNESS
 40
0.0
  9
$LIMCHECK
 70
     0
  9
$CHAMFERA
 40
0.0
  9
$CHAMFERB
 40
0.0
  9
$CHAMFERC
 40
0.0
  9
$CHAMFERD
 40
0.0
  9
$SKPOLY
 70
     0
  9
$TDCREATE
 40
0.000000000
  9
$TDUCREATE
 40
0.000000000
  9
$TDUPDATE
 40
0.000000000
  9
$TDUUPDATE
 40
0.000000000
  9
$TDINDWG
 40
0.0000000000
  9
$TDUSRTIMER
 40
0.0000000000
  9
$USRTIMER
 70
     1
  9
$ANGBASE
 50
0.0
  9
$ANGDIR
 70
     0
  9
$PDMODE
 70
     0
  9
$PDSIZE
 40
0.0
  9
$PLINEWID
 40
0.0
  9
$SPLFRAME
 70
     0
  9
$SPLINETYPE
 70
     6
  9
$SPLINESEGS
 70
     8
  9
$HANDSEED
  5
26A
  9
$SURFTAB1
 70
     6
  9
$SURFTAB2
 70
     6
  9
$SURFTYPE
 70
     6
  9
$SURFU
 70
     6
  9
$SURFV
 70
     6
  9
$UCSBASE
  2

  9
$UCSNAME
  2

  9
$UCSORG
 10
0.0
 20
0.0
 30
0.0
  9
$UCSXDIR
 10
1.0
 20
0.0
 30
0.0
  9
$UCSYDIR
 10
0.0
 20
1.0
 30
0.0
  9
$UCSORTHOREF
  2

  9
$UCSORTHOVIEW
 70
     0
  9
$UCSORGTOP
 10
0.0
 20
0.0
 30
0.0
  9
$UCSORGBOTTOM
 10
0.0
 20
0.0
 30
0.0
  9
$UCSORGLEFT
 10
0.0
 20
0.0
 30
0.0
  9
$UCSORGRIGHT
 10
0.0
 20
0.0
 30
0.0
  9
$UCSORGFRONT
 10
0.0
 20
0.0
 30
0.0
  9
$UCSORGBACK
 10
0.0
 20
0.0
 30
0.0
  9
$PUCSBASE
  2

  9
$PUCSNAME
  2

  9
$PUCSORG
 10
0.0
 20
0.0
 30
0.0
  9
$PUCSXDIR
 10
1.0
 20
0.0
 30
0.0
  9
$PUCSYDIR
 10
0.0
 20
1.0
 30
0.0
  9
$PUCSORTHOREF
  2

  9
$PUCSORTHOVIEW
 70
     0
  9
$PUCSORGTOP
 10
0.0
 20
0.0
 30
0.0
  9
$PUCSORGBOTTOM
 10
0.0
 20
0.0
 30
0.0
  9
$PUCSORGLEFT
 10
0.0
 20
0.0
 30
0.0
  9
$PUCSORGRIGHT
 10
0.0
 20
0.0
 30
0.0
  9
$PUCSORGFRONT
 10
0.0
 20
0.0
 30
0.0
  9
$PUCSORGBACK
 10
0.0
 20
0.0
 30
0.0
  9
$USERI1
 70
     0
  9
$USERI2
 70
     0
  9
$USERI3
 70
     0
  9
$USERI4
 70
     0
  9
$USERI5
 70
     0
  9
$USERR1
 40
0.0
  9
$USERR2
 40
0.0
  9
$USERR3
 40
0.0
  9
$USERR4
 40
0.0
  9
$USERR5
 40
0.0
  9
$WORLDVIEW
 70
     1
  9
$SHADEDGE
 70
     3
  9
$SHADEDIF
 70
    70
  9
$TILEMODE
 70
     1
  9
$MAXACTVP
 70
    16
  9
$PINSBASE
 10
0.0
 20
0.0
 30
0.0
  9
$PLIMCHECK
 70
     0
  9
$PEXTMIN
 10
1.000000E+20
 20
1.000000E+20
 30
1.000000E+20
  9
$PEXTMAX
 10
-1.000000E+20
 20
-1.000000E+20
 30
-1.000000E+20
  9
$PLIMMIN
 10
0.0
 20
0.0
  9
$PLIMMAX
 10
12.0
 20
9.0
  9
$UNITMODE
 70
     0
  9
$VISRETAIN
 70
     0
  9
$PLINEGEN
 70
     1
  9
$PSLTSCALE
 70
     0
  9
$TREEDEPTH
 70
  3020
  9
$CMLSTYLE
  2
Standard
  9
$CMLJUST
 70
     0
  9
$CMLSCALE
 40
1.0
  9
$PROXYGRAPHICS
 70
     0
  9
$MEASUREMENT
 70
     0
  9
$CELWEIGHT
370
     0
  9
$ENDCAPS
280
     0
  9
$JOINSTYLE
280
     0
  9
$LWDISPLAY
290
     0
  9
$INSUNITS
 70
     4
  9
$HYPERLINKBASE
  1

  9
$XEDIT
290
     1
  9
$CEPSNTYPE
380
     0
  9
$PSTYLEMODE
290
     1
  9
$FINGERPRINTGUID
  2

  9
$VERSIONGUID
  2

  9
$EXTNAMES
290
     1
  9
$PSVPSCALE
 40
0.0
  0
ENDSEC
  0
SECTION
  2
CLASSES
  0
CLASS
  1
LWPOLYLINE
  2
AcDbPolyline
  3
AutoCAD 2000
 90
    32768
280
     0
281
     1
  0
CLASS
  1
IMAGE
  2
AcDbRasterImage
  3
ISM
 90
    32895
280
     0
281
     1
  0
CLASS
  1
OLE2FRAME
  2
AcDbOle2Frame
  3
AutoCAD 2000
 90
    32768
280
     0
281
     1
  0
CLASS
  1
HATCH
  2
AcDbHatch
  3
AutoCAD 2000
 90
    32768
280
     0
281
     1
  0
CLASS
  1
DICTIONARYVAR
  2
AcDbDictionaryVar
  3
AutoCAD 2000
 90
    32768
280
     0
281
     0
  0
CLASS
  1
RASTERVARIABLES
  2
AcDbRasterVariables
  3
ISM
 90
    32768
280
     0
281
     0
  0
CLASS
  1
IMAGEDEF
  2
AcDbRasterImageDef
  3
ISM
 90
    32768
280
     0
281
     0
  0
CLASS
  1
IMAGEDEF_REACTOR
  2
AcDbRasterImageDefReactor
  3
ISM
 90
    32769
280
     0
281
     0
  0
CLASS
  1
IDBUFFER
  2
AcDbIdBuffer
  3
AutoCAD 2000
 90
    32768
280
     0
281
     0
  0
CLASS
  1
SPATIAL_FILTER
  2
AcDbSpatialFilter
  3
AutoCAD 2000
 90
    32768
280
     0
281
     0
  0
CLASS
  1
XRECORD
  2
AcDbXrecord
  3
AutoCAD 2000
 90
    32768
280
     0
281
     0
  0
CLASS
  1
SORTENTSTABLE
  2
AcDbSortentsTable
  3
AutoCAD 2000
 90
    32768
280
     0
281
     0
  0
CLASS
  1
LAYER_INDEX
  2
AcDbLayerIndex
  3
AutoCAD 2000
 90
    32768
280
     0
281
     0
  0
CLASS
  1
SPATIAL_INDEX
  2
AcDbSpatialIndex
  3
AutoCAD 2000
 90
    32768
280
     0
281
     0
  0
CLASS
  1
OBJECT_PTR
  2
CAseDLPNTableRecord
  3
"ASE-LPNTableRecord"
 90
    32769
280
     0
281
     0
  0
CLASS
  1
LAYOUT
  2
AcDbLayout
  3
AutoCAD 2000
 90
        0
280
     0
281
     0
  0
CLASS
  1
PLOTSETTINGS
  2
AcDbPlotSettings
  3
AutoCAD 2000
 90
    32768
280
     0
281
     0
  0
CLASS
  1
ACDBDICTIONARYWDFLT
  2
AcDbDictionaryWithDefault
  3
AutoCAD 2000
 90
        0
280
     0
281
     0
  0
CLASS
  1
ACDBPLACEHOLDER
  2
AcDbPlaceHolder
  3
AutoCAD 2000
 90
        0
280
     0
281
     0
  0
CLASS
  1
VBA_PROJECT
  2
AcDbVbaProject
  3
acadvba
 90
    32768
280
     0
281
     0
  0
CLASS
  1
WIPEOUT
  2
AcDbWipeout
  3
WipeOut|AutoCAD Express Tool|expresstools@autodesk.com
 90
    32895
280
     0
281
     1
  0
CLASS
  1
WIPEOUTVARIABLES
  2
AcDbWipeoutVariables
  3
WipeOut|AutoCAD Express Tool|expresstools@autodesk.com
 90
        0
280
     0
281
     0
  0
CLASS
  1
RTEXT
  2
RText
  3
RText|AutoCAD Express Tool|expresstools@autodesk.com
 90
    32768
280
     0
281
     1
  0
CLASS
  1
ARCALIGNEDTEXT
  2
AcDbArcAlignedText
  3
ATEXT|AutoCAD Express Tool|expresstools@autodesk.com
 90
    32768
280
     0
281
     1
  0
ENDSEC
  0
SECTION
  2
TABLES
  0
TABLE
  2
VPORT
  5
7
100
AcDbSymbolTable
 70
     1
  0
VPORT
  5
15
100
AcDbSymbolTableRecord
100
AcDbViewportTableRecord
  2
*ACTIVE
 70
     0
 10
0.0
 20
0.0
 11
1.0
 21
1.0
 12
6.591288
 22
4.579184
 13
0.0
 23
0.0
 14
1.0
 24
1.0
 15
0.0
 25
0.0
 16
0.0
 26
0.0
 36
1.0
 17
0.0
 27
0.0
 37
0.0
 40
9.158369
 41
0.688564
 42
50.0
 43
0.0
 44
0.0
 50
0.0
 51
0.0
 71
     0
 72
   100
 73
     1
 74
     1
 75
     0
 76
     0
 77
     0
 78
     0
281
     0
 65
     0
110
0.0
120
0.0
130
0.0
111
1.0
121
0.0
131
0.0
112
0.0
122
1.0
132
0.0
345
0
346
0
 79
     0
146
0.0
  0
ENDTAB
  0
TABLE
  2
LTYPE
  5
4
100
AcDbSymbolTable
 70
     3
  0
LTYPE
  5
11
100
AcDbSymbolTableRecord
100
AcDbLinetypeTableRecord
  2
ByBlock
 70
    64
  3

 72
    65
 73
     0
 40
0.0
  0
LTYPE
  5
12
100
AcDbSymbolTableRecord
100
AcDbLinetypeTableRecord
  2
ByLayer
 70
    64
  3

 72
    65
 73
     0
 40
0.0
  0
LTYPE
  5
13
100
AcDbSymbolTableRecord
100
AcDbLinetypeTableRecord
  2
Continuous
 70
    64
  3
Solid line
 72
    65
 73
     0
 40
0.0
  0
ENDTAB
  0
TABLE
  2
LAYER
  5
2
100
AcDbSymbolTable
 70
     2
  0
LAYER
  5
14
100
AcDbSymbolTableRecord
100
AcDbLayerTableRecord
  2
0
 70
     0
 62
     7
  6
Continuous
290
     1
370
    -3
390
1D
  0
LAYER
  5
24
100
AcDbSymbolTableRecord
100
AcDbLayerTableRecord
  2
Layer 1
 70
     0
 62
     7
  6
Continuous
290
     1
370
    -3
390
1F
  0
ENDTAB
  0
TABLE
  2
STYLE
  5
3
100
AcDbSymbolTable
 70
     1
  0
STYLE
  5
17
100
AcDbSymbolTableRecord
100
AcDbTextStyleTableRecord
  2
Standard
 70
     0
 40
0.0
 41
1.0
 50
0.0
 71
     0
 42
0.0
  3
txt
  4

  0
ENDTAB
  0
TABLE
  2
VIEW
  5
5
100
AcDbSymbolTable
 70
     0
  0
ENDTAB
  0
TABLE
  2
UCS
  5
6
100
AcDbSymbolTable
 70
     0
  0
ENDTAB
  0
TABLE
  2
APPID
  5
8
100
AcDbSymbolTable
 70
     1
  0
APPID
  5
16
100
AcDbSymbolTableRecord
100
AcDbRegAppTableRecord
  2
ACAD
 70
     0
  0
ENDTAB
  0
TABLE
  2
DIMSTYLE
  5
9
100
AcDbSymbolTable
 70
     1
100
AcDbDimStyleTable
 71
     0
  0
DIMSTYLE
105
18
100
AcDbSymbolTableRecord
100
AcDbDimStyleTableRecord
  2
Standard
 70
     0
  3

  4

 40
1.0
 41
0.18
 42
0.0625
 43
0.38
 44
0.18
 45
0.0
 46
0.0
 47
0.0
 48
0.0
 71
     0
 72
     0
 73
     1
 74
     1
 75
     0
 76
     0
 77
     0
 78
     0
 79
     0
140
0.18
141
0.09
142
0.0
143
25.4
144
1.0
145
0.0
146
1.0
147
0.09
148
0.0
170
     0
171
     2
172
     0
173
     0
174
     0
175
     0
176
     0
177
     0
178
     0
179
     0
271
     4
272
     4
273
     2
274
     2
275
     0
276
     0
277
     2
278
    46
279
     0
280
     0
281
     0
282
     0
283
     1
284
     0
285
     0
286
     0
288
     0
340
17
341
0
342
0
343
0
344
0
371
    -2
372
    -2
  0
ENDTAB
  0
TABLE
  2
BLOCK_RECORD
  5
1
100
AcDbSymbolTable
 70
     0
  0
BLOCK_RECORD
  5
A
100
AcDbSymbolTableRecord
100
AcDbBlockTableRecord
  2
*MODEL_SPACE
340
20
  0
BLOCK_RECORD
  5
B
100
AcDbSymbolTableRecord
100
AcDbBlockTableRecord
  2
*PAPER_SPACE
340
21
  0
ENDTAB
  0
ENDSEC
  0
SECTION
  2
BLOCKS
  0
BLOCK
  5
D
100
AcDbEntity
  8
0
100
AcDbBlockBegin
  2
*MODEL_SPACE
 70
     0
 10
0.0
 20
0.0
 30
0.0
  3
*MODEL_SPACE
  1

  0
ENDBLK
  5
E
100
AcDbEntity
  8
0
100
AcDbBlockEnd
  0
BLOCK
  5
F
100
AcDbEntity
 67
     1
  8
0
100
AcDbBlockBegin
  2
*PAPER_SPACE
 70
     0
 10
0.0
 20
0.0
 30
0.0
  3
*PAPER_SPACE
  1

  0
ENDBLK
  5
10
100
AcDbEntity
 67
     1
  8
0
100
AcDbBlockEnd
  0
ENDSEC
  0
SECTION
  2
ENTITIES
  0
SPLINE
  5
25
100
AcDbEntity
  8
Layer 1
370
    20
100
AcDbSpline
210
0.0
220
0.0
230
1.0
 70
     0
 71
     3
 72
     8
 73
     4
 74
     0
 42
0.0000000001
 43
0.0000000001
 40
0.0
 40
0.0
 40
0.0
 40
0.0
 40
1.0
 40
1.0
 40
1.0
 40
1.0
 10
20.825100000000003
 20
19.525400000000001
 30
0.0
 10
20.825100000000003
 20
19.525400000000001
 30
0.0
 10
18.212400000000002
 20
21.033900000000003
 30
0.0
 10
18.212400000000002
 20
21.033900000000003
 30
0.0
  0
SPLINE
  5
26
100
AcDbEntity
  8
Layer 1
370
    20
100
AcDbSpline
210
0.0
220
0.0
230
1.0
 70
     0
 71
     3
 72
     8
 73
     4
 74
     0
 42
0.0000000001
 43
0.0000000001
 40
0.0
 40
0.0
 40
0.0
 40
0.0
 40
1.0
 40
1.0
 40
1.0
 40
1.0
 10
18.212400000000002
 20
21.033900000000003
 30
0.0
 10
18.212400000000002
 20
21.033900000000003
 30
0.0
 10
4.8376999999999999
 20
39.310400000000001
 30
0.0
 10
4.8376999999999999
 20
39.310400000000001
 30
0.0
  0
SPLINE
  5
27
100
AcDbEntity
  8
Layer 1
370
    20
100
AcDbSpline
210
0.0
220
0.0
230
1.0
 70
     0
 71
     3
 72
     8
 73
     4
 74
     0
 42
0.0000000001
 43
0.0000000001
 40
0.0
 40
0.0
 40
0.0
 40
0.0
 40
1.0
 40
1.0
 40
1.0
 40
1.0
 10
4.8376999999999999
 20
39.310400000000001
 30
0.0
 10
4.8376999999999999
 20
39.310400000000001
 30
0.0
 10
4.0977000000000006
 20
40.375599999999999
 30
0.0
 10
4.0977000000000006
 20
40.375599999999999
 30
0.0
  0
SPLINE
  5
28
100
AcDbEntity
  8
Layer 1
370
    20
100
AcDbSpline
210
0.0
220
0.0
230
1.0
 70
     0
 71
     3
 72
     8
 73
     4
 74
     0
 42
0.0000000001
 43
0.0000000001
 40
0.0
 40
0.0
 40
0.0
 40
0.0
 40
1.0
 40
1.0
 40
1.0
 40
1.0
 10
4.0977000000000006
 20
40.375599999999999
 30
0.0
 10
4.0977000000000006
 20
40.375599999999999
 30
0.0
 10
3.7085000000000004
 20
40.090900000000005
 30
0.0
 10
3.7085000000000004
 20
40.090900000000005
 30
0.0
  0
SPLINE
  5
29
100
AcDbEntity
  8
Layer 1
370
    20
100
AcDbSpline
210
0.0
220
0.0
230
1.0
 70
     0
 71
     3
 72
     8
 73
     4
 74
     0
 42
0.0000000001
 43
0.0000000001
 40
0.0
 40
0.0
 40
0.0
 40
0.0
 40
1.0
 40
1.0
 40
1.0
 40
1.0
 10
3.7085000000000004
 20
40.090900000000005
 30
0.0
 10
3.7085000000000004
 20
40.090900000000005
 30
0.0
 10
2.6069
 20
39.664300000000004
 30
0.0
 10
2.6069
 20
39.664300000000004
 30
0.0
  0
SPLINE
  5
2A
100
AcDbEntity
  8
Layer 1
370
    20
100
AcDbSpline
210
0.0
220
0.0
230
1.0
 70
     0
 71
     3
 72
     8
 73
     4
 74
     0
 42
0.0000000001
 43
0.0000000001
 40
0.0
 40
0.0
 40
0.0
 40
0.0
 40
1.0
 40
1.0
 40
1.0
 40
1.0
 10
2.6069
 20
39.664300000000004
 30
0.0
 10
2.6069
 20
39.664300000000004
 30
0.0
 10
1.4324000000000001
 20
39.537199999999999
 30
0.0
 10
1.4324000000000001
 20
39.537199999999999
 30
0.0
  0
SPLINE
  5
2B
100
AcDbEntity
  8
Layer 1
370
    20
100
AcDbSpline
210
0.0
220
0.0
230
1.0
 70
     0
 71
     3
 72
     8
 73
     4
 74
     0
 42
0.0000000001
 43
0.0000000001
 40
0.0
 40
0.0
 40
0.0
 40
0.0
 40
1.0
 40
1.0
 40
1.0
 40
1.0
 10
1.4324000000000001
 20
39.537199999999999
 30
0.0
 10
1.4324000000000001
 20
39.537199999999999
 30
0.0
 10
0.265
 20
39.718499999999999
 30
0.0
 10
0.265
 20
39.718499999999999
 30
0.0
  0
SPLINE
  5
2C
100
AcDbEntity
  8
Layer 1
370
    20
100
AcDbSpline
210
0.0
220
0.0
230
1.0
 70
     0
 71
     3
 72
     8
 73
     4
 74
     0
 42
0.0000000001
 43
0.0000000001
 40
0.0
 40
0.0
 40
0.0
 40
0.0
 40
1.0
 40
1.0
 40
1.0
 40
1.0
 10
0.265
 20
39.718499999999999
 30
0.0
 10
0.265
 20
39.718499999999999
 30
0.0
 10
-0.8157000000000001
 20
40.195799999999998
 30
0.0
 10
-0.8157000000000001
 20
40.195799999999998
 30
0.0
  0
SPLINE
  5
2D
100
AcDbEntity
  8
Layer 1
370
    20
100
AcDbSpline
210
0.0
220
0.0
230
1.0
 70
     0
 71
     3
 72
     8
 73
     4
 74
     0
 42
0.0000000001
 43
0.0000000001
 40
0.0
 40
0.0
 40
0.0
 40
0.0
 40
1.0
 40
1.0
 40
1.0
 40
1.0
 10
-0.8157000000000001
 20
40.195799999999998
 30
0.0
 10
-0.8157000000000001
 20
40.195799999999998
 30
0.0
 10
-1.736
 20
40.936399999999999
 30
0.0
 10
-1.736
 20
40.936399999999999
 30
0.0
  0
SPLINE
  5
2E
100
AcDbEntity
  8
Layer 1
370
    20
100
AcDbSpline
210
0.0
220
0.0
230
1.0
 70
     0
 71
     3
 72
     8
 73
     4
 74
     0
 42
0.0000000001
 43
0.0000000001
 40
0.0
 40
0.0
 40
0.0
 40
0.0
 40
1.0
 40
1.0
 40
1.0
 40
1.0
 10
-1.736
 20
40.936399999999999
 30
0.0
 10
-1.736
 20
40.936399999999999
 30
0.0
 10
-2.4333
 20
41.890100000000004
 30
0.0
 10
-2.4333
 20
41.890100000000004
 30
0.0
  0
SPLINE
  5
2F
100
AcDbEntity
  8
Layer 1
370
    20
100
AcDbSpline
210
0.0
220
0.0
230
1.0
 70
     0
 71
     3
 72
     8
 73
     4
 74
     0
 42
0.0000000001
 43
0.0000000001
 40
0.0
 40
0.0
 40
0.0
 40
0.0
 40
1.0
 40
1.0
 40
1.0
 40
1.0
 10
-2.4333
 20
41.890100000000004
 30
0.0
 10
-2.4333
 20
41.890100000000004
 30
0.0
 10
-2.8600000000000003
 20
42.991700000000002
 30
0.0
 10
-2.8600000000000003
 20
42.991700000000002
 30
0.0
  0
SPLINE
  5
30
100
AcDbEntity
  8
Layer 1
370
    20
100
AcDbSpline
210
0.0
220
0.0
230
1.0
 70
     0
 71
     3
 72
     8
 73
     4
 74
     0
 42
0.0000000001
 43
0.0000000001
 40
0.0
 40
0.0
 40
0.0
 40
0.0
 40
1.0
 40
1.0
 40
1.0
 40
1.0
 10
-2.8600000000000003
 20
42.991700000000002
 30
0.0
 10
-2.8600000000000003
 20
42.991700000000002
 30
0.0
 10
-2.9870000000000001
 20
44.166200000000003
 30
0.0
 10
-2.9870000000000001
 20
44.166200000000003
 30
0.0
  0
SPLINE
  5
31
100
AcDbEntity
  8
Layer 1
370
    20
100
AcDbSpline
210
0.0
220
0.0
230
1.0
 70
     0
 71
     3
 72
     8
 73
     4
 74
     0
 42
0.0000000001
 43
0.0000000001
 40
0.0
 40
0.0
 40
0.0
 40
0.0
 40
1.0
 40
1.0
 40
1.0
 40
1.0
 10
-2.9870000000000001
 20
44.166200000000003
 30
0.0
 10
-2.9870000000000001
 20
44.166200000000003
 30
0.0
 10
-2.8057000000000003
 20
45.333600000000004
 30
0.0
 10
-2.8057000000000003
 20
45.333600000000004
 30
0.0
  0
SPLINE
  5
32
100
AcDbEntity
  8
Layer 1
370
    20
100
AcDbSpline
210
0.0
220
0.0
230
1.0
 70
     0
 71
     3
 72
     8
 73
     4
 74
     0
 42
0.0000000001
 43
0.0000000001
 40
0.0
 40
0.0
 40
0.0
 40
0.0
 40
1.0
 40
1.0
 40
1.0
 40
1.0
 10
-2.8057000000000003
 20
45.333600000000004
 30
0.0
 10
-2.8057000000000003
 20
45.333600000000004
 30
0.0
 10
-2.3285
 20
46.414200000000001
 30
0.0
 10
-2.3285
 20
46.414200000000001
 30
0.0
  0
SPLINE
  5
33
100
AcDbEntity
  8
Layer 1
370
    20
100
AcDbSpline
210
0.0
220
0.0
230
1.0
 70
     0
 71
     3
 72
     8
 73
     4
 74
     0
 42
0.0000000001
 43
0.0000000001
 40
0.0
 40
0.0
 40
0.0
 40
0.0
 40
1.0
 40
1.0
 40
1.0
 40
1.0
 10
-2.3285
 20
46.414200000000001
 30
0.0
 10
-2.3285
 20
46.414200000000001
 30
0.0
 10
-1.5878000000000001
 20
47.334600000000002
 30
0.0
 10
-1.5878000000000001
 20
47.334600000000002
 30
0.0
  0
SPLINE
  5
34
100
AcDbEntity
  8
Layer 1
370
    20
100
AcDbSpline
210
0.0
220
0.0
230
1.0
 70
     0
 71
     3
 72
     8
 73
     4
 74
     0
 42
0.0000000001
 43
0.0000000001
 40
0.0
 40
0.0
 40
0.0
 40
0.0
 40
1.0
 40
1.0
 40
1.0
 40
1.0
 10
-1.5878000000000001
 20
47.334600000000002
 30
0.0
 10
-1.5878000000000001
 20
47.334600000000002
 30
0.0
 10
-1.0234000000000001
 20
47.747199999999999
 30
0.0
 10
-1.0234000000000001
 20
47.747199999999999
 30
0.0
  0
SPLINE
  5
35
100
AcDbEntity
  8
Layer 1
370
    20
100
AcDbSpline
210
0.0
220
0.0
230
1.0
 70
     0
 71
     3
 72
     8
 73
     4
 74
     0
 42
0.0000000001
 43
0.0000000001
 40
0.0
 40
0.0
 40
0.0
 40
0.0
 40
1.0
 40
1.0
 40
1.0
 40
1.0
 10
-1.0234000000000001
 20
47.747199999999999
 30
0.0
 10
-1.0234000000000001
 20
47.747199999999999
 30
0.0
 10
-1.1929000000000001
 20
47.991199999999999
 30
0.0
 10
-1.1929000000000001
 20
47.991199999999999
 30
0.0
  0
SPLINE
  5
36
100
AcDbEntity
  8
Layer 1
370
    20
100
AcDbSpline
210
0.0
220
0.0
230
1.0
 70
     0
 71
     3
 72
     8
 73
     4
 74
     0
 42
0.0000000001
 43
0.0000000001
 40
0.0
 40
0.0
 40
0.0
 40
0.0
 40
1.0
 40
1.0
 40
1.0
 40
1.0
 10
-1.1929000000000001
 20
47.991199999999999
 30
0.0
 10
-1.1929000000000001
 20
47.991199999999999
 30
0.0
 10
-5.6347000000000005
 20
57.582700000000003
 30
0.0
 10
-5.6347000000000005
 20
57.582700000000003
 30
0.0
  0
SPLINE
  5
37
100
AcDbEntity
  8
Layer 1
370
    20
100
AcDbSpline
210
0.0
220
0.0
230
1.0
 70
     0
 71
     3
 72
     8
 73
     4
 74
     0
 42
0.0000000001
 43
0.0000000001
 40
0.0
 40
0.0
 40
0.0
 40
0.0
 40
1.0
 40
1.0
 40
1.0
 40
1.0
 10
-5.6347000000000005
 20
57.582700000000003
 30
0.0
 10
-5.6347000000000005
 20
57.582700000000003
 30
0.0
 10
-6.0117000000000003
 20
59.054500000000004
 30
0.0
 10
-6.0117000000000003
 20
59.054500000000004
 30
0.0
  0
SPLINE
  5
38
100
AcDbEntity
  8
Layer 1
370
    20
100
AcDbSpline
210
0.0
220
0.0
230
1.0
 70
     0
 71
     3
 72
     8
 73
     4
 74
     0
 42
0.0000000001
 43
0.0000000001
 40
0.0
 40
0.0
 40
0.0
 40
0.0
 40
1.0
 40
1.0
 40
1.0
 40
1.0
 10
-6.0117000000000003
 20
59.054500000000004
 30
0.0
 10
-6.0117000000000003
 20
59.054500000000004
 30
0.0
 10
-8.3542000000000005
 20
58.746100000000006
 30
0.0
 10
-8.3542000000000005
 20
58.746100000000006
 30
0.0
  0
SPLINE
  5
39
100
AcDbEntity
  8
Layer 1
370
    20
100
AcDbSpline
210
0.0
220
0.0
230
1.0
 70
     0
 71
     3
 72
     8
 73
     4
 74
     0
 42
0.0000000001
 43
0.0000000001
 40
0.0
 40
0.0
 40
0.0
 40
0.0
 40
1.0
 40
1.0
 40
1.0
 40
1.0
 10
-8.3542000000000005
 20
58.746100000000006
 30
0.0
 10
-8.3542000000000005
 20
58.746100000000006
 30
0.0
 10
-10.6967
 20
59.054500000000004
 30
0.0
 10
-10.6967
 20
59.054500000000004
 30
0.0
  0
SPLINE
  5
3A
100
AcDbEntity
  8
Layer 1
370
    20
100
AcDbSpline
210
0.0
220
0.0
230
1.0
 70
     0
 71
     3
 72
     8
 73
     4
 74
     0
 42
0.0000000001
 43
0.0000000001
 40
0.0
 40
0.0
 40
0.0
 40
0.0
 40
1.0
 40
1.0
 40
1.0
 40
1.0
 10
-10.6967
 20
59.054500000000004
 30
0.0
 10
-10.6967
 20
59.054500000000004
 30
0.0
 10
-12.8796
 20
59.9587
 30
0.0
 10
-12.8796
 20
59.9587
 30
0.0
  0
SPLINE
  5
3B
100
AcDbEntity
  8
Layer 1
370
    20
100
AcDbSpline
210
0.0
220
0.0
230
1.0
 70
     0
 71
     3
 72
     8
 73
     4
 74
     0
 42
0.0000000001
 43
0.0000000001
 40
0.0
 40
0.0
 40
0.0
 40
0.0
 40
1.0
 40
1.0
 40
1.0
 40
1.0
 10
-12.8796
 20
59.9587
 30
0.0
 10
-12.8796
 20
59.9587
 30
0.0
 10
-14.754000000000001
 20
61.397000000000006
 30
0.0
 10
-14.754000000000001
 20
61.397000000000006
 30
0.0
  0
SPLINE
  5
3C
100
AcDbEntity
  8
Layer 1
370
    20
100
AcDbSpline
210
0.0
220
0.0
230
1.0
 70
     0
 71
     3
 72
     8
 73
     4
 74
     0
 42
0.0000000001
 43
0.0000000001
 40
0.0
 40
0.0
 40
0.0
 40
0.0
 40
1.0
 40
1.0
 40
1.0
 40
1.0
 10
-14.754000000000001
 20
61.397000000000006
 30
0.0
 10
-14.754000000000001
 20
61.397000000000006
 30
0.0
 10
-16.192399999999999
 20
63.271500000000003
 30
0.0
 10
-16.192399999999999
 20
63.271500000000003
 30
0.0
  0
SPLINE
  5
3D
100
AcDbEntity
  8
Layer 1
370
    20
100
AcDbSpline
210
0.0
220
0.0
230
1.0
 70
     0
 71
     3
 72
     8
 73
     4
 74
     0
 42
0.0000000001
 43
0.0000000001
 40
0.0
 40
0.0
 40
0.0
 40
0.0
 40
1.0
 40
1.0
 40
1.0
 40
1.0
 10
-16.192399999999999
 20
63.271500000000003
 30
0.0
 10
-16.192399999999999
 20
63.271500000000003
 30
0.0
 10
-17.096500000000002
 20
65.454400000000007
 30
0.0
 10
-17.096500000000002
 20
65.454400000000007
 30
0.0
  0
SPLINE
  5
3E
100
AcDbEntity
  8
Layer 1
370
    20
100
AcDbSpline
210
0.0
220
0.0
230
1.0
 70
     0
 71
     3
 72
     8
 73
     4
 74
     0
 42
0.0000000001
 43
0.0000000001
 40
0.0
 40
0.0
 40
0.0
 40
0.0
 40
1.0
 40
1.0
 40
1.0
 40
1.0
 10
-17.096500000000002
 20
65.454400000000007
 30
0.0
 10
-17.096500000000002
 20
65.454400000000007
 30
0.0
 10
-17.405000000000001
 20
67.796900000000008
 30
0.0
 10
-17.405000000000001
 20
67.796900000000008
 30
0.0
  0
SPLINE
  5
3F
100
AcDbEntity
  8
Layer 1
370
    20
100
AcDbSpline
210
0.0
220
0.0
230
1.0
 70
     0
 71
     3
 72
     8
 73
     4
 74
     0
 42
0.0000000001
 43
0.0000000001
 40
0.0
 40
0.0
 40
0.0
 40
0.0
 40
1.0
 40
1.0
 40
1.0
 40
1.0
 10
-17.405000000000001
 20
67.796900000000008
 30
0.0
 10
-17.405000000000001
 20
67.796900000000008
 30
0.0
 10
-17.096500000000002
 20
70.139400000000009
 30
0.0
 10
-17.096500000000002
 20
70.139400000000009
 30
0.0
  0
SPLINE
  5
40
100
AcDbEntity
  8
Layer 1
370
    20
100
AcDbSpline
210
0.0
220
0.0
230
1.0
 70
     0
 71
     3
 72
     8
 73
     4
 74
     0
 42
0.0000000001
 43
0.0000000001
 40
0.0
 40
0.0
 40
0.0
 40
0.0
 40
1.0
 40
1.0
 40
1.0
 40
1.0
 10
-17.096500000000002
 20
70.139400000000009
 30
0.0
 10
-17.096500000000002
 20
70.139400000000009
 30
0.0
 10
-16.192399999999999
 20
72.322299999999998
 30
0.0
 10
-16.192399999999999
 20
72.322299999999998
 30
0.0
  0
SPLINE
  5
41
100
AcDbEntity
  8
Layer 1
370
    20
100
AcDbSpline
210
0.0
220
0.0
230
1.0
 70
     0
 71
     3
 72
     8
 73
     4
 74
     0
 42
0.0000000001
 43
0.0000000001
 40
0.0
 40
0.0
 40
0.0
 40
0.0
 40
1.0
 40
1.0
 40
1.0
 40
1.0
 10
-16.192399999999999
 20
72.322299999999998
 30
0.0
 10
-16.192399999999999
 20
72.322299999999998
 30
0.0
 10
-14.754000000000001
 20
74.196700000000007
 30
0.0
 10
-14.754000000000001
 20
74.196700000000007
 30
0.0
  0
SPLINE
  5
42
100
AcDbEntity
  8
Layer 1
370
    20
100
AcDbSpline
210
0.0
220
0.0
230
1.0
 70
     0
 71
     3
 72
     8
 73
     4
 74
     0
 42
0.0000000001
 43
0.0000000001
 40
0.0
 40
0.0
 40
0.0
 40
0.0
 40
1.0
 40
1.0
 40
1.0
 40
1.0
 10
-14.754000000000001
 20
74.196700000000007
 30
0.0
 10
-14.754000000000001
 20
74.196700000000007
 30
0.0
 10
-13.034500000000001
 20
75.516199999999998
 30
0.0
 10
-13.034500000000001
 20
75.516199999999998
 30
0.0
  0
SPLINE
  5
43
100
AcDbEntity
  8
Layer 1
370
    20
100
AcDbSpline
210
0.0
220
0.0
230
1.0
 70
     0
 71
     3
 72
     8
 73
     4
 74
     0
 42
0.0000000001
 43
0.0000000001
 40
0.0
 40
0.0
 40
0.0
 40
0.0
 40
1.0
 40
1.0
 40
1.0
 40
1.0
 10
-13.034500000000001
 20
75.516199999999998
 30
0.0
 10
-13.034500000000001
 20
75.516199999999998
 30
0.0
 10
-14.6166
 20
76.0471
 30
0.0
 10
-14.6166
 20
76.0471
 30
0.0
  0
SPLINE
  5
44
100
AcDbEntity
  8
Layer 1
370
    20
100
AcDbSpline
210
0.0
220
0.0
230
1.0
 70
     0
 71
     3
 72
     8
 73
     4
 74
     0
 42
0.0000000001
 43
0.0000000001
 40
0.0
 40
0.0
 40
0.0
 40
0.0
 40
1.0
 40
1.0
 40
1.0
 40
1.0
 10
-14.6166
 20
76.0471
 30
0.0
 10
-14.6166
 20
76.0471
 30
0.0
 10
-17.718700000000002
 20
78.104500000000002
 30
0.0
 10
-17.718700000000002
 20
78.104500000000002
 30
0.0
  0
SPLINE
  5
45
100
AcDbEntity
  8
Layer 1
370
    20
100
AcDbSpline
210
0.0
220
0.0
230
1.0
 70
     0
 71
     3
 72
     8
 73
     4
 74
     0
 42
0.0000000001
 43
0.0000000001
 40
0.0
 40
0.0
 40
0.0
 40
0.0
 40
1.0
 40
1.0
 40
1.0
 40
1.0
 10
-17.718700000000002
 20
78.104500000000002
 30
0.0
 10
-17.718700000000002
 20
78.104500000000002
 30
0.0
 10
-20.182700000000001
 20
80.894599999999997
 30
0.0
 10
-20.182700000000001
 20
80.894599999999997
 30
0.0
  0
SPLINE
  5
46
100
AcDbEntity
  8
Layer 1
370
    20
100
AcDbSpline
210
0.0
220
0.0
230
1.0
 70
     0
 71
     3
 72
     8
 73
     4
 74
     0
 42
0.0000000001
 43
0.0000000001
 40
0.0
 40
0.0
 40
0.0
 40
0.0
 40
1.0
 40
1.0
 40
1.0
 40
1.0
 10
-20.182700000000001
 20
80.894599999999997
 30
0.0
 10
-20.182700000000001
 20
80.894599999999997
 30
0.0
 10
-21.840600000000002
 20
84.227400000000003
 30
0.0
 10
-21.840600000000002
 20
84.227400000000003
 30
0.0
  0
SPLINE
  5
47
100
AcDbEntity
  8
Layer 1
370
    20
100
AcDbSpline
210
0.0
220
0.0
230
1.0
 70
     0
 71
     3
 72
     8
 73
     4
 74
     0
 42
0.0000000001
 43
0.0000000001
 40
0.0
 40
0.0
 40
0.0
 40
0.0
 40
1.0
 40
1.0
 40
1.0
 40
1.0
 10
-21.840600000000002
 20
84.227400000000003
 30
0.0
 10
-21.840600000000002
 20
84.227400000000003
 30
0.0
 10
-22.579499999999999
 20
87.875700000000009
 30
0.0
 10
-22.579499999999999
 20
87.875700000000009
 30
0.0
  0
SPLINE
  5
48
100
AcDbEntity
  8
Layer 1
370
    20
100
AcDbSpline
210
0.0
220
0.0
230
1.0
 70
     0
 71
     3
 72
     8
 73
     4
 74
     0
 42
0.0000000001
 43
0.0000000001
 40
0.0
 40
0.0
 40
0.0
 40
0.0
 40
1.0
 40
1.0
 40
1.0
 40
1.0
 10
-22.579499999999999
 20
87.875700000000009
 30
0.0
 10
-22.579499999999999
 20
87.875700000000009
 30
0.0
 10
-22.348800000000001
 20
91.590900000000005
 30
0.0
 10
-22.348800000000001
 20
91.590900000000005
 30
0.0
  0
SPLINE
  5
49
100
AcDbEntity
  8
Layer 1
370
    20
100
AcDbSpline
210
0.0
220
0.0
230
1.0
 70
     0
 71
     3
 72
     8
 73
     4
 74
     0
 42
0.0000000001
 43
0.0000000001
 40
0.0
 40
0.0
 40
0.0
 40
0.0
 40
1.0
 40
1.0
 40
1.0
 40
1.0
 10
-22.348800000000001
 20
91.590900000000005
 30
0.0
 10
-22.348800000000001
 20
91.590900000000005
 30
0.0
 10
-21.1645
 20
95.119799999999998
 30
0.0
 10
-21.1645
 20
95.119799999999998
 30
0.0
  0
SPLINE
  5
4A
100
AcDbEntity
  8
Layer 1
370
    20
100
AcDbSpline
210
0.0
220
0.0
230
1.0
 70
     0
 71
     3
 72
     8
 73
     4
 74
     0
 42
0.0000000001
 43
0.0000000001
 40
0.0
 40
0.0
 40
0.0
 40
0.0
 40
1.0
 40
1.0
 40
1.0
 40
1.0
 10
-21.1645
 20
95.119799999999998
 30
0.0
 10
-21.1645
 20
95.119799999999998
 30
0.0
 10
-19.107200000000002
 20
98.222000000000008
 30
0.0
 10
-19.107200000000002
 20
98.222000000000008
 30
0.0
  0
SPLINE
  5
4B
100
AcDbEntity
  8
Layer 1
370
    20
100
AcDbSpline
210
0.0
220
0.0
230
1.0
 70
     0
 71
     3
 72
     8
 73
     4
 74
     0
 42
0.0000000001
 43
0.0000000001
 40
0.0
 40
0.0
 40
0.0
 40
0.0
 40
1.0
 40
1.0
 40
1.0
 40
1.0
 10
-19.107200000000002
 20
98.222000000000008
 30
0.0
 10
-19.107200000000002
 20
98.222000000000008
 30
0.0
 10
-16.3171
 20
100.68600000000001
 30
0.0
 10
-16.3171
 20
100.68600000000001
 30
0.0
  0
SPLINE
  5
4C
100
AcDbEntity
  8
Layer 1
370
    20
100
AcDbSpline
210
0.0
220
0.0
230
1.0
 70
     0
 71
     3
 72
     8
 73
     4
 74
     0
 42
0.0000000001
 43
0.0000000001
 40
0.0
 40
0.0
 40
0.0
 40
0.0
 40
1.0
 40
1.0
 40
1.0
 40
1.0
 10
-16.3171
 20
100.68600000000001
 30
0.0
 10
-16.3171
 20
100.68600000000001
 30
0.0
 10
-12.984300000000001
 20
102.3439
 30
0.0
 10
-12.984300000000001
 20
102.3439
 30
0.0
  0
SPLINE
  5
4D
100
AcDbEntity
  8
Layer 1
370
    20
100
AcDbSpline
210
0.0
220
0.0
230
1.0
 70
     0
 71
     3
 72
     8
 73
     4
 74
     0
 42
0.0000000001
 43
0.0000000001
 40
0.0
 40
0.0
 40
0.0
 40
0.0
 40
1.0
 40
1.0
 40
1.0
 40
1.0
 10
-12.984300000000001
 20
102.3439
 30
0.0
 10
-12.984300000000001
 20
102.3439
 30
0.0
 10
-11.1493
 20
102.71550000000001
 30
0.0
 10
-11.1493
 20
102.71550000000001
 30
0.0
  0
SPLINE
  5
4E
100
AcDbEntity
  8
Layer 1
370
    20
100
AcDbSpline
210
0.0
220
0.0
230
1.0
 70
     0
 71
     3
 72
     8
 73
     4
 74
     0
 42
0.0000000001
 43
0.0000000001
 40
0.0
 40
0.0
 40
0.0
 40
0.0
 40
1.0
 40
1.0
 40
1.0
 40
1.0
 10
-11.1493
 20
102.71550000000001
 30
0.0
 10
-11.1493
 20
102.71550000000001
 30
0.0
 10
-14.2438
 20
106.05330000000001
 30
0.0
 10
-14.2438
 20
106.05330000000001
 30
0.0
  0
SPLINE
  5
4F
100
AcDbEntity
  8
Layer 1
370
    20
100
AcDbSpline
210
0.0
220
0.0
230
1.0
 70
     0
 71
     3
 72
     8
 73
     4
 74
     0
 42
0.0000000001
 43
0.0000000001
 40
0.0
 40
0.0
 40
0.0
 40
0.0
 40
1.0
 40
1.0
 40
1.0
 40
1.0
 10
-14.2438
 20
106.05330000000001
 30
0.0
 10
-14.2438
 20
106.05330000000001
 30
0.0
 10
-18.177600000000002
 20
113.44470000000001
 30
0.0
 10
-18.177600000000002
 20
113.44470000000001
 30
0.0
  0
SPLINE
  5
50
100
AcDbEntity
  8
Layer 1
370
    20
100
AcDbSpline
210
0.0
220
0.0
230
1.0
 70
     0
 71
     3
 72
     8
 73
     4
 74
     0
 42
0.0000000001
 43
0.0000000001
 40
0.0
 40
0.0
 40
0.0
 40
0.0
 40
1.0
 40
1.0
 40
1.0
 40
1.0
 10
-18.177600000000002
 20
113.44470000000001
 30
0.0
 10
-18.177600000000002
 20
113.44470000000001
 30
0.0
 10
-20.667100000000001
 20
118.1224
 30
0.0
 10
-20.667100000000001
 20
118.1224
 30
0.0
  0
SPLINE
  5
51
100
AcDbEntity
  8
Layer 1
370
    20
100
AcDbSpline
210
0.0
220
0.0
230
1.0
 70
     0
 71
     3
 72
     8
 73
     4
 74
     0
 42
0.0000000001
 43
0.0000000001
 40
0.0
 40
0.0
 40
0.0
 40
0.0
 40
1.0
 40
1.0
 40
1.0
 40
1.0
 10
-20.667100000000001
 20
118.1224
 30
0.0
 10
-20.667100000000001
 20
118.1224
 30
0.0
 10
-23.638200000000001
 20
130.96880000000002
 30
0.0
 10
-23.638200000000001
 20
130.96880000000002
 30
0.0
  0
SPLINE
  5
52
100
AcDbEntity
  8
Layer 1
370
    20
100
AcDbSpline
210
0.0
220
0.0
230
1.0
 70
     0
 71
     3
 72
     8
 73
     4
 74
     0
 42
0.0000000001
 43
0.0000000001
 40
0.0
 40
0.0
 40
0.0
 40
0.0
 40
1.0
 40
1.0
 40
1.0
 40
1.0
 10
-23.638200000000001
 20
130.96880000000002
 30
0.0
 10
-23.638200000000001
 20
130.96880000000002
 30
0.0
 10
-21.840600000000002
 20
130.96880000000002
 30
0.0
 10
-21.840600000000002
 20
130.96880000000002
 30
0.0
  0
SPLINE
  5
53
100
AcDbEntity
  8
Layer 1
370
    20
100
AcDbSpline
210
0.0
220
0.0
230
1.0
 70
     0
 71
     3
 72
     8
 73
     4
 74
     0
 42
0.0000000001
 43
0.0000000001
 40
0.0
 40
0.0
 40
0.0
 40
0.0
 40
1.0
 40
1.0
 40
1.0
 40
1.0
 10
-21.840600000000002
 20
130.96880000000002
 30
0.0
 10
-21.840600000000002
 20
130.96880000000002
 30
0.0
 10
27.644400000000001
 20
130.96880000000002
 30
0.0
 10
27.644400000000001
 20
130.96880000000002
 30
0.0
  0
SPLINE
  5
54
100
AcDbEntity
  8
Layer 1
370
    20
100
AcDbSpline
210
0.0
220
0.0
230
1.0
 70
     0
 71
     3
 72
     8
 73
     4
 74
     0
 42
0.0000000001
 43
0.0000000001
 40
0.0
 40
0.0
 40
0.0
 40
0.0
 40
1.0
 40
1.0
 40
1.0
 40
1.0
 10
27.644400000000001
 20
130.96880000000002
 30
0.0
 10
27.644400000000001
 20
130.96880000000002
 30
0.0
 10
27.644400000000001
 20
107.7359
 30
0.0
 10
27.644400000000001
 20
107.7359
 30
0.0
  0
SPLINE
  5
55
100
AcDbEntity
  8
Layer 1
370
    20
100
AcDbSpline
210
0.0
220
0.0
230
1.0
 70
     0
 71
     3
 72
     8
 73
     4
 74
     0
 42
0.0000000001
 43
0.0000000001
 40
0.0
 40
0.0
 40
0.0
 40
0.0
 40
1.0
 40
1.0
 40
1.0
 40
1.0
 10
27.644400000000001
 20
107.7359
 30
0.0
 10
27.644400000000001
 20
107.7359
 30
0.0
 10
30.661300000000001
 20
107.7359
 30
0.0
 10
30.661300000000001
 20
107.7359
 30
0.0
  0
SPLINE
  5
56
100
AcDbEntity
  8
Layer 1
370
    20
100
AcDbSpline
210
0.0
220
0.0
230
1.0
 70
     0
 71
     3
 72
     8
 73
     4
 74
     0
 42
0.0000000001
 43
0.0000000001
 40
0.0
 40
0.0
 40
0.0
 40
0.0
 40
1.0
 40
1.0
 40
1.0
 40
1.0
 10
30.661300000000001
 20
107.7359
 30
0.0
 10
30.661300000000001
 20
107.7359
 30
0.0
 10
30.661300000000001
 20
130.96880000000002
 30
0.0
 10
30.661300000000001
 20
130.96880000000002
 30
0.0
  0
SPLINE
  5
57
100
AcDbEntity
  8
Layer 1
370
    20
100
AcDbSpline
210
0.0
220
0.0
230
1.0
 70
     0
 71
     3
 72
     8
 73
     4
 74
     0
 42
0.0000000001
 43
0.0000000001
 40
0.0
 40
0.0
 40
0.0
 40
0.0
 40
1.0
 40
1.0
 40
1.0
 40
1.0
 10
30.661300000000001
 20
130.96880000000002
 30
0.0
 10
30.661300000000001
 20
130.96880000000002
 30
0.0
 10
80.146300000000011
 20
130.96880000000002
 30
0.0
 10
80.146300000000011
 20
130.96880000000002
 30
0.0
  0
SPLINE
  5
58
100
AcDbEntity
  8
Layer 1
370
    20
100
AcDbSpline
210
0.0
220
0.0
230
1.0
 70
     0
 71
     3
 72
     8
 73
     4
 74
     0
 42
0.0000000001
 43
0.0000000001
 40
0.0
 40
0.0
 40
0.0
 40
0.0
 40
1.0
 40
1.0
 40
1.0
 40
1.0
 10
80.146300000000011
 20
130.96880000000002
 30
0.0
 10
80.146300000000011
 20
130.96880000000002
 30
0.0
 10
80.039000000000001
 20
127.8613
 30
0.0
 10
80.039000000000001
 20
127.8613
 30
0.0
  0
SPLINE
  5
59
100
AcDbEntity
  8
Layer 1
370
    20
100
AcDbSpline
210
0.0
220
0.0
230
1.0
 70
     0
 71
     3
 72
     8
 73
     4
 74
     0
 42
0.0000000001
 43
0.0000000001
 40
0.0
 40
0.0
 40
0.0
 40
0.0
 40
1.0
 40
1.0
 40
1.0
 40
1.0
 10
80.039000000000001
 20
127.8613
 30
0.0
 10
80.039000000000001
 20
127.8613
 30
0.0
 10
76.046900000000008
 20
114.7852
 30
0.0
 10
76.046900000000008
 20
114.7852
 30
0.0
  0
SPLINE
  5
5A
100
AcDbEntity
  8
Layer 1
370
    20
100
AcDbSpline
210
0.0
220
0.0
230
1.0
 70
     0
 71
     3
 72
     8
 73
     4
 74
     0
 42
0.0000000001
 43
0.0000000001
 40
0.0
 40
0.0
 40
0.0
 40
0.0
 40
1.0
 40
1.0
 40
1.0
 40
1.0
 10
76.046900000000008
 20
114.7852
 30
0.0
 10
76.046900000000008
 20
114.7852
 30
0.0
 10
68.961799999999997
 20
103.43690000000001
 30
0.0
 10
68.961799999999997
 20
103.43690000000001
 30
0.0
  0
SPLINE
  5
5B
100
AcDbEntity
  8
Layer 1
370
    20
100
AcDbSpline
210
0.0
220
0.0
230
1.0
 70
     0
 71
     3
 72
     8
 73
     4
 74
     0
 42
0.0000000001
 43
0.0000000001
 40
0.0
 40
0.0
 40
0.0
 40
0.0
 40
1.0
 40
1.0
 40
1.0
 40
1.0
 10
68.961799999999997
 20
103.43690000000001
 30
0.0
 10
68.961799999999997
 20
103.43690000000001
 30
0.0
 10
69.118400000000008
 20
103.15530000000001
 30
0.0
 10
69.118400000000008
 20
103.15530000000001
 30
0.0
  0
SPLINE
  5
5C
100
AcDbEntity
  8
Layer 1
370
    20
100
AcDbSpline
210
0.0
220
0.0
230
1.0
 70
     0
 71
     3
 72
     8
 73
     4
 74
     0
 42
0.0000000001
 43
0.0000000001
 40
0.0
 40
0.0
 40
0.0
 40
0.0
 40
1.0
 40
1.0
 40
1.0
 40
1.0
 10
69.118400000000008
 20
103.15530000000001
 30
0.0
 10
69.118400000000008
 20
103.15530000000001
 30
0.0
 10
69.814800000000005
 20
101.9033
 30
0.0
 10
69.814800000000005
 20
101.9033
 30
0.0
  0
SPLINE
  5
5D
100
AcDbEntity
  8
Layer 1
370
    20
100
AcDbSpline
210
0.0
220
0.0
230
1.0
 70
     0
 71
     3
 72
     8
 73
     4
 74
     0
 42
0.0000000001
 43
0.0000000001
 40
0.0
 40
0.0
 40
0.0
 40
0.0
 40
1.0
 40
1.0
 40
1.0
 40
1.0
 10
69.814800000000005
 20
101.9033
 30
0.0
 10
69.814800000000005
 20
101.9033
 30
0.0
 10
70.897400000000005
 20
97.587500000000006
 30
0.0
 10
70.897400000000005
 20
97.587500000000006
 30
0.0
  0
SPLINE
  5
5E
100
AcDbEntity
  8
Layer 1
370
    20
100
AcDbSpline
210
0.0
220
0.0
230
1.0
 70
     0
 71
     3
 72
     8
 73
     4
 74
     0
 42
0.0000000001
 43
0.0000000001
 40
0.0
 40
0.0
 40
0.0
 40
0.0
 40
1.0
 40
1.0
 40
1.0
 40
1.0
 10
70.897400000000005
 20
97.587500000000006
 30
0.0
 10
70.897400000000005
 20
97.587500000000006
 30
0.0
 10
70.826099999999997
 20
93.138500000000008
 30
0.0
 10
70.826099999999997
 20
93.138500000000008
 30
0.0
  0
SPLINE
  5
5F
100
AcDbEntity
  8
Layer 1
370
    20
100
AcDbSpline
210
0.0
220
0.0
230
1.0
 70
     0
 71
     3
 72
     8
 73
     4
 74
     0
 42
0.0000000001
 43
0.0000000001
 40
0.0
 40
0.0
 40
0.0
 40
0.0
 40
1.0
 40
1.0
 40
1.0
 40
1.0
 10
70.826099999999997
 20
93.138500000000008
 30
0.0
 10
70.826099999999997
 20
93.138500000000008
 30
0.0
 10
69.605800000000002
 20
88.859700000000004
 30
0.0
 10
69.605800000000002
 20
88.859700000000004
 30
0.0
  0
SPLINE
  5
60
100
AcDbEntity
  8
Layer 1
370
    20
100
AcDbSpline
210
0.0
220
0.0
230
1.0
 70
     0
 71
     3
 72
     8
 73
     4
 74
     0
 42
0.0000000001
 43
0.0000000001
 40
0.0
 40
0.0
 40
0.0
 40
0.0
 40
1.0
 40
1.0
 40
1.0
 40
1.0
 10
69.605800000000002
 20
88.859700000000004
 30
0.0
 10
69.605800000000002
 20
88.859700000000004
 30
0.0
 10
67.319500000000005
 20
85.042400000000001
 30
0.0
 10
67.319500000000005
 20
85.042400000000001
 30
0.0
  0
SPLINE
  5
61
100
AcDbEntity
  8
Layer 1
370
    20
100
AcDbSpline
210
0.0
220
0.0
230
1.0
 70
     0
 71
     3
 72
     8
 73
     4
 74
     0
 42
0.0000000001
 43
0.0000000001
 40
0.0
 40
0.0
 40
0.0
 40
0.0
 40
1.0
 40
1.0
 40
1.0
 40
1.0
 10
67.319500000000005
 20
85.042400000000001
 30
0.0
 10
67.319500000000005
 20
85.042400000000001
 30
0.0
 10
64.1233
 20
81.946899999999999
 30
0.0
 10
64.1233
 20
81.946899999999999
 30
0.0
  0
SPLINE
  5
62
100
AcDbEntity
  8
Layer 1
370
    20
100
AcDbSpline
210
0.0
220
0.0
230
1.0
 70
     0
 71
     3
 72
     8
 73
     4
 74
     0
 42
0.0000000001
 43
0.0000000001
 40
0.0
 40
0.0
 40
0.0
 40
0.0
 40
1.0
 40
1.0
 40
1.0
 40
1.0
 10
64.1233
 20
81.946899999999999
 30
0.0
 10
64.1233
 20
81.946899999999999
 30
0.0
 10
60.234700000000004
 20
79.784199999999998
 30
0.0
 10
60.234700000000004
 20
79.784199999999998
 30
0.0
  0
SPLINE
  5
63
100
AcDbEntity
  8
Layer 1
370
    20
100
AcDbSpline
210
0.0
220
0.0
230
1.0
 70
     0
 71
     3
 72
     8
 73
     4
 74
     0
 42
0.0000000001
 43
0.0000000001
 40
0.0
 40
0.0
 40
0.0
 40
0.0
 40
1.0
 40
1.0
 40
1.0
 40
1.0
 10
60.234700000000004
 20
79.784199999999998
 30
0.0
 10
60.234700000000004
 20
79.784199999999998
 30
0.0
 10
55.918900000000001
 20
78.701599999999999
 30
0.0
 10
55.918900000000001
 20
78.701599999999999
 30
0.0
  0
SPLINE
  5
64
100
AcDbEntity
  8
Layer 1
370
    20
100
AcDbSpline
210
0.0
220
0.0
230
1.0
 70
     0
 71
     3
 72
     8
 73
     4
 74
     0
 42
0.0000000001
 43
0.0000000001
 40
0.0
 40
0.0
 40
0.0
 40
0.0
 40
1.0
 40
1.0
 40
1.0
 40
1.0
 10
55.918900000000001
 20
78.701599999999999
 30
0.0
 10
55.918900000000001
 20
78.701599999999999
 30
0.0
 10
51.470000000000006
 20
78.772900000000007
 30
0.0
 10
51.470000000000006
 20
78.772900000000007
 30
0.0
  0
SPLINE
  5
65
100
AcDbEntity
  8
Layer 1
370
    20
100
AcDbSpline
210
0.0
220
0.0
230
1.0
 70
     0
 71
     3
 72
     8
 73
     4
 74
     0
 42
0.0000000001
 43
0.0000000001
 40
0.0
 40
0.0
 40
0.0
 40
0.0
 40
1.0
 40
1.0
 40
1.0
 40
1.0
 10
51.470000000000006
 20
78.772900000000007
 30
0.0
 10
51.470000000000006
 20
78.772900000000007
 30
0.0
 10
48.741400000000006
 20
79.551100000000005
 30
0.0
 10
48.741400000000006
 20
79.551100000000005
 30
0.0
  0
SPLINE
  5
66
100
AcDbEntity
  8
Layer 1
370
    20
100
AcDbSpline
210
0.0
220
0.0
230
1.0
 70
     0
 71
     3
 72
     8
 73
     4
 74
     0
 42
0.0000000001
 43
0.0000000001
 40
0.0
 40
0.0
 40
0.0
 40
0.0
 40
1.0
 40
1.0
 40
1.0
 40
1.0
 10
48.741400000000006
 20
79.551100000000005
 30
0.0
 10
48.741400000000006
 20
79.551100000000005
 30
0.0
 10
48.1843
 20
76.403700000000001
 30
0.0
 10
48.1843
 20
76.403700000000001
 30
0.0
  0
SPLINE
  5
67
100
AcDbEntity
  8
Layer 1
370
    20
100
AcDbSpline
210
0.0
220
0.0
230
1.0
 70
     0
 71
     3
 72
     8
 73
     4
 74
     0
 42
0.0000000001
 43
0.0000000001
 40
0.0
 40
0.0
 40
0.0
 40
0.0
 40
1.0
 40
1.0
 40
1.0
 40
1.0
 10
48.1843
 20
76.403700000000001
 30
0.0
 10
48.1843
 20
76.403700000000001
 30
0.0
 10
47.926500000000004
 20
71.995500000000007
 30
0.0
 10
47.926500000000004
 20
71.995500000000007
 30
0.0
  0
SPLINE
  5
68
100
AcDbEntity
  8
Layer 1
370
    20
100
AcDbSpline
210
0.0
220
0.0
230
1.0
 70
     0
 71
     3
 72
     8
 73
     4
 74
     0
 42
0.0000000001
 43
0.0000000001
 40
0.0
 40
0.0
 40
0.0
 40
0.0
 40
1.0
 40
1.0
 40
1.0
 40
1.0
 10
47.926500000000004
 20
71.995500000000007
 30
0.0
 10
47.926500000000004
 20
71.995500000000007
 30
0.0
 10
48.1843
 20
72.029499999999999
 30
0.0
 10
48.1843
 20
72.029499999999999
 30
0.0
  0
SPLINE
  5
69
100
AcDbEntity
  8
Layer 1
370
    20
100
AcDbSpline
210
0.0
220
0.0
230
1.0
 70
     0
 71
     3
 72
     8
 73
     4
 74
     0
 42
0.0000000001
 43
0.0000000001
 40
0.0
 40
0.0
 40
0.0
 40
0.0
 40
1.0
 40
1.0
 40
1.0
 40
1.0
 10
48.1843
 20
72.029499999999999
 30
0.0
 10
48.1843
 20
72.029499999999999
 30
0.0
 10
50.526800000000001
 20
71.721100000000007
 30
0.0
 10
50.526800000000001
 20
71.721100000000007
 30
0.0
  0
SPLINE
  5
6A
100
AcDbEntity
  8
Layer 1
370
    20
100
AcDbSpline
210
0.0
220
0.0
230
1.0
 70
     0
 71
     3
 72
     8
 73
     4
 74
     0
 42
0.0000000001
 43
0.0000000001
 40
0.0
 40
0.0
 40
0.0
 40
0.0
 40
1.0
 40
1.0
 40
1.0
 40
1.0
 10
50.526800000000001
 20
71.721100000000007
 30
0.0
 10
50.526800000000001
 20
71.721100000000007
 30
0.0
 10
52.709600000000002
 20
70.816900000000004
 30
0.0
 10
52.709600000000002
 20
70.816900000000004
 30
0.0
  0
SPLINE
  5
6B
100
AcDbEntity
  8
Layer 1
370
    20
100
AcDbSpline
210
0.0
220
0.0
230
1.0
 70
     0
 71
     3
 72
     8
 73
     4
 74
     0
 42
0.0000000001
 43
0.0000000001
 40
0.0
 40
0.0
 40
0.0
 40
0.0
 40
1.0
 40
1.0
 40
1.0
 40
1.0
 10
52.709600000000002
 20
70.816900000000004
 30
0.0
 10
52.709600000000002
 20
70.816900000000004
 30
0.0
 10
54.584099999999999
 20
69.378600000000006
 30
0.0
 10
54.584099999999999
 20
69.378600000000006
 30
0.0
  0
SPLINE
  5
6C
100
AcDbEntity
  8
Layer 1
370
    20
100
AcDbSpline
210
0.0
220
0.0
230
1.0
 70
     0
 71
     3
 72
     8
 73
     4
 74
     0
 42
0.0000000001
 43
0.0000000001
 40
0.0
 40
0.0
 40
0.0
 40
0.0
 40
1.0
 40
1.0
 40
1.0
 40
1.0
 10
54.584099999999999
 20
69.378600000000006
 30
0.0
 10
54.584099999999999
 20
69.378600000000006
 30
0.0
 10
56.022400000000005
 20
67.504100000000008
 30
0.0
 10
56.022400000000005
 20
67.504100000000008
 30
0.0
  0
SPLINE
  5
6D
100
AcDbEntity
  8
Layer 1
370
    20
100
AcDbSpline
210
0.0
220
0.0
230
1.0
 70
     0
 71
     3
 72
     8
 73
     4
 74
     0
 42
0.0000000001
 43
0.0000000001
 40
0.0
 40
0.0
 40
0.0
 40
0.0
 40
1.0
 40
1.0
 40
1.0
 40
1.0
 10
56.022400000000005
 20
67.504100000000008
 30
0.0
 10
56.022400000000005
 20
67.504100000000008
 30
0.0
 10
56.926600000000001
 20
65.321200000000005
 30
0.0
 10
56.926600000000001
 20
65.321200000000005
 30
0.0
  0
SPLINE
  5
6E
100
AcDbEntity
  8
Layer 1
370
    20
100
AcDbSpline
210
0.0
220
0.0
230
1.0
 70
     0
 71
     3
 72
     8
 73
     4
 74
     0
 42
0.0000000001
 43
0.0000000001
 40
0.0
 40
0.0
 40
0.0
 40
0.0
 40
1.0
 40
1.0
 40
1.0
 40
1.0
 10
56.926600000000001
 20
65.321200000000005
 30
0.0
 10
56.926600000000001
 20
65.321200000000005
 30
0.0
 10
57.234999999999999
 20
62.978700000000003
 30
0.0
 10
57.234999999999999
 20
62.978700000000003
 30
0.0
  0
SPLINE
  5
6F
100
AcDbEntity
  8
Layer 1
370
    20
100
AcDbSpline
210
0.0
220
0.0
230
1.0
 70
     0
 71
     3
 72
     8
 73
     4
 74
     0
 42
0.0000000001
 43
0.0000000001
 40
0.0
 40
0.0
 40
0.0
 40
0.0
 40
1.0
 40
1.0
 40
1.0
 40
1.0
 10
57.234999999999999
 20
62.978700000000003
 30
0.0
 10
57.234999999999999
 20
62.978700000000003
 30
0.0
 10
56.926600000000001
 20
60.636200000000002
 30
0.0
 10
56.926600000000001
 20
60.636200000000002
 30
0.0
  0
SPLINE
  5
70
100
AcDbEntity
  8
Layer 1
370
    20
100
AcDbSpline
210
0.0
220
0.0
230
1.0
 70
     0
 71
     3
 72
     8
 73
     4
 74
     0
 42
0.0000000001
 43
0.0000000001
 40
0.0
 40
0.0
 40
0.0
 40
0.0
 40
1.0
 40
1.0
 40
1.0
 40
1.0
 10
56.926600000000001
 20
60.636200000000002
 30
0.0
 10
56.926600000000001
 20
60.636200000000002
 30
0.0
 10
56.022400000000005
 20
58.453300000000006
 30
0.0
 10
56.022400000000005
 20
58.453300000000006
 30
0.0
  0
SPLINE
  5
71
100
AcDbEntity
  8
Layer 1
370
    20
100
AcDbSpline
210
0.0
220
0.0
230
1.0
 70
     0
 71
     3
 72
     8
 73
     4
 74
     0
 42
0.0000000001
 43
0.0000000001
 40
0.0
 40
0.0
 40
0.0
 40
0.0
 40
1.0
 40
1.0
 40
1.0
 40
1.0
 10
56.022400000000005
 20
58.453300000000006
 30
0.0
 10
56.022400000000005
 20
58.453300000000006
 30
0.0
 10
54.584099999999999
 20
56.578900000000004
 30
0.0
 10
54.584099999999999
 20
56.578900000000004
 30
0.0
  0
SPLINE
  5
72
100
AcDbEntity
  8
Layer 1
370
    20
100
AcDbSpline
210
0.0
220
0.0
230
1.0
 70
     0
 71
     3
 72
     8
 73
     4
 74
     0
 42
0.0000000001
 43
0.0000000001
 40
0.0
 40
0.0
 40
0.0
 40
0.0
 40
1.0
 40
1.0
 40
1.0
 40
1.0
 10
54.584099999999999
 20
56.578900000000004
 30
0.0
 10
54.584099999999999
 20
56.578900000000004
 30
0.0
 10
52.709600000000002
 20
55.140500000000003
 30
0.0
 10
52.709600000000002
 20
55.140500000000003
 30
0.0
  0
SPLINE
  5
73
100
AcDbEntity
  8
Layer 1
370
    20
100
AcDbSpline
210
0.0
220
0.0
230
1.0
 70
     0
 71
     3
 72
     8
 73
     4
 74
     0
 42
0.0000000001
 43
0.0000000001
 40
0.0
 40
0.0
 40
0.0
 40
0.0
 40
1.0
 40
1.0
 40
1.0
 40
1.0
 10
52.709600000000002
 20
55.140500000000003
 30
0.0
 10
52.709600000000002
 20
55.140500000000003
 30
0.0
 10
50.526800000000001
 20
54.236400000000003
 30
0.0
 10
50.526800000000001
 20
54.236400000000003
 30
0.0
  0
SPLINE
  5
74
100
AcDbEntity
  8
Layer 1
370
    20
100
AcDbSpline
210
0.0
220
0.0
230
1.0
 70
     0
 71
     3
 72
     8
 73
     4
 74
     0
 42
0.0000000001
 43
0.0000000001
 40
0.0
 40
0.0
 40
0.0
 40
0.0
 40
1.0
 40
1.0
 40
1.0
 40
1.0
 10
50.526800000000001
 20
54.236400000000003
 30
0.0
 10
50.526800000000001
 20
54.236400000000003
 30
0.0
 10
50.014400000000002
 20
54.168900000000001
 30
0.0
 10
50.014400000000002
 20
54.168900000000001
 30
0.0
  0
SPLINE
  5
75
100
AcDbEntity
  8
Layer 1
370
    20
100
AcDbSpline
210
0.0
220
0.0
230
1.0
 70
     0
 71
     3
 72
     8
 73
     4
 74
     0
 42
0.0000000001
 43
0.0000000001
 40
0.0
 40
0.0
 40
0.0
 40
0.0
 40
1.0
 40
1.0
 40
1.0
 40
1.0
 10
50.014400000000002
 20
54.168900000000001
 30
0.0
 10
50.014400000000002
 20
54.168900000000001
 30
0.0
 10
51.292200000000001
 20
49.918400000000005
 30
0.0
 10
51.292200000000001
 20
49.918400000000005
 30
0.0
  0
SPLINE
  5
76
100
AcDbEntity
  8
Layer 1
370
    20
100
AcDbSpline
210
0.0
220
0.0
230
1.0
 70
     0
 71
     3
 72
     8
 73
     4
 74
     0
 42
0.0000000001
 43
0.0000000001
 40
0.0
 40
0.0
 40
0.0
 40
0.0
 40
1.0
 40
1.0
 40
1.0
 40
1.0
 10
51.292200000000001
 20
49.918400000000005
 30
0.0
 10
51.292200000000001
 20
49.918400000000005
 30
0.0
 10
53.965200000000003
 20
43.748600000000003
 30
0.0
 10
53.965200000000003
 20
43.748600000000003
 30
0.0
  0
SPLINE
  5
77
100
AcDbEntity
  8
Layer 1
370
    20
100
AcDbSpline
210
0.0
220
0.0
230
1.0
 70
     0
 71
     3
 72
     8
 73
     4
 74
     0
 42
0.0000000001
 43
0.0000000001
 40
0.0
 40
0.0
 40
0.0
 40
0.0
 40
1.0
 40
1.0
 40
1.0
 40
1.0
 10
53.965200000000003
 20
43.748600000000003
 30
0.0
 10
53.965200000000003
 20
43.748600000000003
 30
0.0
 10
57.339100000000002
 20
37.932400000000001
 30
0.0
 10
57.339100000000002
 20
37.932400000000001
 30
0.0
  0
SPLINE
  5
78
100
AcDbEntity
  8
Layer 1
370
    20
100
AcDbSpline
210
0.0
220
0.0
230
1.0
 70
     0
 71
     3
 72
     8
 73
     4
 74
     0
 42
0.0000000001
 43
0.0000000001
 40
0.0
 40
0.0
 40
0.0
 40
0.0
 40
1.0
 40
1.0
 40
1.0
 40
1.0
 10
57.339100000000002
 20
37.932400000000001
 30
0.0
 10
57.339100000000002
 20
37.932400000000001
 30
0.0
 10
61.367900000000006
 20
32.548999999999999
 30
0.0
 10
61.367900000000006
 20
32.548999999999999
 30
0.0
  0
SPLINE
  5
79
100
AcDbEntity
  8
Layer 1
370
    20
100
AcDbSpline
210
0.0
220
0.0
230
1.0
 70
     0
 71
     3
 72
     8
 73
     4
 74
     0
 42
0.0000000001
 43
0.0000000001
 40
0.0
 40
0.0
 40
0.0
 40
0.0
 40
1.0
 40
1.0
 40
1.0
 40
1.0
 10
61.367900000000006
 20
32.548999999999999
 30
0.0
 10
61.367900000000006
 20
32.548999999999999
 30
0.0
 10
63.867400000000004
 20
29.573600000000003
 30
0.0
 10
63.867400000000004
 20
29.573600000000003
 30
0.0
  0
SPLINE
  5
7A
100
AcDbEntity
  8
Layer 1
370
    20
100
AcDbSpline
210
0.0
220
0.0
230
1.0
 70
     0
 71
     3
 72
     8
 73
     4
 74
     0
 42
0.0000000001
 43
0.0000000001
 40
0.0
 40
0.0
 40
0.0
 40
0.0
 40
1.0
 40
1.0
 40
1.0
 40
1.0
 10
63.867400000000004
 20
29.573600000000003
 30
0.0
 10
63.867400000000004
 20
29.573600000000003
 30
0.0
 10
69.509100000000004
 20
23.3813
 30
0.0
 10
69.509100000000004
 20
23.3813
 30
0.0
  0
SPLINE
  5
7B
100
AcDbEntity
  8
Layer 1
370
    20
100
AcDbSpline
210
0.0
220
0.0
230
1.0
 70
     0
 71
     3
 72
     8
 73
     4
 74
     0
 42
0.0000000001
 43
0.0000000001
 40
0.0
 40
0.0
 40
0.0
 40
0.0
 40
1.0
 40
1.0
 40
1.0
 40
1.0
 10
69.509100000000004
 20
23.3813
 30
0.0
 10
69.509100000000004
 20
23.3813
 30
0.0
 10
75.395200000000003
 20
17.4207
 30
0.0
 10
75.395200000000003
 20
17.4207
 30
0.0
  0
SPLINE
  5
7C
100
AcDbEntity
  8
Layer 1
370
    20
100
AcDbSpline
210
0.0
220
0.0
230
1.0
 70
     0
 71
     3
 72
     8
 73
     4
 74
     0
 42
0.0000000001
 43
0.0000000001
 40
0.0
 40
0.0
 40
0.0
 40
0.0
 40
1.0
 40
1.0
 40
1.0
 40
1.0
 10
75.395200000000003
 20
17.4207
 30
0.0
 10
75.395200000000003
 20
17.4207
 30
0.0
 10
81.516100000000009
 20
11.701600000000001
 30
0.0
 10
81.516100000000009
 20
11.701600000000001
 30
0.0
  0
SPLINE
  5
7D
100
AcDbEntity
  8
Layer 1
370
    20
100
AcDbSpline
210
0.0
220
0.0
230
1.0
 70
     0
 71
     3
 72
     8
 73
     4
 74
     0
 42
0.0000000001
 43
0.0000000001
 40
0.0
 40
0.0
 40
0.0
 40
0.0
 40
1.0
 40
1.0
 40
1.0
 40
1.0
 10
81.516100000000009
 20
11.701600000000001
 30
0.0
 10
81.516100000000009
 20
11.701600000000001
 30
0.0
 10
87.861900000000006
 20
6.2331000000000003
 30
0.0
 10
87.861900000000006
 20
6.2331000000000003
 30
0.0
  0
SPLINE
  5
7E
100
AcDbEntity
  8
Layer 1
370
    20
100
AcDbSpline
210
0.0
220
0.0
230
1.0
 70
     0
 71
     3
 72
     8
 73
     4
 74
     0
 42
0.0000000001
 43
0.0000000001
 40
0.0
 40
0.0
 40
0.0
 40
0.0
 40
1.0
 40
1.0
 40
1.0
 40
1.0
 10
87.861900000000006
 20
6.2331000000000003
 30
0.0
 10
87.861900000000006
 20
6.2331000000000003
 30
0.0
 10
94.422499999999999
 20
1.0242
 30
0.0
 10
94.422499999999999
 20
1.0242
 30
0.0
  0
SPLINE
  5
7F
100
AcDbEntity
  8
Layer 1
370
    20
100
AcDbSpline
210
0.0
220
0.0
230
1.0
 70
     0
 71
     3
 72
     8
 73
     4
 74
     0
 42
0.0000000001
 43
0.0000000001
 40
0.0
 40
0.0
 40
0.0
 40
0.0
 40
1.0
 40
1.0
 40
1.0
 40
1.0
 10
94.422499999999999
 20
1.0242
 30
0.0
 10
94.422499999999999
 20
1.0242
 30
0.0
 10
101.1871
 20
-3.9169
 30
0.0
 10
101.1871
 20
-3.9169
 30
0.0
  0
SPLINE
  5
80
100
AcDbEntity
  8
Layer 1
370
    20
100
AcDbSpline
210
0.0
220
0.0
230
1.0
 70
     0
 71
     3
 72
     8
 73
     4
 74
     0
 42
0.0000000001
 43
0.0000000001
 40
0.0
 40
0.0
 40
0.0
 40
0.0
 40
1.0
 40
1.0
 40
1.0
 40
1.0
 10
101.1871
 20
-3.9169
 30
0.0
 10
101.1871
 20
-3.9169
 30
0.0
 10
108.1448
 20
-8.5820000000000007
 30
0.0
 10
108.1448
 20
-8.5820000000000007
 30
0.0
  0
SPLINE
  5
81
100
AcDbEntity
  8
Layer 1
370
    20
100
AcDbSpline
210
0.0
220
0.0
230
1.0
 70
     0
 71
     3
 72
     8
 73
     4
 74
     0
 42
0.0000000001
 43
0.0000000001
 40
0.0
 40
0.0
 40
0.0
 40
0.0
 40
1.0
 40
1.0
 40
1.0
 40
1.0
 10
108.1448
 20
-8.5820000000000007
 30
0.0
 10
108.1448
 20
-8.5820000000000007
 30
0.0
 10
108.91850000000001
 20
-9.1277000000000008
 30
0.0
 10
108.91850000000001
 20
-9.1277000000000008
 30
0.0
  0
SPLINE
  5
82
100
AcDbEntity
  8
Layer 1
370
    20
100
AcDbSpline
210
0.0
220
0.0
230
1.0
 70
     0
 71
     3
 72
     8
 73
     4
 74
     0
 42
0.0000000001
 43
0.0000000001
 40
0.0
 40
0.0
 40
0.0
 40
0.0
 40
1.0
 40
1.0
 40
1.0
 40
1.0
 10
108.91850000000001
 20
-9.1277000000000008
 30
0.0
 10
108.91850000000001
 20
-9.1277000000000008
 30
0.0
 10
109.6414
 20
-9.7391000000000005
 30
0.0
 10
109.6414
 20
-9.7391000000000005
 30
0.0
  0
SPLINE
  5
83
100
AcDbEntity
  8
Layer 1
370
    20
100
AcDbSpline
210
0.0
220
0.0
230
1.0
 70
     0
 71
     3
 72
     8
 73
     4
 74
     0
 42
0.0000000001
 43
0.0000000001
 40
0.0
 40
0.0
 40
0.0
 40
0.0
 40
1.0
 40
1.0
 40
1.0
 40
1.0
 10
109.6414
 20
-9.7391000000000005
 30
0.0
 10
109.6414
 20
-9.7391000000000005
 30
0.0
 10
110.30810000000001
 20
-10.411300000000001
 30
0.0
 10
110.30810000000001
 20
-10.411300000000001
 30
0.0
  0
SPLINE
  5
84
100
AcDbEntity
  8
Layer 1
370
    20
100
AcDbSpline
210
0.0
220
0.0
230
1.0
 70
     0
 71
     3
 72
     8
 73
     4
 74
     0
 42
0.0000000001
 43
0.0000000001
 40
0.0
 40
0.0
 40
0.0
 40
0.0
 40
1.0
 40
1.0
 40
1.0
 40
1.0
 10
110.30810000000001
 20
-10.411300000000001
 30
0.0
 10
110.30810000000001
 20
-10.411300000000001
 30
0.0
 10
110.91340000000001
 20
-11.1393
 30
0.0
 10
110.91340000000001
 20
-11.1393
 30
0.0
  0
SPLINE
  5
85
100
AcDbEntity
  8
Layer 1
370
    20
100
AcDbSpline
210
0.0
220
0.0
230
1.0
 70
     0
 71
     3
 72
     8
 73
     4
 74
     0
 42
0.0000000001
 43
0.0000000001
 40
0.0
 40
0.0
 40
0.0
 40
0.0
 40
1.0
 40
1.0
 40
1.0
 40
1.0
 10
110.91340000000001
 20
-11.1393
 30
0.0
 10
110.91340000000001
 20
-11.1393
 30
0.0
 10
111.4526
 20
-11.9175
 30
0.0
 10
111.4526
 20
-11.9175
 30
0.0
  0
SPLINE
  5
86
100
AcDbEntity
  8
Layer 1
370
    20
100
AcDbSpline
210
0.0
220
0.0
230
1.0
 70
     0
 71
     3
 72
     8
 73
     4
 74
     0
 42
0.0000000001
 43
0.0000000001
 40
0.0
 40
0.0
 40
0.0
 40
0.0
 40
1.0
 40
1.0
 40
1.0
 40
1.0
 10
111.4526
 20
-11.9175
 30
0.0
 10
111.4526
 20
-11.9175
 30
0.0
 10
111.9218
 20
-12.739800000000001
 30
0.0
 10
111.9218
 20
-12.739800000000001
 30
0.0
  0
SPLINE
  5
87
100
AcDbEntity
  8
Layer 1
370
    20
100
AcDbSpline
210
0.0
220
0.0
230
1.0
 70
     0
 71
     3
 72
     8
 73
     4
 74
     0
 42
0.0000000001
 43
0.0000000001
 40
0.0
 40
0.0
 40
0.0
 40
0.0
 40
1.0
 40
1.0
 40
1.0
 40
1.0
 10
111.9218
 20
-12.739800000000001
 30
0.0
 10
111.9218
 20
-12.739800000000001
 30
0.0
 10
112.31710000000001
 20
-13.600100000000001
 30
0.0
 10
112.31710000000001
 20
-13.600100000000001
 30
0.0
  0
SPLINE
  5
88
100
AcDbEntity
  8
Layer 1
370
    20
100
AcDbSpline
210
0.0
220
0.0
230
1.0
 70
     0
 71
     3
 72
     8
 73
     4
 74
     0
 42
0.0000000001
 43
0.0000000001
 40
0.0
 40
0.0
 40
0.0
 40
0.0
 40
1.0
 40
1.0
 40
1.0
 40
1.0
 10
112.31710000000001
 20
-13.600100000000001
 30
0.0
 10
112.31710000000001
 20
-13.600100000000001
 30
0.0
 10
112.6357
 20
-14.4916
 30
0.0
 10
112.6357
 20
-14.4916
 30
0.0
  0
SPLINE
  5
89
100
AcDbEntity
  8
Layer 1
370
    20
100
AcDbSpline
210
0.0
220
0.0
230
1.0
 70
     0
 71
     3
 72
     8
 73
     4
 74
     0
 42
0.0000000001
 43
0.0000000001
 40
0.0
 40
0.0
 40
0.0
 40
0.0
 40
1.0
 40
1.0
 40
1.0
 40
1.0
 10
112.6357
 20
-14.4916
 30
0.0
 10
112.6357
 20
-14.4916
 30
0.0
 10
112.8751
 20
-15.4076
 30
0.0
 10
112.8751
 20
-15.4076
 30
0.0
  0
SPLINE
  5
8A
100
AcDbEntity
  8
Layer 1
370
    20
100
AcDbSpline
210
0.0
220
0.0
230
1.0
 70
     0
 71
     3
 72
     8
 73
     4
 74
     0
 42
0.0000000001
 43
0.0000000001
 40
0.0
 40
0.0
 40
0.0
 40
0.0
 40
1.0
 40
1.0
 40
1.0
 40
1.0
 10
112.8751
 20
-15.4076
 30
0.0
 10
112.8751
 20
-15.4076
 30
0.0
 10
113.0334
 20
-16.341000000000001
 30
0.0
 10
113.0334
 20
-16.341000000000001
 30
0.0
  0
SPLINE
  5
8B
100
AcDbEntity
  8
Layer 1
370
    20
100
AcDbSpline
210
0.0
220
0.0
230
1.0
 70
     0
 71
     3
 72
     8
 73
     4
 74
     0
 42
0.0000000001
 43
0.0000000001
 40
0.0
 40
0.0
 40
0.0
 40
0.0
 40
1.0
 40
1.0
 40
1.0
 40
1.0
 10
113.0334
 20
-16.341000000000001
 30
0.0
 10
113.0334
 20
-16.341000000000001
 30
0.0
 10
113.10940000000001
 20
-17.284700000000001
 30
0.0
 10
113.10940000000001
 20
-17.284700000000001
 30
0.0
  0
SPLINE
  5
8C
100
AcDbEntity
  8
Layer 1
370
    20
100
AcDbSpline
210
0.0
220
0.0
230
1.0
 70
     0
 71
     3
 72
     8
 73
     4
 74
     0
 42
0.0000000001
 43
0.0000000001
 40
0.0
 40
0.0
 40
0.0
 40
0.0
 40
1.0
 40
1.0
 40
1.0
 40
1.0
 10
113.10940000000001
 20
-17.284700000000001
 30
0.0
 10
113.10940000000001
 20
-17.284700000000001
 30
0.0
 10
113.10250000000001
 20
-18.2315
 30
0.0
 10
113.10250000000001
 20
-18.2315
 30
0.0
  0
SPLINE
  5
8D
100
AcDbEntity
  8
Layer 1
370
    20
100
AcDbSpline
210
0.0
220
0.0
230
1.0
 70
     0
 71
     3
 72
     8
 73
     4
 74
     0
 42
0.0000000001
 43
0.0000000001
 40
0.0
 40
0.0
 40
0.0
 40
0.0
 40
1.0
 40
1.0
 40
1.0
 40
1.0
 10
113.10250000000001
 20
-18.2315
 30
0.0
 10
113.10250000000001
 20
-18.2315
 30
0.0
 10
112.40900000000001
 20
-17.944200000000002
 30
0.0
 10
112.40900000000001
 20
-17.944200000000002
 30
0.0
  0
SPLINE
  5
8E
100
AcDbEntity
  8
Layer 1
370
    20
100
AcDbSpline
210
0.0
220
0.0
230
1.0
 70
     0
 71
     3
 72
     8
 73
     4
 74
     0
 42
0.0000000001
 43
0.0000000001
 40
0.0
 40
0.0
 40
0.0
 40
0.0
 40
1.0
 40
1.0
 40
1.0
 40
1.0
 10
112.40900000000001
 20
-17.944200000000002
 30
0.0
 10
112.40900000000001
 20
-17.944200000000002
 30
0.0
 10
109.702
 20
-16.599
 30
0.0
 10
109.702
 20
-16.599
 30
0.0
  0
SPLINE
  5
8F
100
AcDbEntity
  8
Layer 1
370
    20
100
AcDbSpline
210
0.0
220
0.0
230
1.0
 70
     0
 71
     3
 72
     8
 73
     4
 74
     0
 42
0.0000000001
 43
0.0000000001
 40
0.0
 40
0.0
 40
0.0
 40
0.0
 40
1.0
 40
1.0
 40
1.0
 40
1.0
 10
109.702
 20
-16.599
 30
0.0
 10
109.702
 20
-16.599
 30
0.0
 10
106.67330000000001
 20
-21.844900000000003
 30
0.0
 10
106.67330000000001
 20
-21.844900000000003
 30
0.0
  0
SPLINE
  5
90
100
AcDbEntity
  8
Layer 1
370
    20
100
AcDbSpline
210
0.0
220
0.0
230
1.0
 70
     0
 71
     3
 72
     8
 73
     4
 74
     0
 42
0.0000000001
 43
0.0000000001
 40
0.0
 40
0.0
 40
0.0
 40
0.0
 40
1.0
 40
1.0
 40
1.0
 40
1.0
 10
106.67330000000001
 20
-21.844900000000003
 30
0.0
 10
106.67330000000001
 20
-21.844900000000003
 30
0.0
 10
90.65870000000001
 20
-7.3462000000000005
 30
0.0
 10
90.65870000000001
 20
-7.3462000000000005
 30
0.0
  0
SPLINE
  5
91
100
AcDbEntity
  8
Layer 1
370
    20
100
AcDbSpline
210
0.0
220
0.0
230
1.0
 70
     0
 71
     3
 72
     8
 73
     4
 74
     0
 42
0.0000000001
 43
0.0000000001
 40
0.0
 40
0.0
 40
0.0
 40
0.0
 40
1.0
 40
1.0
 40
1.0
 40
1.0
 10
90.65870000000001
 20
-7.3462000000000005
 30
0.0
 10
90.65870000000001
 20
-7.3462000000000005
 30
0.0
 10
92.167100000000005
 20
-4.7335000000000003
 30
0.0
 10
92.167100000000005
 20
-4.7335000000000003
 30
0.0
  0
SPLINE
  5
92
100
AcDbEntity
  8
Layer 1
370
    20
100
AcDbSpline
210
0.0
220
0.0
230
1.0
 70
     0
 71
     3
 72
     8
 73
     4
 74
     0
 42
0.0000000001
 43
0.0000000001
 40
0.0
 40
0.0
 40
0.0
 40
0.0
 40
1.0
 40
1.0
 40
1.0
 40
1.0
 10
92.167100000000005
 20
-4.7335000000000003
 30
0.0
 10
92.167100000000005
 20
-4.7335000000000003
 30
0.0
 10
89.554400000000001
 20
-3.2250000000000001
 30
0.0
 10
89.554400000000001
 20
-3.2250000000000001
 30
0.0
  0
SPLINE
  5
93
100
AcDbEntity
  8
Layer 1
370
    20
100
AcDbSpline
210
0.0
220
0.0
230
1.0
 70
     0
 71
     3
 72
     8
 73
     4
 74
     0
 42
0.0000000001
 43
0.0000000001
 40
0.0
 40
0.0
 40
0.0
 40
0.0
 40
1.0
 40
1.0
 40
1.0
 40
1.0
 10
89.554400000000001
 20
-3.2250000000000001
 30
0.0
 10
89.554400000000001
 20
-3.2250000000000001
 30
0.0
 10
85.017200000000003
 20
-11.083600000000001
 30
0.0
 10
85.017200000000003
 20
-11.083600000000001
 30
0.0
  0
SPLINE
  5
94
100
AcDbEntity
  8
Layer 1
370
    20
100
AcDbSpline
210
0.0
220
0.0
230
1.0
 70
     0
 71
     3
 72
     8
 73
     4
 74
     0
 42
0.0000000001
 43
0.0000000001
 40
0.0
 40
0.0
 40
0.0
 40
0.0
 40
1.0
 40
1.0
 40
1.0
 40
1.0
 10
85.017200000000003
 20
-11.083600000000001
 30
0.0
 10
85.017200000000003
 20
-11.083600000000001
 30
0.0
 10
68.990800000000007
 20
3.3947000000000003
 30
0.0
 10
68.990800000000007
 20
3.3947000000000003
 30
0.0
  0
SPLINE
  5
95
100
AcDbEntity
  8
Layer 1
370
    20
100
AcDbSpline
210
0.0
220
0.0
230
1.0
 70
     0
 71
     3
 72
     8
 73
     4
 74
     0
 42
0.0000000001
 43
0.0000000001
 40
0.0
 40
0.0
 40
0.0
 40
0.0
 40
1.0
 40
1.0
 40
1.0
 40
1.0
 10
68.990800000000007
 20
3.3947000000000003
 30
0.0
 10
68.990800000000007
 20
3.3947000000000003
 30
0.0
 10
70.499300000000005
 20
6.0074000000000005
 30
0.0
 10
70.499300000000005
 20
6.0074000000000005
 30
0.0
  0
SPLINE
  5
96
100
AcDbEntity
  8
Layer 1
370
    20
100
AcDbSpline
210
0.0
220
0.0
230
1.0
 70
     0
 71
     3
 72
     8
 73
     4
 74
     0
 42
0.0000000001
 43
0.0000000001
 40
0.0
 40
0.0
 40
0.0
 40
0.0
 40
1.0
 40
1.0
 40
1.0
 40
1.0
 10
70.499300000000005
 20
6.0074000000000005
 30
0.0
 10
70.499300000000005
 20
6.0074000000000005
 30
0.0
 10
67.886600000000001
 20
7.5159000000000002
 30
0.0
 10
67.886600000000001
 20
7.5159000000000002
 30
0.0
  0
SPLINE
  5
97
100
AcDbEntity
  8
Layer 1
370
    20
100
AcDbSpline
210
0.0
220
0.0
230
1.0
 70
     0
 71
     3
 72
     8
 73
     4
 74
     0
 42
0.0000000001
 43
0.0000000001
 40
0.0
 40
0.0
 40
0.0
 40
0.0
 40
1.0
 40
1.0
 40
1.0
 40
1.0
 10
67.886600000000001
 20
7.5159000000000002
 30
0.0
 10
67.886600000000001
 20
7.5159000000000002
 30
0.0
 10
63.361200000000004
 20
-0.3223
 30
0.0
 10
63.361200000000004
 20
-0.3223
 30
0.0
  0
SPLINE
  5
98
100
AcDbEntity
  8
Layer 1
370
    20
100
AcDbSpline
210
0.0
220
0.0
230
1.0
 70
     0
 71
     3
 72
     8
 73
     4
 74
     0
 42
0.0000000001
 43
0.0000000001
 40
0.0
 40
0.0
 40
0.0
 40
0.0
 40
1.0
 40
1.0
 40
1.0
 40
1.0
 10
63.361200000000004
 20
-0.3223
 30
0.0
 10
63.361200000000004
 20
-0.3223
 30
0.0
 10
47.122600000000006
 20
13.788600000000001
 30
0.0
 10
47.122600000000006
 20
13.788600000000001
 30
0.0
  0
SPLINE
  5
99
100
AcDbEntity
  8
Layer 1
370
    20
100
AcDbSpline
210
0.0
220
0.0
230
1.0
 70
     0
 71
     3
 72
     8
 73
     4
 74
     0
 42
0.0000000001
 43
0.0000000001
 40
0.0
 40
0.0
 40
0.0
 40
0.0
 40
1.0
 40
1.0
 40
1.0
 40
1.0
 10
47.122600000000006
 20
13.788600000000001
 30
0.0
 10
47.122600000000006
 20
13.788600000000001
 30
0.0
 10
48.631100000000004
 20
16.401299999999999
 30
0.0
 10
48.631100000000004
 20
16.401299999999999
 30
0.0
  0
SPLINE
  5
9A
100
AcDbEntity
  8
Layer 1
370
    20
100
AcDbSpline
210
0.0
220
0.0
230
1.0
 70
     0
 71
     3
 72
     8
 73
     4
 74
     0
 42
0.0000000001
 43
0.0000000001
 40
0.0
 40
0.0
 40
0.0
 40
0.0
 40
1.0
 40
1.0
 40
1.0
 40
1.0
 10
48.631100000000004
 20
16.401299999999999
 30
0.0
 10
48.631100000000004
 20
16.401299999999999
 30
0.0
 10
46.0184
 20
17.909800000000001
 30
0.0
 10
46.0184
 20
17.909800000000001
 30
0.0
  0
SPLINE
  5
9B
100
AcDbEntity
  8
Layer 1
370
    20
100
AcDbSpline
210
0.0
220
0.0
230
1.0
 70
     0
 71
     3
 72
     8
 73
     4
 74
     0
 42
0.0000000001
 43
0.0000000001
 40
0.0
 40
0.0
 40
0.0
 40
0.0
 40
1.0
 40
1.0
 40
1.0
 40
1.0
 10
46.0184
 20
17.909800000000001
 30
0.0
 10
46.0184
 20
17.909800000000001
 30
0.0
 10
41.516600000000004
 20
10.112400000000001
 30
0.0
 10
41.516600000000004
 20
10.112400000000001
 30
0.0
  0
SPLINE
  5
9C
100
AcDbEntity
  8
Layer 1
370
    20
100
AcDbSpline
210
0.0
220
0.0
230
1.0
 70
     0
 71
     3
 72
     8
 73
     4
 74
     0
 42
0.0000000001
 43
0.0000000001
 40
0.0
 40
0.0
 40
0.0
 40
0.0
 40
1.0
 40
1.0
 40
1.0
 40
1.0
 10
41.516600000000004
 20
10.112400000000001
 30
0.0
 10
41.516600000000004
 20
10.112400000000001
 30
0.0
 10
26.2898
 20
22.9588
 30
0.0
 10
26.2898
 20
22.9588
 30
0.0
  0
SPLINE
  5
9D
100
AcDbEntity
  8
Layer 1
370
    20
100
AcDbSpline
210
0.0
220
0.0
230
1.0
 70
     0
 71
     3
 72
     8
 73
     4
 74
     0
 42
0.0000000001
 43
0.0000000001
 40
0.0
 40
0.0
 40
0.0
 40
0.0
 40
1.0
 40
1.0
 40
1.0
 40
1.0
 10
26.2898
 20
22.9588
 30
0.0
 10
26.2898
 20
22.9588
 30
0.0
 10
27.798200000000001
 20
25.5715
 30
0.0
 10
27.798200000000001
 20
25.5715
 30
0.0
  0
SPLINE
  5
9E
100
AcDbEntity
  8
Layer 1
370
    20
100
AcDbSpline
210
0.0
220
0.0
230
1.0
 70
     0
 71
     3
 72
     8
 73
     4
 74
     0
 42
0.0000000001
 43
0.0000000001
 40
0.0
 40
0.0
 40
0.0
 40
0.0
 40
1.0
 40
1.0
 40
1.0
 40
1.0
 10
27.798200000000001
 20
25.5715
 30
0.0
 10
27.798200000000001
 20
25.5715
 30
0.0
 10
25.185500000000001
 20
27.080000000000002
 30
0.0
 10
25.185500000000001
 20
27.080000000000002
 30
0.0
  0
SPLINE
  5
9F
100
AcDbEntity
  8
Layer 1
370
    20
100
AcDbSpline
210
0.0
220
0.0
230
1.0
 70
     0
 71
     3
 72
     8
 73
     4
 74
     0
 42
0.0000000001
 43
0.0000000001
 40
0.0
 40
0.0
 40
0.0
 40
0.0
 40
1.0
 40
1.0
 40
1.0
 40
1.0
 10
25.185500000000001
 20
27.080000000000002
 30
0.0
 10
25.185500000000001
 20
27.080000000000002
 30
0.0
 10
20.825100000000003
 20
19.525400000000001
 30
0.0
 10
20.825100000000003
 20
19.525400000000001
 30
0.0
  0
SPLINE
  5
A0
100
AcDbEntity
  8
Layer 1
370
    20
100
AcDbSpline
210
0.0
220
0.0
230
1.0
 70
     0
 71
     3
 72
     8
 73
     4
 74
     0
 42
0.0000000001
 43
0.0000000001
 40
0.0
 40
0.0
 40
0.0
 40
0.0
 40
1.0
 40
1.0
 40
1.0
 40
1.0
 10
-95.25
 20
119.0625
 30
0.0
 10
-95.25
 20
119.0625
 30
0.0
 10
-95.25
 20
94.92710000000001
 30
0.0
 10
-95.25
 20
94.92710000000001
 30
0.0
  0
SPLINE
  5
A1
100
AcDbEntity
  8
Layer 1
370
    20
100
AcDbSpline
210
0.0
220
0.0
230
1.0
 70
     0
 71
     3
 72
     8
 73
     4
 74
     0
 42
0.0000000001
 43
0.0000000001
 40
0.0
 40
0.0
 40
0.0
 40
0.0
 40
1.0
 40
1.0
 40
1.0
 40
1.0
 10
-95.25
 20
94.92710000000001
 30
0.0
 10
-95.25
 20
94.92710000000001
 30
0.0
 10
-71.11460000000001
 20
94.92710000000001
 30
0.0
 10
-71.11460000000001
 20
94.92710000000001
 30
0.0
  0
SPLINE
  5
A2
100
AcDbEntity
  8
Layer 1
370
    20
100
AcDbSpline
210
0.0
220
0.0
230
1.0
 70
     0
 71
     3
 72
     8
 73
     4
 74
     0
 42
0.0000000001
 43
0.0000000001
 40
0.0
 40
0.0
 40
0.0
 40
0.0
 40
1.0
 40
1.0
 40
1.0
 40
1.0
 10
-71.11460000000001
 20
94.92710000000001
 30
0.0
 10
-71.11460000000001
 20
94.92710000000001
 30
0.0
 10
-71.11460000000001
 20
119.0625
 30
0.0
 10
-71.11460000000001
 20
119.0625
 30
0.0
  0
SPLINE
  5
A3
100
AcDbEntity
  8
Layer 1
370
    20
100
AcDbSpline
210
0.0
220
0.0
230
1.0
 70
     0
 71
     3
 72
     8
 73
     4
 74
     0
 42
0.0000000001
 43
0.0000000001
 40
0.0
 40
0.0
 40
0.0
 40
0.0
 40
1.0
 40
1.0
 40
1.0
 40
1.0
 10
-71.11460000000001
 20
119.0625
 30
0.0
 10
-71.11460000000001
 20
119.0625
 30
0.0
 10
-95.25
 20
119.0625
 30
0.0
 10
-95.25
 20
119.0625
 30
0.0
  0
SPLINE
  5
A4
100
AcDbEntity
  8
Layer 1
370
    20
100
AcDbSpline
210
0.0
220
0.0
230
1.0
 70
     0
 71
     3
 72
     8
 73
     4
 74
     0
 42
0.0000000001
 43
0.0000000001
 40
0.0
 40
0.0
 40
0.0
 40
0.0
 40
1.0
 40
1.0
 40
1.0
 40
1.0
 10
-69.848300000000009
 20
-8.9297000000000004
 30
0.0
 10
-69.848300000000009
 20
-8.9297000000000004
 30
0.0
 10
-77.390600000000006
 20
-8.9297000000000004
 30
0.0
 10
-77.390600000000006
 20
-8.9297000000000004
 30
0.0
  0
SPLINE
  5
A5
100
AcDbEntity
  8
Layer 1
370
    20
100
AcDbSpline
210
0.0
220
0.0
230
1.0
 70
     0
 71
     3
 72
     8
 73
     4
 74
     0
 42
0.0000000001
 43
0.0000000001
 40
0.0
 40
0.0
 40
0.0
 40
0.0
 40
1.0
 40
1.0
 40
1.0
 40
1.0
 10
-77.390600000000006
 20
-8.9297000000000004
 30
0.0
 10
-77.390600000000006
 20
-8.9297000000000004
 30
0.0
 10
-77.390600000000006
 20
-11.9466
 30
0.0
 10
-77.390600000000006
 20
-11.9466
 30
0.0
  0
SPLINE
  5
A6
100
AcDbEntity
  8
Layer 1
370
    20
100
AcDbSpline
210
0.0
220
0.0
230
1.0
 70
     0
 71
     3
 72
     8
 73
     4
 74
     0
 42
0.0000000001
 43
0.0000000001
 40
0.0
 40
0.0
 40
0.0
 40
0.0
 40
1.0
 40
1.0
 40
1.0
 40
1.0
 10
-77.390600000000006
 20
-11.9466
 30
0.0
 10
-77.390600000000006
 20
-11.9466
 30
0.0
 10
-74.373699999999999
 20
-11.9466
 30
0.0
 10
-74.373699999999999
 20
-11.9466
 30
0.0
  0
SPLINE
  5
A7
100
AcDbEntity
  8
Layer 1
370
    20
100
AcDbSpline
210
0.0
220
0.0
230
1.0
 70
     0
 71
     3
 72
     8
 73
     4
 74
     0
 42
0.0000000001
 43
0.0000000001
 40
0.0
 40
0.0
 40
0.0
 40
0.0
 40
1.0
 40
1.0
 40
1.0
 40
1.0
 10
-74.373699999999999
 20
-11.9466
 30
0.0
 10
-74.373699999999999
 20
-11.9466
 30
0.0
 10
-74.373699999999999
 20
-14.963500000000002
 30
0.0
 10
-74.373699999999999
 20
-14.963500000000002
 30
0.0
  0
SPLINE
  5
A8
100
AcDbEntity
  8
Layer 1
370
    20
100
AcDbSpline
210
0.0
220
0.0
230
1.0
 70
     0
 71
     3
 72
     8
 73
     4
 74
     0
 42
0.0000000001
 43
0.0000000001
 40
0.0
 40
0.0
 40
0.0
 40
0.0
 40
1.0
 40
1.0
 40
1.0
 40
1.0
 10
-74.373699999999999
 20
-14.963500000000002
 30
0.0
 10
-74.373699999999999
 20
-14.963500000000002
 30
0.0
 10
-75.882199999999997
 20
-14.963500000000002
 30
0.0
 10
-75.882199999999997
 20
-14.963500000000002
 30
0.0
  0
SPLINE
  5
A9
100
AcDbEntity
  8
Layer 1
370
    20
100
AcDbSpline
210
0.0
220
0.0
230
1.0
 70
     0
 71
     3
 72
     8
 73
     4
 74
     0
 42
0.0000000001
 43
0.0000000001
 40
0.0
 40
0.0
 40
0.0
 40
0.0
 40
1.0
 40
1.0
 40
1.0
 40
1.0
 10
-75.882199999999997
 20
-14.963500000000002
 30
0.0
 10
-75.882199999999997
 20
-14.963500000000002
 30
0.0
 10
-75.882199999999997
 20
-17.980499999999999
 30
0.0
 10
-75.882199999999997
 20
-17.980499999999999
 30
0.0
  0
SPLINE
  5
AA
100
AcDbEntity
  8
Layer 1
370
    20
100
AcDbSpline
210
0.0
220
0.0
230
1.0
 70
     0
 71
     3
 72
     8
 73
     4
 74
     0
 42
0.0000000001
 43
0.0000000001
 40
0.0
 40
0.0
 40
0.0
 40
0.0
 40
1.0
 40
1.0
 40
1.0
 40
1.0
 10
-75.882199999999997
 20
-17.980499999999999
 30
0.0
 10
-75.882199999999997
 20
-17.980499999999999
 30
0.0
 10
-74.373699999999999
 20
-17.980499999999999
 30
0.0
 10
-74.373699999999999
 20
-17.980499999999999
 30
0.0
  0
SPLINE
  5
AB
100
AcDbEntity
  8
Layer 1
370
    20
100
AcDbSpline
210
0.0
220
0.0
230
1.0
 70
     0
 71
     3
 72
     8
 73
     4
 74
     0
 42
0.0000000001
 43
0.0000000001
 40
0.0
 40
0.0
 40
0.0
 40
0.0
 40
1.0
 40
1.0
 40
1.0
 40
1.0
 10
-74.373699999999999
 20
-17.980499999999999
 30
0.0
 10
-74.373699999999999
 20
-17.980499999999999
 30
0.0
 10
-74.373699999999999
 20
-20.997400000000003
 30
0.0
 10
-74.373699999999999
 20
-20.997400000000003
 30
0.0
  0
SPLINE
  5
AC
100
AcDbEntity
  8
Layer 1
370
    20
100
AcDbSpline
210
0.0
220
0.0
230
1.0
 70
     0
 71
     3
 72
     8
 73
     4
 74
     0
 42
0.0000000001
 43
0.0000000001
 40
0.0
 40
0.0
 40
0.0
 40
0.0
 40
1.0
 40
1.0
 40
1.0
 40
1.0
 10
-74.373699999999999
 20
-20.997400000000003
 30
0.0
 10
-74.373699999999999
 20
-20.997400000000003
 30
0.0
 10
-77.390600000000006
 20
-20.997400000000003
 30
0.0
 10
-77.390600000000006
 20
-20.997400000000003
 30
0.0
  0
SPLINE
  5
AD
100
AcDbEntity
  8
Layer 1
370
    20
100
AcDbSpline
210
0.0
220
0.0
230
1.0
 70
     0
 71
     3
 72
     8
 73
     4
 74
     0
 42
0.0000000001
 43
0.0000000001
 40
0.0
 40
0.0
 40
0.0
 40
0.0
 40
1.0
 40
1.0
 40
1.0
 40
1.0
 10
-77.390600000000006
 20
-20.997400000000003
 30
0.0
 10
-77.390600000000006
 20
-20.997400000000003
 30
0.0
 10
-77.390600000000006
 20
-24.014300000000002
 30
0.0
 10
-77.390600000000006
 20
-24.014300000000002
 30
0.0
  0
SPLINE
  5
AE
100
AcDbEntity
  8
Layer 1
370
    20
100
AcDbSpline
210
0.0
220
0.0
230
1.0
 70
     0
 71
     3
 72
     8
 73
     4
 74
     0
 42
0.0000000001
 43
0.0000000001
 40
0.0
 40
0.0
 40
0.0
 40
0.0
 40
1.0
 40
1.0
 40
1.0
 40
1.0
 10
-77.390600000000006
 20
-24.014300000000002
 30
0.0
 10
-77.390600000000006
 20
-24.014300000000002
 30
0.0
 10
-69.848300000000009
 20
-24.014300000000002
 30
0.0
 10
-69.848300000000009
 20
-24.014300000000002
 30
0.0
  0
SPLINE
  5
AF
100
AcDbEntity
  8
Layer 1
370
    20
100
AcDbSpline
210
0.0
220
0.0
230
1.0
 70
     0
 71
     3
 72
     8
 73
     4
 74
     0
 42
0.0000000001
 43
0.0000000001
 40
0.0
 40
0.0
 40
0.0
 40
0.0
 40
1.0
 40
1.0
 40
1.0
 40
1.0
 10
-69.848300000000009
 20
-24.014300000000002
 30
0.0
 10
-69.848300000000009
 20
-24.014300000000002
 30
0.0
 10
-69.848300000000009
 20
-17.980499999999999
 30
0.0
 10
-69.848300000000009
 20
-17.980499999999999
 30
0.0
  0
SPLINE
  5
B0
100
AcDbEntity
  8
Layer 1
370
    20
100
AcDbSpline
210
0.0
220
0.0
230
1.0
 70
     0
 71
     3
 72
     8
 73
     4
 74
     0
 42
0.0000000001
 43
0.0000000001
 40
0.0
 40
0.0
 40
0.0
 40
0.0
 40
1.0
 40
1.0
 40
1.0
 40
1.0
 10
-69.848300000000009
 20
-17.980499999999999
 30
0.0
 10
-69.848300000000009
 20
-17.980499999999999
 30
0.0
 10
-71.356800000000007
 20
-17.980499999999999
 30
0.0
 10
-71.356800000000007
 20
-17.980499999999999
 30
0.0
  0
SPLINE
  5
B1
100
AcDbEntity
  8
Layer 1
370
    20
100
AcDbSpline
210
0.0
220
0.0
230
1.0
 70
     0
 71
     3
 72
     8
 73
     4
 74
     0
 42
0.0000000001
 43
0.0000000001
 40
0.0
 40
0.0
 40
0.0
 40
0.0
 40
1.0
 40
1.0
 40
1.0
 40
1.0
 10
-71.356800000000007
 20
-17.980499999999999
 30
0.0
 10
-71.356800000000007
 20
-17.980499999999999
 30
0.0
 10
-71.356800000000007
 20
-14.963500000000002
 30
0.0
 10
-71.356800000000007
 20
-14.963500000000002
 30
0.0
  0
SPLINE
  5
B2
100
AcDbEntity
  8
Layer 1
370
    20
100
AcDbSpline
210
0.0
220
0.0
230
1.0
 70
     0
 71
     3
 72
     8
 73
     4
 74
     0
 42
0.0000000001
 43
0.0000000001
 40
0.0
 40
0.0
 40
0.0
 40
0.0
 40
1.0
 40
1.0
 40
1.0
 40
1.0
 10
-71.356800000000007
 20
-14.963500000000002
 30
0.0
 10
-71.356800000000007
 20
-14.963500000000002
 30
0.0
 10
-69.848300000000009
 20
-14.963500000000002
 30
0.0
 10
-69.848300000000009
 20
-14.963500000000002
 30
0.0
  0
SPLINE
  5
B3
100
AcDbEntity
  8
Layer 1
370
    20
100
AcDbSpline
210
0.0
220
0.0
230
1.0
 70
     0
 71
     3
 72
     8
 73
     4
 74
     0
 42
0.0000000001
 43
0.0000000001
 40
0.0
 40
0.0
 40
0.0
 40
0.0
 40
1.0
 40
1.0
 40
1.0
 40
1.0
 10
-69.848300000000009
 20
-14.963500000000002
 30
0.0
 10
-69.848300000000009
 20
-14.963500000000002
 30
0.0
 10
-69.848300000000009
 20
-8.9297000000000004
 30
0.0
 10
-69.848300000000009
 20
-8.9297000000000004
 30
0.0
  0
SPLINE
  5
B4
100
AcDbEntity
  8
Layer 1
370
    20
100
AcDbSpline
210
0.0
220
0.0
230
1.0
 70
     0
 71
     3
 72
     8
 73
     4
 74
     0
 42
0.0000000001
 43
0.0000000001
 40
0.0
 40
0.0
 40
0.0
 40
0.0
 40
1.0
 40
1.0
 40
1.0
 40
1.0
 10
-23.8125
 20
74.414100000000005
 30
0.0
 10
-23.8125
 20
74.414100000000005
 30
0.0
 10
-33.6389
 20
74.414100000000005
 30
0.0
 10
-33.6389
 20
74.414100000000005
 30
0.0
  0
SPLINE
  5
B5
100
AcDbEntity
  8
Layer 1
370
    20
100
AcDbSpline
210
0.0
220
0.0
230
1.0
 70
     0
 71
     3
 72
     8
 73
     4
 74
     0
 42
0.0000000001
 43
0.0000000001
 40
0.0
 40
0.0
 40
0.0
 40
0.0
 40
1.0
 40
1.0
 40
1.0
 40
1.0
 10
-33.6389
 20
74.414100000000005
 30
0.0
 10
-33.6389
 20
74.414100000000005
 30
0.0
 10
-33.6389
 20
77.430999999999997
 30
0.0
 10
-33.6389
 20
77.430999999999997
 30
0.0
  0
SPLINE
  5
B6
100
AcDbEntity
  8
Layer 1
370
    20
100
AcDbSpline
210
0.0
220
0.0
230
1.0
 70
     0
 71
     3
 72
     8
 73
     4
 74
     0
 42
0.0000000001
 43
0.0000000001
 40
0.0
 40
0.0
 40
0.0
 40
0.0
 40
1.0
 40
1.0
 40
1.0
 40
1.0
 10
-33.6389
 20
77.430999999999997
 30
0.0
 10
-33.6389
 20
77.430999999999997
 30
0.0
 10
-23.8125
 20
77.430999999999997
 30
0.0
 10
-23.8125
 20
77.430999999999997
 30
0.0
  0
SPLINE
  5
B7
100
AcDbEntity
  8
Layer 1
370
    20
100
AcDbSpline
210
0.0
220
0.0
230
1.0
 70
     0
 71
     3
 72
     8
 73
     4
 74
     0
 42
0.0000000001
 43
0.0000000001
 40
0.0
 40
0.0
 40
0.0
 40
0.0
 40
1.0
 40
1.0
 40
1.0
 40
1.0
 10
-23.8125
 20
77.430999999999997
 30
0.0
 10
-23.8125
 20
77.430999999999997
 30
0.0
 10
-24.2639
 20
80.859700000000004
 30
0.0
 10
-24.2639
 20
80.859700000000004
 30
0.0
  0
SPLINE
  5
B8
100
AcDbEntity
  8
Layer 1
370
    20
100
AcDbSpline
210
0.0
220
0.0
230
1.0
 70
     0
 71
     3
 72
     8
 73
     4
 74
     0
 42
0.0000000001
 43
0.0000000001
 40
0.0
 40
0.0
 40
0.0
 40
0.0
 40
1.0
 40
1.0
 40
1.0
 40
1.0
 10
-24.2639
 20
80.859700000000004
 30
0.0
 10
-24.2639
 20
80.859700000000004
 30
0.0
 10
-26.169600000000003
 20
85.460400000000007
 30
0.0
 10
-26.169600000000003
 20
85.460400000000007
 30
0.0
  0
SPLINE
  5
B9
100
AcDbEntity
  8
Layer 1
370
    20
100
AcDbSpline
210
0.0
220
0.0
230
1.0
 70
     0
 71
     3
 72
     8
 73
     4
 74
     0
 42
0.0000000001
 43
0.0000000001
 40
0.0
 40
0.0
 40
0.0
 40
0.0
 40
1.0
 40
1.0
 40
1.0
 40
1.0
 10
-26.169600000000003
 20
85.460400000000007
 30
0.0
 10
-26.169600000000003
 20
85.460400000000007
 30
0.0
 10
-29.2011
 20
89.411100000000005
 30
0.0
 10
-29.2011
 20
89.411100000000005
 30
0.0
  0
SPLINE
  5
BA
100
AcDbEntity
  8
Layer 1
370
    20
100
AcDbSpline
210
0.0
220
0.0
230
1.0
 70
     0
 71
     3
 72
     8
 73
     4
 74
     0
 42
0.0000000001
 43
0.0000000001
 40
0.0
 40
0.0
 40
0.0
 40
0.0
 40
1.0
 40
1.0
 40
1.0
 40
1.0
 10
-29.2011
 20
89.411100000000005
 30
0.0
 10
-29.2011
 20
89.411100000000005
 30
0.0
 10
-33.151800000000001
 20
92.442599999999999
 30
0.0
 10
-33.151800000000001
 20
92.442599999999999
 30
0.0
  0
SPLINE
  5
BB
100
AcDbEntity
  8
Layer 1
370
    20
100
AcDbSpline
210
0.0
220
0.0
230
1.0
 70
     0
 71
     3
 72
     8
 73
     4
 74
     0
 42
0.0000000001
 43
0.0000000001
 40
0.0
 40
0.0
 40
0.0
 40
0.0
 40
1.0
 40
1.0
 40
1.0
 40
1.0
 10
-33.151800000000001
 20
92.442599999999999
 30
0.0
 10
-33.151800000000001
 20
92.442599999999999
 30
0.0
 10
-37.752500000000005
 20
94.348200000000006
 30
0.0
 10
-37.752500000000005
 20
94.348200000000006
 30
0.0
  0
SPLINE
  5
BC
100
AcDbEntity
  8
Layer 1
370
    20
100
AcDbSpline
210
0.0
220
0.0
230
1.0
 70
     0
 71
     3
 72
     8
 73
     4
 74
     0
 42
0.0000000001
 43
0.0000000001
 40
0.0
 40
0.0
 40
0.0
 40
0.0
 40
1.0
 40
1.0
 40
1.0
 40
1.0
 10
-37.752500000000005
 20
94.348200000000006
 30
0.0
 10
-37.752500000000005
 20
94.348200000000006
 30
0.0
 10
-42.689599999999999
 20
94.998200000000011
 30
0.0
 10
-42.689599999999999
 20
94.998200000000011
 30
0.0
  0
SPLINE
  5
BD
100
AcDbEntity
  8
Layer 1
370
    20
100
AcDbSpline
210
0.0
220
0.0
230
1.0
 70
     0
 71
     3
 72
     8
 73
     4
 74
     0
 42
0.0000000001
 43
0.0000000001
 40
0.0
 40
0.0
 40
0.0
 40
0.0
 40
1.0
 40
1.0
 40
1.0
 40
1.0
 10
-42.689599999999999
 20
94.998200000000011
 30
0.0
 10
-42.689599999999999
 20
94.998200000000011
 30
0.0
 10
-42.689599999999999
 20
56.846800000000002
 30
0.0
 10
-42.689599999999999
 20
56.846800000000002
 30
0.0
  0
SPLINE
  5
BE
100
AcDbEntity
  8
Layer 1
370
    20
100
AcDbSpline
210
0.0
220
0.0
230
1.0
 70
     0
 71
     3
 72
     8
 73
     4
 74
     0
 42
0.0000000001
 43
0.0000000001
 40
0.0
 40
0.0
 40
0.0
 40
0.0
 40
1.0
 40
1.0
 40
1.0
 40
1.0
 10
-42.689599999999999
 20
56.846800000000002
 30
0.0
 10
-42.689599999999999
 20
56.846800000000002
 30
0.0
 10
-37.752500000000005
 20
57.4968
 30
0.0
 10
-37.752500000000005
 20
57.4968
 30
0.0
  0
SPLINE
  5
BF
100
AcDbEntity
  8
Layer 1
370
    20
100
AcDbSpline
210
0.0
220
0.0
230
1.0
 70
     0
 71
     3
 72
     8
 73
     4
 74
     0
 42
0.0000000001
 43
0.0000000001
 40
0.0
 40
0.0
 40
0.0
 40
0.0
 40
1.0
 40
1.0
 40
1.0
 40
1.0
 10
-37.752500000000005
 20
57.4968
 30
0.0
 10
-37.752500000000005
 20
57.4968
 30
0.0
 10
-33.151800000000001
 20
59.402500000000003
 30
0.0
 10
-33.151800000000001
 20
59.402500000000003
 30
0.0
  0
SPLINE
  5
C0
100
AcDbEntity
  8
Layer 1
370
    20
100
AcDbSpline
210
0.0
220
0.0
230
1.0
 70
     0
 71
     3
 72
     8
 73
     4
 74
     0
 42
0.0000000001
 43
0.0000000001
 40
0.0
 40
0.0
 40
0.0
 40
0.0
 40
1.0
 40
1.0
 40
1.0
 40
1.0
 10
-33.151800000000001
 20
59.402500000000003
 30
0.0
 10
-33.151800000000001
 20
59.402500000000003
 30
0.0
 10
-29.2011
 20
62.434000000000005
 30
0.0
 10
-29.2011
 20
62.434000000000005
 30
0.0
  0
SPLINE
  5
C1
100
AcDbEntity
  8
Layer 1
370
    20
100
AcDbSpline
210
0.0
220
0.0
230
1.0
 70
     0
 71
     3
 72
     8
 73
     4
 74
     0
 42
0.0000000001
 43
0.0000000001
 40
0.0
 40
0.0
 40
0.0
 40
0.0
 40
1.0
 40
1.0
 40
1.0
 40
1.0
 10
-29.2011
 20
62.434000000000005
 30
0.0
 10
-29.2011
 20
62.434000000000005
 30
0.0
 10
-26.169600000000003
 20
66.384700000000009
 30
0.0
 10
-26.169600000000003
 20
66.384700000000009
 30
0.0
  0
SPLINE
  5
C2
100
AcDbEntity
  8
Layer 1
370
    20
100
AcDbSpline
210
0.0
220
0.0
230
1.0
 70
     0
 71
     3
 72
     8
 73
     4
 74
     0
 42
0.0000000001
 43
0.0000000001
 40
0.0
 40
0.0
 40
0.0
 40
0.0
 40
1.0
 40
1.0
 40
1.0
 40
1.0
 10
-26.169600000000003
 20
66.384700000000009
 30
0.0
 10
-26.169600000000003
 20
66.384700000000009
 30
0.0
 10
-24.2639
 20
70.985399999999998
 30
0.0
 10
-24.2639
 20
70.985399999999998
 30
0.0
  0
SPLINE
  5
C3
100
AcDbEntity
  8
Layer 1
370
    20
100
AcDbSpline
210
0.0
220
0.0
230
1.0
 70
     0
 71
     3
 72
     8
 73
     4
 74
     0
 42
0.0000000001
 43
0.0000000001
 40
0.0
 40
0.0
 40
0.0
 40
0.0
 40
1.0
 40
1.0
 40
1.0
 40
1.0
 10
-24.2639
 20
70.985399999999998
 30
0.0
 10
-24.2639
 20
70.985399999999998
 30
0.0
 10
-23.8125
 20
74.414100000000005
 30
0.0
 10
-23.8125
 20
74.414100000000005
 30
0.0
  0
SPLINE
  5
C4
100
AcDbEntity
  8
Layer 1
370
    20
100
AcDbSpline
210
0.0
220
0.0
230
1.0
 70
     0
 71
     3
 72
     8
 73
     4
 74
     0
 42
0.0000000001
 43
0.0000000001
 40
0.0
 40
0.0
 40
0.0
 40
0.0
 40
1.0
 40
1.0
 40
1.0
 40
1.0
 10
-93.741500000000002
 20
-29.644600000000001
 30
0.0
 10
-93.741500000000002
 20
-29.644600000000001
 30
0.0
 10
-101.2838
 20
-29.644600000000001
 30
0.0
 10
-101.2838
 20
-29.644600000000001
 30
0.0
  0
SPLINE
  5
C5
100
AcDbEntity
  8
Layer 1
370
    20
100
AcDbSpline
210
0.0
220
0.0
230
1.0
 70
     0
 71
     3
 72
     8
 73
     4
 74
     0
 42
0.0000000001
 43
0.0000000001
 40
0.0
 40
0.0
 40
0.0
 40
0.0
 40
1.0
 40
1.0
 40
1.0
 40
1.0
 10
-101.2838
 20
-29.644600000000001
 30
0.0
 10
-101.2838
 20
-29.644600000000001
 30
0.0
 10
-101.2838
 20
-32.661500000000004
 30
0.0
 10
-101.2838
 20
-32.661500000000004
 30
0.0
  0
SPLINE
  5
C6
100
AcDbEntity
  8
Layer 1
370
    20
100
AcDbSpline
210
0.0
220
0.0
230
1.0
 70
     0
 71
     3
 72
     8
 73
     4
 74
     0
 42
0.0000000001
 43
0.0000000001
 40
0.0
 40
0.0
 40
0.0
 40
0.0
 40
1.0
 40
1.0
 40
1.0
 40
1.0
 10
-101.2838
 20
-32.661500000000004
 30
0.0
 10
-101.2838
 20
-32.661500000000004
 30
0.0
 10
-98.266900000000007
 20
-32.661500000000004
 30
0.0
 10
-98.266900000000007
 20
-32.661500000000004
 30
0.0
  0
SPLINE
  5
C7
100
AcDbEntity
  8
Layer 1
370
    20
100
AcDbSpline
210
0.0
220
0.0
230
1.0
 70
     0
 71
     3
 72
     8
 73
     4
 74
     0
 42
0.0000000001
 43
0.0000000001
 40
0.0
 40
0.0
 40
0.0
 40
0.0
 40
1.0
 40
1.0
 40
1.0
 40
1.0
 10
-98.266900000000007
 20
-32.661500000000004
 30
0.0
 10
-98.266900000000007
 20
-32.661500000000004
 30
0.0
 10
-98.266900000000007
 20
-35.678400000000003
 30
0.0
 10
-98.266900000000007
 20
-35.678400000000003
 30
0.0
  0
SPLINE
  5
C8
100
AcDbEntity
  8
Layer 1
370
    20
100
AcDbSpline
210
0.0
220
0.0
230
1.0
 70
     0
 71
     3
 72
     8
 73
     4
 74
     0
 42
0.0000000001
 43
0.0000000001
 40
0.0
 40
0.0
 40
0.0
 40
0.0
 40
1.0
 40
1.0
 40
1.0
 40
1.0
 10
-98.266900000000007
 20
-35.678400000000003
 30
0.0
 10
-98.266900000000007
 20
-35.678400000000003
 30
0.0
 10
-99.775400000000005
 20
-35.678400000000003
 30
0.0
 10
-99.775400000000005
 20
-35.678400000000003
 30
0.0
  0
SPLINE
  5
C9
100
AcDbEntity
  8
Layer 1
370
    20
100
AcDbSpline
210
0.0
220
0.0
230
1.0
 70
     0
 71
     3
 72
     8
 73
     4
 74
     0
 42
0.0000000001
 43
0.0000000001
 40
0.0
 40
0.0
 40
0.0
 40
0.0
 40
1.0
 40
1.0
 40
1.0
 40
1.0
 10
-99.775400000000005
 20
-35.678400000000003
 30
0.0
 10
-99.775400000000005
 20
-35.678400000000003
 30
0.0
 10
-99.775400000000005
 20
-38.695300000000003
 30
0.0
 10
-99.775400000000005
 20
-38.695300000000003
 30
0.0
  0
SPLINE
  5
CA
100
AcDbEntity
  8
Layer 1
370
    20
100
AcDbSpline
210
0.0
220
0.0
230
1.0
 70
     0
 71
     3
 72
     8
 73
     4
 74
     0
 42
0.0000000001
 43
0.0000000001
 40
0.0
 40
0.0
 40
0.0
 40
0.0
 40
1.0
 40
1.0
 40
1.0
 40
1.0
 10
-99.775400000000005
 20
-38.695300000000003
 30
0.0
 10
-99.775400000000005
 20
-38.695300000000003
 30
0.0
 10
-98.266900000000007
 20
-38.695300000000003
 30
0.0
 10
-98.266900000000007
 20
-38.695300000000003
 30
0.0
  0
SPLINE
  5
CB
100
AcDbEntity
  8
Layer 1
370
    20
100
AcDbSpline
210
0.0
220
0.0
230
1.0
 70
     0
 71
     3
 72
     8
 73
     4
 74
     0
 42
0.0000000001
 43
0.0000000001
 40
0.0
 40
0.0
 40
0.0
 40
0.0
 40
1.0
 40
1.0
 40
1.0
 40
1.0
 10
-98.266900000000007
 20
-38.695300000000003
 30
0.0
 10
-98.266900000000007
 20
-38.695300000000003
 30
0.0
 10
-98.266900000000007
 20
-41.712200000000003
 30
0.0
 10
-98.266900000000007
 20
-41.712200000000003
 30
0.0
  0
SPLINE
  5
CC
100
AcDbEntity
  8
Layer 1
370
    20
100
AcDbSpline
210
0.0
220
0.0
230
1.0
 70
     0
 71
     3
 72
     8
 73
     4
 74
     0
 42
0.0000000001
 43
0.0000000001
 40
0.0
 40
0.0
 40
0.0
 40
0.0
 40
1.0
 40
1.0
 40
1.0
 40
1.0
 10
-98.266900000000007
 20
-41.712200000000003
 30
0.0
 10
-98.266900000000007
 20
-41.712200000000003
 30
0.0
 10
-101.2838
 20
-41.712200000000003
 30
0.0
 10
-101.2838
 20
-41.712200000000003
 30
0.0
  0
SPLINE
  5
CD
100
AcDbEntity
  8
Layer 1
370
    20
100
AcDbSpline
210
0.0
220
0.0
230
1.0
 70
     0
 71
     3
 72
     8
 73
     4
 74
     0
 42
0.0000000001
 43
0.0000000001
 40
0.0
 40
0.0
 40
0.0
 40
0.0
 40
1.0
 40
1.0
 40
1.0
 40
1.0
 10
-101.2838
 20
-41.712200000000003
 30
0.0
 10
-101.2838
 20
-41.712200000000003
 30
0.0
 10
-101.2838
 20
-44.729199999999999
 30
0.0
 10
-101.2838
 20
-44.729199999999999
 30
0.0
  0
SPLINE
  5
CE
100
AcDbEntity
  8
Layer 1
370
    20
100
AcDbSpline
210
0.0
220
0.0
230
1.0
 70
     0
 71
     3
 72
     8
 73
     4
 74
     0
 42
0.0000000001
 43
0.0000000001
 40
0.0
 40
0.0
 40
0.0
 40
0.0
 40
1.0
 40
1.0
 40
1.0
 40
1.0
 10
-101.2838
 20
-44.729199999999999
 30
0.0
 10
-101.2838
 20
-44.729199999999999
 30
0.0
 10
-93.741500000000002
 20
-44.729199999999999
 30
0.0
 10
-93.741500000000002
 20
-44.729199999999999
 30
0.0
  0
SPLINE
  5
CF
100
AcDbEntity
  8
Layer 1
370
    20
100
AcDbSpline
210
0.0
220
0.0
230
1.0
 70
     0
 71
     3
 72
     8
 73
     4
 74
     0
 42
0.0000000001
 43
0.0000000001
 40
0.0
 40
0.0
 40
0.0
 40
0.0
 40
1.0
 40
1.0
 40
1.0
 40
1.0
 10
-93.741500000000002
 20
-44.729199999999999
 30
0.0
 10
-93.741500000000002
 20
-44.729199999999999
 30
0.0
 10
-93.741500000000002
 20
-38.695300000000003
 30
0.0
 10
-93.741500000000002
 20
-38.695300000000003
 30
0.0
  0
SPLINE
  5
D0
100
AcDbEntity
  8
Layer 1
370
    20
100
AcDbSpline
210
0.0
220
0.0
230
1.0
 70
     0
 71
     3
 72
     8
 73
     4
 74
     0
 42
0.0000000001
 43
0.0000000001
 40
0.0
 40
0.0
 40
0.0
 40
0.0
 40
1.0
 40
1.0
 40
1.0
 40
1.0
 10
-93.741500000000002
 20
-38.695300000000003
 30
0.0
 10
-93.741500000000002
 20
-38.695300000000003
 30
0.0
 10
-95.25
 20
-38.695300000000003
 30
0.0
 10
-95.25
 20
-38.695300000000003
 30
0.0
  0
SPLINE
  5
D1
100
AcDbEntity
  8
Layer 1
370
    20
100
AcDbSpline
210
0.0
220
0.0
230
1.0
 70
     0
 71
     3
 72
     8
 73
     4
 74
     0
 42
0.0000000001
 43
0.0000000001
 40
0.0
 40
0.0
 40
0.0
 40
0.0
 40
1.0
 40
1.0
 40
1.0
 40
1.0
 10
-95.25
 20
-38.695300000000003
 30
0.0
 10
-95.25
 20
-38.695300000000003
 30
0.0
 10
-95.25
 20
-35.678400000000003
 30
0.0
 10
-95.25
 20
-35.678400000000003
 30
0.0
  0
SPLINE
  5
D2
100
AcDbEntity
  8
Layer 1
370
    20
100
AcDbSpline
210
0.0
220
0.0
230
1.0
 70
     0
 71
     3
 72
     8
 73
     4
 74
     0
 42
0.0000000001
 43
0.0000000001
 40
0.0
 40
0.0
 40
0.0
 40
0.0
 40
1.0
 40
1.0
 40
1.0
 40
1.0
 10
-95.25
 20
-35.678400000000003
 30
0.0
 10
-95.25
 20
-35.678400000000003
 30
0.0
 10
-93.741500000000002
 20
-35.678400000000003
 30
0.0
 10
-93.741500000000002
 20
-35.678400000000003
 30
0.0
  0
SPLINE
  5
D3
100
AcDbEntity
  8
Layer 1
370
    20
100
AcDbSpline
210
0.0
220
0.0
230
1.0
 70
     0
 71
     3
 72
     8
 73
     4
 74
     0
 42
0.0000000001
 43
0.0000000001
 40
0.0
 40
0.0
 40
0.0
 40
0.0
 40
1.0
 40
1.0
 40
1.0
 40
1.0
 10
-93.741500000000002
 20
-35.678400000000003
 30
0.0
 10
-93.741500000000002
 20
-35.678400000000003
 30
0.0
 10
-93.741500000000002
 20
-29.644600000000001
 30
0.0
 10
-93.741500000000002
 20
-29.644600000000001
 30
0.0
  0
SPLINE
  5
D4
100
AcDbEntity
  8
Layer 1
370
    20
100
AcDbSpline
210
0.0
220
0.0
230
1.0
 70
     0
 71
     3
 72
     8
 73
     4
 74
     0
 42
0.0000000001
 43
0.0000000001
 40
0.0
 40
0.0
 40
0.0
 40
0.0
 40
1.0
 40
1.0
 40
1.0
 40
1.0
 10
-52.969799999999999
 20
111.9898
 30
0.0
 10
-52.969799999999999
 20
111.9898
 30
0.0
 10
-52.969799999999999
 20
115.00680000000001
 30
0.0
 10
-52.969799999999999
 20
115.00680000000001
 30
0.0
  0
SPLINE
  5
D5
100
AcDbEntity
  8
Layer 1
370
    20
100
AcDbSpline
210
0.0
220
0.0
230
1.0
 70
     0
 71
     3
 72
     8
 73
     4
 74
     0
 42
0.0000000001
 43
0.0000000001
 40
0.0
 40
0.0
 40
0.0
 40
0.0
 40
1.0
 40
1.0
 40
1.0
 40
1.0
 10
-52.969799999999999
 20
115.00680000000001
 30
0.0
 10
-52.969799999999999
 20
115.00680000000001
 30
0.0
 10
-40.264900000000004
 20
115.00680000000001
 30
0.0
 10
-40.264900000000004
 20
115.00680000000001
 30
0.0
  0
SPLINE
  5
D6
100
AcDbEntity
  8
Layer 1
370
    20
100
AcDbSpline
210
0.0
220
0.0
230
1.0
 70
     0
 71
     3
 72
     8
 73
     4
 74
     0
 42
0.0000000001
 43
0.0000000001
 40
0.0
 40
0.0
 40
0.0
 40
0.0
 40
1.0
 40
1.0
 40
1.0
 40
1.0
 10
-40.264900000000004
 20
115.00680000000001
 30
0.0
 10
-40.264900000000004
 20
115.00680000000001
 30
0.0
 10
-40.945700000000002
 20
120.17760000000001
 30
0.0
 10
-40.945700000000002
 20
120.17760000000001
 30
0.0
  0
SPLINE
  5
D7
100
AcDbEntity
  8
Layer 1
370
    20
100
AcDbSpline
210
0.0
220
0.0
230
1.0
 70
     0
 71
     3
 72
     8
 73
     4
 74
     0
 42
0.0000000001
 43
0.0000000001
 40
0.0
 40
0.0
 40
0.0
 40
0.0
 40
1.0
 40
1.0
 40
1.0
 40
1.0
 10
-40.945700000000002
 20
120.17760000000001
 30
0.0
 10
-40.945700000000002
 20
120.17760000000001
 30
0.0
 10
-43.523800000000001
 20
126.40180000000001
 30
0.0
 10
-43.523800000000001
 20
126.40180000000001
 30
0.0
  0
SPLINE
  5
D8
100
AcDbEntity
  8
Layer 1
370
    20
100
AcDbSpline
210
0.0
220
0.0
230
1.0
 70
     0
 71
     3
 72
     8
 73
     4
 74
     0
 42
0.0000000001
 43
0.0000000001
 40
0.0
 40
0.0
 40
0.0
 40
0.0
 40
1.0
 40
1.0
 40
1.0
 40
1.0
 10
-43.523800000000001
 20
126.40180000000001
 30
0.0
 10
-43.523800000000001
 20
126.40180000000001
 30
0.0
 10
-47.625
 20
131.7466
 30
0.0
 10
-47.625
 20
131.7466
 30
0.0
  0
SPLINE
  5
D9
100
AcDbEntity
  8
Layer 1
370
    20
100
AcDbSpline
210
0.0
220
0.0
230
1.0
 70
     0
 71
     3
 72
     8
 73
     4
 74
     0
 42
0.0000000001
 43
0.0000000001
 40
0.0
 40
0.0
 40
0.0
 40
0.0
 40
1.0
 40
1.0
 40
1.0
 40
1.0
 10
-47.625
 20
131.7466
 30
0.0
 10
-47.625
 20
131.7466
 30
0.0
 10
-52.969799999999999
 20
135.84780000000001
 30
0.0
 10
-52.969799999999999
 20
135.84780000000001
 30
0.0
  0
SPLINE
  5
DA
100
AcDbEntity
  8
Layer 1
370
    20
100
AcDbSpline
210
0.0
220
0.0
230
1.0
 70
     0
 71
     3
 72
     8
 73
     4
 74
     0
 42
0.0000000001
 43
0.0000000001
 40
0.0
 40
0.0
 40
0.0
 40
0.0
 40
1.0
 40
1.0
 40
1.0
 40
1.0
 10
-52.969799999999999
 20
135.84780000000001
 30
0.0
 10
-52.969799999999999
 20
135.84780000000001
 30
0.0
 10
-59.193899999999999
 20
138.42590000000001
 30
0.0
 10
-59.193899999999999
 20
138.42590000000001
 30
0.0
  0
SPLINE
  5
DB
100
AcDbEntity
  8
Layer 1
370
    20
100
AcDbSpline
210
0.0
220
0.0
230
1.0
 70
     0
 71
     3
 72
     8
 73
     4
 74
     0
 42
0.0000000001
 43
0.0000000001
 40
0.0
 40
0.0
 40
0.0
 40
0.0
 40
1.0
 40
1.0
 40
1.0
 40
1.0
 10
-59.193899999999999
 20
138.42590000000001
 30
0.0
 10
-59.193899999999999
 20
138.42590000000001
 30
0.0
 10
-65.8733
 20
139.30520000000001
 30
0.0
 10
-65.8733
 20
139.30520000000001
 30
0.0
  0
SPLINE
  5
DC
100
AcDbEntity
  8
Layer 1
370
    20
100
AcDbSpline
210
0.0
220
0.0
230
1.0
 70
     0
 71
     3
 72
     8
 73
     4
 74
     0
 42
0.0000000001
 43
0.0000000001
 40
0.0
 40
0.0
 40
0.0
 40
0.0
 40
1.0
 40
1.0
 40
1.0
 40
1.0
 10
-65.8733
 20
139.30520000000001
 30
0.0
 10
-65.8733
 20
139.30520000000001
 30
0.0
 10
-65.8733
 20
87.691299999999998
 30
0.0
 10
-65.8733
 20
87.691299999999998
 30
0.0
  0
SPLINE
  5
DD
100
AcDbEntity
  8
Layer 1
370
    20
100
AcDbSpline
210
0.0
220
0.0
230
1.0
 70
     0
 71
     3
 72
     8
 73
     4
 74
     0
 42
0.0000000001
 43
0.0000000001
 40
0.0
 40
0.0
 40
0.0
 40
0.0
 40
1.0
 40
1.0
 40
1.0
 40
1.0
 10
-65.8733
 20
87.691299999999998
 30
0.0
 10
-65.8733
 20
87.691299999999998
 30
0.0
 10
-59.193899999999999
 20
88.570700000000002
 30
0.0
 10
-59.193899999999999
 20
88.570700000000002
 30
0.0
  0
SPLINE
  5
DE
100
AcDbEntity
  8
Layer 1
370
    20
100
AcDbSpline
210
0.0
220
0.0
230
1.0
 70
     0
 71
     3
 72
     8
 73
     4
 74
     0
 42
0.0000000001
 43
0.0000000001
 40
0.0
 40
0.0
 40
0.0
 40
0.0
 40
1.0
 40
1.0
 40
1.0
 40
1.0
 10
-59.193899999999999
 20
88.570700000000002
 30
0.0
 10
-59.193899999999999
 20
88.570700000000002
 30
0.0
 10
-52.969799999999999
 20
91.148800000000008
 30
0.0
 10
-52.969799999999999
 20
91.148800000000008
 30
0.0
  0
SPLINE
  5
DF
100
AcDbEntity
  8
Layer 1
370
    20
100
AcDbSpline
210
0.0
220
0.0
230
1.0
 70
     0
 71
     3
 72
     8
 73
     4
 74
     0
 42
0.0000000001
 43
0.0000000001
 40
0.0
 40
0.0
 40
0.0
 40
0.0
 40
1.0
 40
1.0
 40
1.0
 40
1.0
 10
-52.969799999999999
 20
91.148800000000008
 30
0.0
 10
-52.969799999999999
 20
91.148800000000008
 30
0.0
 10
-47.625
 20
95.25
 30
0.0
 10
-47.625
 20
95.25
 30
0.0
  0
SPLINE
  5
E0
100
AcDbEntity
  8
Layer 1
370
    20
100
AcDbSpline
210
0.0
220
0.0
230
1.0
 70
     0
 71
     3
 72
     8
 73
     4
 74
     0
 42
0.0000000001
 43
0.0000000001
 40
0.0
 40
0.0
 40
0.0
 40
0.0
 40
1.0
 40
1.0
 40
1.0
 40
1.0
 10
-47.625
 20
95.25
 30
0.0
 10
-47.625
 20
95.25
 30
0.0
 10
-43.523800000000001
 20
100.59480000000001
 30
0.0
 10
-43.523800000000001
 20
100.59480000000001
 30
0.0
  0
SPLINE
  5
E1
100
AcDbEntity
  8
Layer 1
370
    20
100
AcDbSpline
210
0.0
220
0.0
230
1.0
 70
     0
 71
     3
 72
     8
 73
     4
 74
     0
 42
0.0000000001
 43
0.0000000001
 40
0.0
 40
0.0
 40
0.0
 40
0.0
 40
1.0
 40
1.0
 40
1.0
 40
1.0
 10
-43.523800000000001
 20
100.59480000000001
 30
0.0
 10
-43.523800000000001
 20
100.59480000000001
 30
0.0
 10
-40.945700000000002
 20
106.819
 30
0.0
 10
-40.945700000000002
 20
106.819
 30
0.0
  0
SPLINE
  5
E2
100
AcDbEntity
  8
Layer 1
370
    20
100
AcDbSpline
210
0.0
220
0.0
230
1.0
 70
     0
 71
     3
 72
     8
 73
     4
 74
     0
 42
0.0000000001
 43
0.0000000001
 40
0.0
 40
0.0
 40
0.0
 40
0.0
 40
1.0
 40
1.0
 40
1.0
 40
1.0
 10
-40.945700000000002
 20
106.819
 30
0.0
 10
-40.945700000000002
 20
106.819
 30
0.0
 10
-40.264900000000004
 20
111.9898
 30
0.0
 10
-40.264900000000004
 20
111.9898
 30
0.0
  0
SPLINE
  5
E3
100
AcDbEntity
  8
Layer 1
370
    20
100
AcDbSpline
210
0.0
220
0.0
230
1.0
 70
     0
 71
     3
 72
     8
 73
     4
 74
     0
 42
0.0000000001
 43
0.0000000001
 40
0.0
 40
0.0
 40
0.0
 40
0.0
 40
1.0
 40
1.0
 40
1.0
 40
1.0
 10
-40.264900000000004
 20
111.9898
 30
0.0
 10
-40.264900000000004
 20
111.9898
 30
0.0
 10
-52.969799999999999
 20
111.9898
 30
0.0
 10
-52.969799999999999
 20
111.9898
 30
0.0
  0
SPLINE
  5
E4
100
AcDbEntity
  8
Layer 1
370
    20
100
AcDbSpline
210
0.0
220
0.0
230
1.0
 70
     0
 71
     3
 72
     8
 73
     4
 74
     0
 42
0.0000000001
 43
0.0000000001
 40
0.0
 40
0.0
 40
0.0
 40
0.0
 40
1.0
 40
1.0
 40
1.0
 40
1.0
 10
-139.8963
 20
91.972300000000004
 30
0.0
 10
-139.8963
 20
91.972300000000004
 30
0.0
 10
-126.9928
 20
91.972300000000004
 30
0.0
 10
-126.9928
 20
91.972300000000004
 30
0.0
  0
SPLINE
  5
E5
100
AcDbEntity
  8
Layer 1
370
    20
100
AcDbSpline
210
0.0
220
0.0
230
1.0
 70
     0
 71
     3
 72
     8
 73
     4
 74
     0
 42
0.0000000001
 43
0.0000000001
 40
0.0
 40
0.0
 40
0.0
 40
0.0
 40
1.0
 40
1.0
 40
1.0
 40
1.0
 10
-126.9928
 20
91.972300000000004
 30
0.0
 10
-126.9928
 20
91.972300000000004
 30
0.0
 10
-126.9928
 20
88.955399999999997
 30
0.0
 10
-126.9928
 20
88.955399999999997
 30
0.0
  0
SPLINE
  5
E6
100
AcDbEntity
  8
Layer 1
370
    20
100
AcDbSpline
210
0.0
220
0.0
230
1.0
 70
     0
 71
     3
 72
     8
 73
     4
 74
     0
 42
0.0000000001
 43
0.0000000001
 40
0.0
 40
0.0
 40
0.0
 40
0.0
 40
1.0
 40
1.0
 40
1.0
 40
1.0
 10
-126.9928
 20
88.955399999999997
 30
0.0
 10
-126.9928
 20
88.955399999999997
 30
0.0
 10
-139.8963
 20
88.955399999999997
 30
0.0
 10
-139.8963
 20
88.955399999999997
 30
0.0
  0
SPLINE
  5
E7
100
AcDbEntity
  8
Layer 1
370
    20
100
AcDbSpline
210
0.0
220
0.0
230
1.0
 70
     0
 71
     3
 72
     8
 73
     4
 74
     0
 42
0.0000000001
 43
0.0000000001
 40
0.0
 40
0.0
 40
0.0
 40
0.0
 40
1.0
 40
1.0
 40
1.0
 40
1.0
 10
-139.8963
 20
88.955399999999997
 30
0.0
 10
-139.8963
 20
88.955399999999997
 30
0.0
 10
-139.8963
 20
32.181699999999999
 30
0.0
 10
-139.8963
 20
32.181699999999999
 30
0.0
  0
SPLINE
  5
E8
100
AcDbEntity
  8
Layer 1
370
    20
100
AcDbSpline
210
0.0
220
0.0
230
1.0
 70
     0
 71
     3
 72
     8
 73
     4
 74
     0
 42
0.0000000001
 43
0.0000000001
 40
0.0
 40
0.0
 40
0.0
 40
0.0
 40
1.0
 40
1.0
 40
1.0
 40
1.0
 10
-139.8963
 20
32.181699999999999
 30
0.0
 10
-139.8963
 20
32.181699999999999
 30
0.0
 10
-116.66340000000001
 20
32.181699999999999
 30
0.0
 10
-116.66340000000001
 20
32.181699999999999
 30
0.0
  0
SPLINE
  5
E9
100
AcDbEntity
  8
Layer 1
370
    20
100
AcDbSpline
210
0.0
220
0.0
230
1.0
 70
     0
 71
     3
 72
     8
 73
     4
 74
     0
 42
0.0000000001
 43
0.0000000001
 40
0.0
 40
0.0
 40
0.0
 40
0.0
 40
1.0
 40
1.0
 40
1.0
 40
1.0
 10
-116.66340000000001
 20
32.181699999999999
 30
0.0
 10
-116.66340000000001
 20
32.181699999999999
 30
0.0
 10
-116.66340000000001
 20
29.164800000000003
 30
0.0
 10
-116.66340000000001
 20
29.164800000000003
 30
0.0
  0
SPLINE
  5
EA
100
AcDbEntity
  8
Layer 1
370
    20
100
AcDbSpline
210
0.0
220
0.0
230
1.0
 70
     0
 71
     3
 72
     8
 73
     4
 74
     0
 42
0.0000000001
 43
0.0000000001
 40
0.0
 40
0.0
 40
0.0
 40
0.0
 40
1.0
 40
1.0
 40
1.0
 40
1.0
 10
-116.66340000000001
 20
29.164800000000003
 30
0.0
 10
-116.66340000000001
 20
29.164800000000003
 30
0.0
 10
-139.8963
 20
29.164800000000003
 30
0.0
 10
-139.8963
 20
29.164800000000003
 30
0.0
  0
SPLINE
  5
EB
100
AcDbEntity
  8
Layer 1
370
    20
100
AcDbSpline
210
0.0
220
0.0
230
1.0
 70
     0
 71
     3
 72
     8
 73
     4
 74
     0
 42
0.0000000001
 43
0.0000000001
 40
0.0
 40
0.0
 40
0.0
 40
0.0
 40
1.0
 40
1.0
 40
1.0
 40
1.0
 10
-139.8963
 20
29.164800000000003
 30
0.0
 10
-139.8963
 20
29.164800000000003
 30
0.0
 10
-139.8963
 20
-86.549800000000005
 30
0.0
 10
-139.8963
 20
-86.549800000000005
 30
0.0
  0
SPLINE
  5
EC
100
AcDbEntity
  8
Layer 1
370
    20
100
AcDbSpline
210
0.0
220
0.0
230
1.0
 70
     0
 71
     3
 72
     8
 73
     4
 74
     0
 42
0.0000000001
 43
0.0000000001
 40
0.0
 40
0.0
 40
0.0
 40
0.0
 40
1.0
 40
1.0
 40
1.0
 40
1.0
 10
-139.8963
 20
-86.549800000000005
 30
0.0
 10
-139.8963
 20
-86.549800000000005
 30
0.0
 10
-130.35840000000002
 20
-86.549800000000005
 30
0.0
 10
-130.35840000000002
 20
-86.549800000000005
 30
0.0
  0
SPLINE
  5
ED
100
AcDbEntity
  8
Layer 1
370
    20
100
AcDbSpline
210
0.0
220
0.0
230
1.0
 70
     0
 71
     3
 72
     8
 73
     4
 74
     0
 42
0.0000000001
 43
0.0000000001
 40
0.0
 40
0.0
 40
0.0
 40
0.0
 40
1.0
 40
1.0
 40
1.0
 40
1.0
 10
-130.35840000000002
 20
-86.549800000000005
 30
0.0
 10
-130.35840000000002
 20
-86.549800000000005
 30
0.0
 10
-130.35840000000002
 20
-89.566699999999997
 30
0.0
 10
-130.35840000000002
 20
-89.566699999999997
 30
0.0
  0
SPLINE
  5
EE
100
AcDbEntity
  8
Layer 1
370
    20
100
AcDbSpline
210
0.0
220
0.0
230
1.0
 70
     0
 71
     3
 72
     8
 73
     4
 74
     0
 42
0.0000000001
 43
0.0000000001
 40
0.0
 40
0.0
 40
0.0
 40
0.0
 40
1.0
 40
1.0
 40
1.0
 40
1.0
 10
-130.35840000000002
 20
-89.566699999999997
 30
0.0
 10
-130.35840000000002
 20
-89.566699999999997
 30
0.0
 10
-139.8963
 20
-89.566699999999997
 30
0.0
 10
-139.8963
 20
-89.566699999999997
 30
0.0
  0
SPLINE
  5
EF
100
AcDbEntity
  8
Layer 1
370
    20
100
AcDbSpline
210
0.0
220
0.0
230
1.0
 70
     0
 71
     3
 72
     8
 73
     4
 74
     0
 42
0.0000000001
 43
0.0000000001
 40
0.0
 40
0.0
 40
0.0
 40
0.0
 40
1.0
 40
1.0
 40
1.0
 40
1.0
 10
-139.8963
 20
-89.566699999999997
 30
0.0
 10
-139.8963
 20
-89.566699999999997
 30
0.0
 10
-139.8963
 20
-107.13390000000001
 30
0.0
 10
-139.8963
 20
-107.13390000000001
 30
0.0
  0
SPLINE
  5
F0
100
AcDbEntity
  8
Layer 1
370
    20
100
AcDbSpline
210
0.0
220
0.0
230
1.0
 70
     0
 71
     3
 72
     8
 73
     4
 74
     0
 42
0.0000000001
 43
0.0000000001
 40
0.0
 40
0.0
 40
0.0
 40
0.0
 40
1.0
 40
1.0
 40
1.0
 40
1.0
 10
-139.8963
 20
-107.13390000000001
 30
0.0
 10
-139.8963
 20
-107.13390000000001
 30
0.0
 10
-134.95910000000001
 20
-106.48400000000001
 30
0.0
 10
-134.95910000000001
 20
-106.48400000000001
 30
0.0
  0
SPLINE
  5
F1
100
AcDbEntity
  8
Layer 1
370
    20
100
AcDbSpline
210
0.0
220
0.0
230
1.0
 70
     0
 71
     3
 72
     8
 73
     4
 74
     0
 42
0.0000000001
 43
0.0000000001
 40
0.0
 40
0.0
 40
0.0
 40
0.0
 40
1.0
 40
1.0
 40
1.0
 40
1.0
 10
-134.95910000000001
 20
-106.48400000000001
 30
0.0
 10
-134.95910000000001
 20
-106.48400000000001
 30
0.0
 10
-130.35840000000002
 20
-104.5783
 30
0.0
 10
-130.35840000000002
 20
-104.5783
 30
0.0
  0
SPLINE
  5
F2
100
AcDbEntity
  8
Layer 1
370
    20
100
AcDbSpline
210
0.0
220
0.0
230
1.0
 70
     0
 71
     3
 72
     8
 73
     4
 74
     0
 42
0.0000000001
 43
0.0000000001
 40
0.0
 40
0.0
 40
0.0
 40
0.0
 40
1.0
 40
1.0
 40
1.0
 40
1.0
 10
-130.35840000000002
 20
-104.5783
 30
0.0
 10
-130.35840000000002
 20
-104.5783
 30
0.0
 10
-126.40770000000001
 20
-101.5468
 30
0.0
 10
-126.40770000000001
 20
-101.5468
 30
0.0
  0
SPLINE
  5
F3
100
AcDbEntity
  8
Layer 1
370
    20
100
AcDbSpline
210
0.0
220
0.0
230
1.0
 70
     0
 71
     3
 72
     8
 73
     4
 74
     0
 42
0.0000000001
 43
0.0000000001
 40
0.0
 40
0.0
 40
0.0
 40
0.0
 40
1.0
 40
1.0
 40
1.0
 40
1.0
 10
-126.40770000000001
 20
-101.5468
 30
0.0
 10
-126.40770000000001
 20
-101.5468
 30
0.0
 10
-123.37620000000001
 20
-97.596100000000007
 30
0.0
 10
-123.37620000000001
 20
-97.596100000000007
 30
0.0
  0
SPLINE
  5
F4
100
AcDbEntity
  8
Layer 1
370
    20
100
AcDbSpline
210
0.0
220
0.0
230
1.0
 70
     0
 71
     3
 72
     8
 73
     4
 74
     0
 42
0.0000000001
 43
0.0000000001
 40
0.0
 40
0.0
 40
0.0
 40
0.0
 40
1.0
 40
1.0
 40
1.0
 40
1.0
 10
-123.37620000000001
 20
-97.596100000000007
 30
0.0
 10
-123.37620000000001
 20
-97.596100000000007
 30
0.0
 10
-121.4706
 20
-92.995400000000004
 30
0.0
 10
-121.4706
 20
-92.995400000000004
 30
0.0
  0
SPLINE
  5
F5
100
AcDbEntity
  8
Layer 1
370
    20
100
AcDbSpline
210
0.0
220
0.0
230
1.0
 70
     0
 71
     3
 72
     8
 73
     4
 74
     0
 42
0.0000000001
 43
0.0000000001
 40
0.0
 40
0.0
 40
0.0
 40
0.0
 40
1.0
 40
1.0
 40
1.0
 40
1.0
 10
-121.4706
 20
-92.995400000000004
 30
0.0
 10
-121.4706
 20
-92.995400000000004
 30
0.0
 10
-121.01920000000001
 20
-89.566699999999997
 30
0.0
 10
-121.01920000000001
 20
-89.566699999999997
 30
0.0
  0
SPLINE
  5
F6
100
AcDbEntity
  8
Layer 1
370
    20
100
AcDbSpline
210
0.0
220
0.0
230
1.0
 70
     0
 71
     3
 72
     8
 73
     4
 74
     0
 42
0.0000000001
 43
0.0000000001
 40
0.0
 40
0.0
 40
0.0
 40
0.0
 40
1.0
 40
1.0
 40
1.0
 40
1.0
 10
-121.01920000000001
 20
-89.566699999999997
 30
0.0
 10
-121.01920000000001
 20
-89.566699999999997
 30
0.0
 10
-120.8206
 20
-88.058300000000003
 30
0.0
 10
-120.8206
 20
-88.058300000000003
 30
0.0
  0
SPLINE
  5
F7
100
AcDbEntity
  8
Layer 1
370
    20
100
AcDbSpline
210
0.0
220
0.0
230
1.0
 70
     0
 71
     3
 72
     8
 73
     4
 74
     0
 42
0.0000000001
 43
0.0000000001
 40
0.0
 40
0.0
 40
0.0
 40
0.0
 40
1.0
 40
1.0
 40
1.0
 40
1.0
 10
-120.8206
 20
-88.058300000000003
 30
0.0
 10
-120.8206
 20
-88.058300000000003
 30
0.0
 10
-121.01920000000001
 20
-86.549800000000005
 30
0.0
 10
-121.01920000000001
 20
-86.549800000000005
 30
0.0
  0
SPLINE
  5
F8
100
AcDbEntity
  8
Layer 1
370
    20
100
AcDbSpline
210
0.0
220
0.0
230
1.0
 70
     0
 71
     3
 72
     8
 73
     4
 74
     0
 42
0.0000000001
 43
0.0000000001
 40
0.0
 40
0.0
 40
0.0
 40
0.0
 40
1.0
 40
1.0
 40
1.0
 40
1.0
 10
-121.01920000000001
 20
-86.549800000000005
 30
0.0
 10
-121.01920000000001
 20
-86.549800000000005
 30
0.0
 10
-121.4706
 20
-83.121099999999998
 30
0.0
 10
-121.4706
 20
-83.121099999999998
 30
0.0
  0
SPLINE
  5
F9
100
AcDbEntity
  8
Layer 1
370
    20
100
AcDbSpline
210
0.0
220
0.0
230
1.0
 70
     0
 71
     3
 72
     8
 73
     4
 74
     0
 42
0.0000000001
 43
0.0000000001
 40
0.0
 40
0.0
 40
0.0
 40
0.0
 40
1.0
 40
1.0
 40
1.0
 40
1.0
 10
-121.4706
 20
-83.121099999999998
 30
0.0
 10
-121.4706
 20
-83.121099999999998
 30
0.0
 10
-123.37620000000001
 20
-78.520400000000009
 30
0.0
 10
-123.37620000000001
 20
-78.520400000000009
 30
0.0
  0
SPLINE
  5
FA
100
AcDbEntity
  8
Layer 1
370
    20
100
AcDbSpline
210
0.0
220
0.0
230
1.0
 70
     0
 71
     3
 72
     8
 73
     4
 74
     0
 42
0.0000000001
 43
0.0000000001
 40
0.0
 40
0.0
 40
0.0
 40
0.0
 40
1.0
 40
1.0
 40
1.0
 40
1.0
 10
-123.37620000000001
 20
-78.520400000000009
 30
0.0
 10
-123.37620000000001
 20
-78.520400000000009
 30
0.0
 10
-126.40770000000001
 20
-74.569699999999997
 30
0.0
 10
-126.40770000000001
 20
-74.569699999999997
 30
0.0
  0
SPLINE
  5
FB
100
AcDbEntity
  8
Layer 1
370
    20
100
AcDbSpline
210
0.0
220
0.0
230
1.0
 70
     0
 71
     3
 72
     8
 73
     4
 74
     0
 42
0.0000000001
 43
0.0000000001
 40
0.0
 40
0.0
 40
0.0
 40
0.0
 40
1.0
 40
1.0
 40
1.0
 40
1.0
 10
-126.40770000000001
 20
-74.569699999999997
 30
0.0
 10
-126.40770000000001
 20
-74.569699999999997
 30
0.0
 10
-124.29570000000001
 20
-74.207000000000008
 30
0.0
 10
-124.29570000000001
 20
-74.207000000000008
 30
0.0
  0
SPLINE
  5
FC
100
AcDbEntity
  8
Layer 1
370
    20
100
AcDbSpline
210
0.0
220
0.0
230
1.0
 70
     0
 71
     3
 72
     8
 73
     4
 74
     0
 42
0.0000000001
 43
0.0000000001
 40
0.0
 40
0.0
 40
0.0
 40
0.0
 40
1.0
 40
1.0
 40
1.0
 40
1.0
 10
-124.29570000000001
 20
-74.207000000000008
 30
0.0
 10
-124.29570000000001
 20
-74.207000000000008
 30
0.0
 10
-122.34950000000001
 20
-73.310000000000002
 30
0.0
 10
-122.34950000000001
 20
-73.310000000000002
 30
0.0
  0
SPLINE
  5
FD
100
AcDbEntity
  8
Layer 1
370
    20
100
AcDbSpline
210
0.0
220
0.0
230
1.0
 70
     0
 71
     3
 72
     8
 73
     4
 74
     0
 42
0.0000000001
 43
0.0000000001
 40
0.0
 40
0.0
 40
0.0
 40
0.0
 40
1.0
 40
1.0
 40
1.0
 40
1.0
 10
-122.34950000000001
 20
-73.310000000000002
 30
0.0
 10
-122.34950000000001
 20
-73.310000000000002
 30
0.0
 10
-120.70180000000001
 20
-71.939800000000005
 30
0.0
 10
-120.70180000000001
 20
-71.939800000000005
 30
0.0
  0
SPLINE
  5
FE
100
AcDbEntity
  8
Layer 1
370
    20
100
AcDbSpline
210
0.0
220
0.0
230
1.0
 70
     0
 71
     3
 72
     8
 73
     4
 74
     0
 42
0.0000000001
 43
0.0000000001
 40
0.0
 40
0.0
 40
0.0
 40
0.0
 40
1.0
 40
1.0
 40
1.0
 40
1.0
 10
-120.70180000000001
 20
-71.939800000000005
 30
0.0
 10
-120.70180000000001
 20
-71.939800000000005
 30
0.0
 10
-119.46480000000001
 20
-70.189999999999998
 30
0.0
 10
-119.46480000000001
 20
-70.189999999999998
 30
0.0
  0
SPLINE
  5
FF
100
AcDbEntity
  8
Layer 1
370
    20
100
AcDbSpline
210
0.0
220
0.0
230
1.0
 70
     0
 71
     3
 72
     8
 73
     4
 74
     0
 42
0.0000000001
 43
0.0000000001
 40
0.0
 40
0.0
 40
0.0
 40
0.0
 40
1.0
 40
1.0
 40
1.0
 40
1.0
 10
-119.46480000000001
 20
-70.189999999999998
 30
0.0
 10
-119.46480000000001
 20
-70.189999999999998
 30
0.0
 10
-118.72290000000001
 20
-68.179500000000004
 30
0.0
 10
-118.72290000000001
 20
-68.179500000000004
 30
0.0
  0
SPLINE
  5
100
100
AcDbEntity
  8
Layer 1
370
    20
100
AcDbSpline
210
0.0
220
0.0
230
1.0
 70
     0
 71
     3
 72
     8
 73
     4
 74
     0
 42
0.0000000001
 43
0.0000000001
 40
0.0
 40
0.0
 40
0.0
 40
0.0
 40
1.0
 40
1.0
 40
1.0
 40
1.0
 10
-118.72290000000001
 20
-68.179500000000004
 30
0.0
 10
-118.72290000000001
 20
-68.179500000000004
 30
0.0
 10
-118.5266
 20
-66.045600000000007
 30
0.0
 10
-118.5266
 20
-66.045600000000007
 30
0.0
  0
SPLINE
  5
101
100
AcDbEntity
  8
Layer 1
370
    20
100
AcDbSpline
210
0.0
220
0.0
230
1.0
 70
     0
 71
     3
 72
     8
 73
     4
 74
     0
 42
0.0000000001
 43
0.0000000001
 40
0.0
 40
0.0
 40
0.0
 40
0.0
 40
1.0
 40
1.0
 40
1.0
 40
1.0
 10
-118.5266
 20
-66.045600000000007
 30
0.0
 10
-118.5266
 20
-66.045600000000007
 30
0.0
 10
-118.88930000000001
 20
-63.933500000000002
 30
0.0
 10
-118.88930000000001
 20
-63.933500000000002
 30
0.0
  0
SPLINE
  5
102
100
AcDbEntity
  8
Layer 1
370
    20
100
AcDbSpline
210
0.0
220
0.0
230
1.0
 70
     0
 71
     3
 72
     8
 73
     4
 74
     0
 42
0.0000000001
 43
0.0000000001
 40
0.0
 40
0.0
 40
0.0
 40
0.0
 40
1.0
 40
1.0
 40
1.0
 40
1.0
 10
-118.88930000000001
 20
-63.933500000000002
 30
0.0
 10
-118.88930000000001
 20
-63.933500000000002
 30
0.0
 10
-119.77520000000001
 20
-62.011500000000005
 30
0.0
 10
-119.77520000000001
 20
-62.011500000000005
 30
0.0
  0
SPLINE
  5
103
100
AcDbEntity
  8
Layer 1
370
    20
100
AcDbSpline
210
0.0
220
0.0
230
1.0
 70
     0
 71
     3
 72
     8
 73
     4
 74
     0
 42
0.0000000001
 43
0.0000000001
 40
0.0
 40
0.0
 40
0.0
 40
0.0
 40
1.0
 40
1.0
 40
1.0
 40
1.0
 10
-119.77520000000001
 20
-62.011500000000005
 30
0.0
 10
-119.77520000000001
 20
-62.011500000000005
 30
0.0
 10
-119.7209
 20
-61.977500000000006
 30
0.0
 10
-119.7209
 20
-61.977500000000006
 30
0.0
  0
SPLINE
  5
104
100
AcDbEntity
  8
Layer 1
370
    20
100
AcDbSpline
210
0.0
220
0.0
230
1.0
 70
     0
 71
     3
 72
     8
 73
     4
 74
     0
 42
0.0000000001
 43
0.0000000001
 40
0.0
 40
0.0
 40
0.0
 40
0.0
 40
1.0
 40
1.0
 40
1.0
 40
1.0
 10
-119.7209
 20
-61.977500000000006
 30
0.0
 10
-119.7209
 20
-61.977500000000006
 30
0.0
 10
-114.08750000000001
 20
-55.9236
 30
0.0
 10
-114.08750000000001
 20
-55.9236
 30
0.0
  0
SPLINE
  5
105
100
AcDbEntity
  8
Layer 1
370
    20
100
AcDbSpline
210
0.0
220
0.0
230
1.0
 70
     0
 71
     3
 72
     8
 73
     4
 74
     0
 42
0.0000000001
 43
0.0000000001
 40
0.0
 40
0.0
 40
0.0
 40
0.0
 40
1.0
 40
1.0
 40
1.0
 40
1.0
 10
-114.08750000000001
 20
-55.9236
 30
0.0
 10
-114.08750000000001
 20
-55.9236
 30
0.0
 10
-110.21300000000001
 20
-48.617899999999999
 30
0.0
 10
-110.21300000000001
 20
-48.617899999999999
 30
0.0
  0
SPLINE
  5
106
100
AcDbEntity
  8
Layer 1
370
    20
100
AcDbSpline
210
0.0
220
0.0
230
1.0
 70
     0
 71
     3
 72
     8
 73
     4
 74
     0
 42
0.0000000001
 43
0.0000000001
 40
0.0
 40
0.0
 40
0.0
 40
0.0
 40
1.0
 40
1.0
 40
1.0
 40
1.0
 10
-110.21300000000001
 20
-48.617899999999999
 30
0.0
 10
-110.21300000000001
 20
-48.617899999999999
 30
0.0
 10
-108.3613
 20
-40.558399999999999
 30
0.0
 10
-108.3613
 20
-40.558399999999999
 30
0.0
  0
SPLINE
  5
107
100
AcDbEntity
  8
Layer 1
370
    20
100
AcDbSpline
210
0.0
220
0.0
230
1.0
 70
     0
 71
     3
 72
     8
 73
     4
 74
     0
 42
0.0000000001
 43
0.0000000001
 40
0.0
 40
0.0
 40
0.0
 40
0.0
 40
1.0
 40
1.0
 40
1.0
 40
1.0
 10
-108.3613
 20
-40.558399999999999
 30
0.0
 10
-108.3613
 20
-40.558399999999999
 30
0.0
 10
-108.65860000000001
 20
-32.294200000000004
 30
0.0
 10
-108.65860000000001
 20
-32.294200000000004
 30
0.0
  0
SPLINE
  5
108
100
AcDbEntity
  8
Layer 1
370
    20
100
AcDbSpline
210
0.0
220
0.0
230
1.0
 70
     0
 71
     3
 72
     8
 73
     4
 74
     0
 42
0.0000000001
 43
0.0000000001
 40
0.0
 40
0.0
 40
0.0
 40
0.0
 40
1.0
 40
1.0
 40
1.0
 40
1.0
 10
-108.65860000000001
 20
-32.294200000000004
 30
0.0
 10
-108.65860000000001
 20
-32.294200000000004
 30
0.0
 10
-111.0848
 20
-24.388500000000001
 30
0.0
 10
-111.0848
 20
-24.388500000000001
 30
0.0
  0
SPLINE
  5
109
100
AcDbEntity
  8
Layer 1
370
    20
100
AcDbSpline
210
0.0
220
0.0
230
1.0
 70
     0
 71
     3
 72
     8
 73
     4
 74
     0
 42
0.0000000001
 43
0.0000000001
 40
0.0
 40
0.0
 40
0.0
 40
0.0
 40
1.0
 40
1.0
 40
1.0
 40
1.0
 10
-111.0848
 20
-24.388500000000001
 30
0.0
 10
-111.0848
 20
-24.388500000000001
 30
0.0
 10
-114.92110000000001
 20
-18.263500000000001
 30
0.0
 10
-114.92110000000001
 20
-18.263500000000001
 30
0.0
  0
SPLINE
  5
10A
100
AcDbEntity
  8
Layer 1
370
    20
100
AcDbSpline
210
0.0
220
0.0
230
1.0
 70
     0
 71
     3
 72
     8
 73
     4
 74
     0
 42
0.0000000001
 43
0.0000000001
 40
0.0
 40
0.0
 40
0.0
 40
0.0
 40
1.0
 40
1.0
 40
1.0
 40
1.0
 10
-114.92110000000001
 20
-18.263500000000001
 30
0.0
 10
-114.92110000000001
 20
-18.263500000000001
 30
0.0
 10
-113.3999
 20
-16.159300000000002
 30
0.0
 10
-113.3999
 20
-16.159300000000002
 30
0.0
  0
SPLINE
  5
10B
100
AcDbEntity
  8
Layer 1
370
    20
100
AcDbSpline
210
0.0
220
0.0
230
1.0
 70
     0
 71
     3
 72
     8
 73
     4
 74
     0
 42
0.0000000001
 43
0.0000000001
 40
0.0
 40
0.0
 40
0.0
 40
0.0
 40
1.0
 40
1.0
 40
1.0
 40
1.0
 10
-113.3999
 20
-16.159300000000002
 30
0.0
 10
-113.3999
 20
-16.159300000000002
 30
0.0
 10
-112.2778
 20
-13.2156
 30
0.0
 10
-112.2778
 20
-13.2156
 30
0.0
  0
SPLINE
  5
10C
100
AcDbEntity
  8
Layer 1
370
    20
100
AcDbSpline
210
0.0
220
0.0
230
1.0
 70
     0
 71
     3
 72
     8
 73
     4
 74
     0
 42
0.0000000001
 43
0.0000000001
 40
0.0
 40
0.0
 40
0.0
 40
0.0
 40
1.0
 40
1.0
 40
1.0
 40
1.0
 10
-112.2778
 20
-13.2156
 30
0.0
 10
-112.2778
 20
-13.2156
 30
0.0
 10
-111.9559
 20
-10.081800000000001
 30
0.0
 10
-111.9559
 20
-10.081800000000001
 30
0.0
  0
SPLINE
  5
10D
100
AcDbEntity
  8
Layer 1
370
    20
100
AcDbSpline
210
0.0
220
0.0
230
1.0
 70
     0
 71
     3
 72
     8
 73
     4
 74
     0
 42
0.0000000001
 43
0.0000000001
 40
0.0
 40
0.0
 40
0.0
 40
0.0
 40
1.0
 40
1.0
 40
1.0
 40
1.0
 10
-111.9559
 20
-10.081800000000001
 30
0.0
 10
-111.9559
 20
-10.081800000000001
 30
0.0
 10
-112.08290000000001
 20
-9.2923000000000009
 30
0.0
 10
-112.08290000000001
 20
-9.2923000000000009
 30
0.0
  0
SPLINE
  5
10E
100
AcDbEntity
  8
Layer 1
370
    20
100
AcDbSpline
210
0.0
220
0.0
230
1.0
 70
     0
 71
     3
 72
     8
 73
     4
 74
     0
 42
0.0000000001
 43
0.0000000001
 40
0.0
 40
0.0
 40
0.0
 40
0.0
 40
1.0
 40
1.0
 40
1.0
 40
1.0
 10
-112.08290000000001
 20
-9.2923000000000009
 30
0.0
 10
-112.08290000000001
 20
-9.2923000000000009
 30
0.0
 10
-110.83080000000001
 20
-9.9886999999999997
 30
0.0
 10
-110.83080000000001
 20
-9.9886999999999997
 30
0.0
  0
SPLINE
  5
10F
100
AcDbEntity
  8
Layer 1
370
    20
100
AcDbSpline
210
0.0
220
0.0
230
1.0
 70
     0
 71
     3
 72
     8
 73
     4
 74
     0
 42
0.0000000001
 43
0.0000000001
 40
0.0
 40
0.0
 40
0.0
 40
0.0
 40
1.0
 40
1.0
 40
1.0
 40
1.0
 10
-110.83080000000001
 20
-9.9886999999999997
 30
0.0
 10
-110.83080000000001
 20
-9.9886999999999997
 30
0.0
 10
-106.515
 20
-11.071300000000001
 30
0.0
 10
-106.515
 20
-11.071300000000001
 30
0.0
  0
SPLINE
  5
110
100
AcDbEntity
  8
Layer 1
370
    20
100
AcDbSpline
210
0.0
220
0.0
230
1.0
 70
     0
 71
     3
 72
     8
 73
     4
 74
     0
 42
0.0000000001
 43
0.0000000001
 40
0.0
 40
0.0
 40
0.0
 40
0.0
 40
1.0
 40
1.0
 40
1.0
 40
1.0
 10
-106.515
 20
-11.071300000000001
 30
0.0
 10
-106.515
 20
-11.071300000000001
 30
0.0
 10
-102.06610000000001
 20
-11.0
 30
0.0
 10
-102.06610000000001
 20
-11.0
 30
0.0
  0
SPLINE
  5
111
100
AcDbEntity
  8
Layer 1
370
    20
100
AcDbSpline
210
0.0
220
0.0
230
1.0
 70
     0
 71
     3
 72
     8
 73
     4
 74
     0
 42
0.0000000001
 43
0.0000000001
 40
0.0
 40
0.0
 40
0.0
 40
0.0
 40
1.0
 40
1.0
 40
1.0
 40
1.0
 10
-102.06610000000001
 20
-11.0
 30
0.0
 10
-102.06610000000001
 20
-11.0
 30
0.0
 10
-97.787199999999999
 20
-9.7797000000000001
 30
0.0
 10
-97.787199999999999
 20
-9.7797000000000001
 30
0.0
  0
SPLINE
  5
112
100
AcDbEntity
  8
Layer 1
370
    20
100
AcDbSpline
210
0.0
220
0.0
230
1.0
 70
     0
 71
     3
 72
     8
 73
     4
 74
     0
 42
0.0000000001
 43
0.0000000001
 40
0.0
 40
0.0
 40
0.0
 40
0.0
 40
1.0
 40
1.0
 40
1.0
 40
1.0
 10
-97.787199999999999
 20
-9.7797000000000001
 30
0.0
 10
-97.787199999999999
 20
-9.7797000000000001
 30
0.0
 10
-93.96990000000001
 20
-7.4934000000000003
 30
0.0
 10
-93.96990000000001
 20
-7.4934000000000003
 30
0.0
  0
SPLINE
  5
113
100
AcDbEntity
  8
Layer 1
370
    20
100
AcDbSpline
210
0.0
220
0.0
230
1.0
 70
     0
 71
     3
 72
     8
 73
     4
 74
     0
 42
0.0000000001
 43
0.0000000001
 40
0.0
 40
0.0
 40
0.0
 40
0.0
 40
1.0
 40
1.0
 40
1.0
 40
1.0
 10
-93.96990000000001
 20
-7.4934000000000003
 30
0.0
 10
-93.96990000000001
 20
-7.4934000000000003
 30
0.0
 10
-90.874499999999998
 20
-4.2971000000000004
 30
0.0
 10
-90.874499999999998
 20
-4.2971000000000004
 30
0.0
  0
SPLINE
  5
114
100
AcDbEntity
  8
Layer 1
370
    20
100
AcDbSpline
210
0.0
220
0.0
230
1.0
 70
     0
 71
     3
 72
     8
 73
     4
 74
     0
 42
0.0000000001
 43
0.0000000001
 40
0.0
 40
0.0
 40
0.0
 40
0.0
 40
1.0
 40
1.0
 40
1.0
 40
1.0
 10
-90.874499999999998
 20
-4.2971000000000004
 30
0.0
 10
-90.874499999999998
 20
-4.2971000000000004
 30
0.0
 10
-88.711700000000008
 20
-0.4086
 30
0.0
 10
-88.711700000000008
 20
-0.4086
 30
0.0
  0
SPLINE
  5
115
100
AcDbEntity
  8
Layer 1
370
    20
100
AcDbSpline
210
0.0
220
0.0
230
1.0
 70
     0
 71
     3
 72
     8
 73
     4
 74
     0
 42
0.0000000001
 43
0.0000000001
 40
0.0
 40
0.0
 40
0.0
 40
0.0
 40
1.0
 40
1.0
 40
1.0
 40
1.0
 10
-88.711700000000008
 20
-0.4086
 30
0.0
 10
-88.711700000000008
 20
-0.4086
 30
0.0
 10
-87.629100000000008
 20
3.9072
 30
0.0
 10
-87.629100000000008
 20
3.9072
 30
0.0
  0
SPLINE
  5
116
100
AcDbEntity
  8
Layer 1
370
    20
100
AcDbSpline
210
0.0
220
0.0
230
1.0
 70
     0
 71
     3
 72
     8
 73
     4
 74
     0
 42
0.0000000001
 43
0.0000000001
 40
0.0
 40
0.0
 40
0.0
 40
0.0
 40
1.0
 40
1.0
 40
1.0
 40
1.0
 10
-87.629100000000008
 20
3.9072
 30
0.0
 10
-87.629100000000008
 20
3.9072
 30
0.0
 10
-87.700400000000002
 20
8.3560999999999996
 30
0.0
 10
-87.700400000000002
 20
8.3560999999999996
 30
0.0
  0
SPLINE
  5
117
100
AcDbEntity
  8
Layer 1
370
    20
100
AcDbSpline
210
0.0
220
0.0
230
1.0
 70
     0
 71
     3
 72
     8
 73
     4
 74
     0
 42
0.0000000001
 43
0.0000000001
 40
0.0
 40
0.0
 40
0.0
 40
0.0
 40
1.0
 40
1.0
 40
1.0
 40
1.0
 10
-87.700400000000002
 20
8.3560999999999996
 30
0.0
 10
-87.700400000000002
 20
8.3560999999999996
 30
0.0
 10
-88.4786
 20
11.0846
 30
0.0
 10
-88.4786
 20
11.0846
 30
0.0
  0
SPLINE
  5
118
100
AcDbEntity
  8
Layer 1
370
    20
100
AcDbSpline
210
0.0
220
0.0
230
1.0
 70
     0
 71
     3
 72
     8
 73
     4
 74
     0
 42
0.0000000001
 43
0.0000000001
 40
0.0
 40
0.0
 40
0.0
 40
0.0
 40
1.0
 40
1.0
 40
1.0
 40
1.0
 10
-88.4786
 20
11.0846
 30
0.0
 10
-88.4786
 20
11.0846
 30
0.0
 10
-85.33120000000001
 20
11.6418
 30
0.0
 10
-85.33120000000001
 20
11.6418
 30
0.0
  0
SPLINE
  5
119
100
AcDbEntity
  8
Layer 1
370
    20
100
AcDbSpline
210
0.0
220
0.0
230
1.0
 70
     0
 71
     3
 72
     8
 73
     4
 74
     0
 42
0.0000000001
 43
0.0000000001
 40
0.0
 40
0.0
 40
0.0
 40
0.0
 40
1.0
 40
1.0
 40
1.0
 40
1.0
 10
-85.33120000000001
 20
11.6418
 30
0.0
 10
-85.33120000000001
 20
11.6418
 30
0.0
 10
-80.923100000000005
 20
11.899600000000001
 30
0.0
 10
-80.923100000000005
 20
11.899600000000001
 30
0.0
  0
SPLINE
  5
11A
100
AcDbEntity
  8
Layer 1
370
    20
100
AcDbSpline
210
0.0
220
0.0
230
1.0
 70
     0
 71
     3
 72
     8
 73
     4
 74
     0
 42
0.0000000001
 43
0.0000000001
 40
0.0
 40
0.0
 40
0.0
 40
0.0
 40
1.0
 40
1.0
 40
1.0
 40
1.0
 10
-80.923100000000005
 20
11.899600000000001
 30
0.0
 10
-80.923100000000005
 20
11.899600000000001
 30
0.0
 10
-80.957000000000008
 20
11.6418
 30
0.0
 10
-80.957000000000008
 20
11.6418
 30
0.0
  0
SPLINE
  5
11B
100
AcDbEntity
  8
Layer 1
370
    20
100
AcDbSpline
210
0.0
220
0.0
230
1.0
 70
     0
 71
     3
 72
     8
 73
     4
 74
     0
 42
0.0000000001
 43
0.0000000001
 40
0.0
 40
0.0
 40
0.0
 40
0.0
 40
1.0
 40
1.0
 40
1.0
 40
1.0
 10
-80.957000000000008
 20
11.6418
 30
0.0
 10
-80.957000000000008
 20
11.6418
 30
0.0
 10
-80.648600000000002
 20
9.2994000000000003
 30
0.0
 10
-80.648600000000002
 20
9.2994000000000003
 30
0.0
  0
SPLINE
  5
11C
100
AcDbEntity
  8
Layer 1
370
    20
100
AcDbSpline
210
0.0
220
0.0
230
1.0
 70
     0
 71
     3
 72
     8
 73
     4
 74
     0
 42
0.0000000001
 43
0.0000000001
 40
0.0
 40
0.0
 40
0.0
 40
0.0
 40
1.0
 40
1.0
 40
1.0
 40
1.0
 10
-80.648600000000002
 20
9.2994000000000003
 30
0.0
 10
-80.648600000000002
 20
9.2994000000000003
 30
0.0
 10
-79.744399999999999
 20
7.1165000000000003
 30
0.0
 10
-79.744399999999999
 20
7.1165000000000003
 30
0.0
  0
SPLINE
  5
11D
100
AcDbEntity
  8
Layer 1
370
    20
100
AcDbSpline
210
0.0
220
0.0
230
1.0
 70
     0
 71
     3
 72
     8
 73
     4
 74
     0
 42
0.0000000001
 43
0.0000000001
 40
0.0
 40
0.0
 40
0.0
 40
0.0
 40
1.0
 40
1.0
 40
1.0
 40
1.0
 10
-79.744399999999999
 20
7.1165000000000003
 30
0.0
 10
-79.744399999999999
 20
7.1165000000000003
 30
0.0
 10
-78.306100000000001
 20
5.242
 30
0.0
 10
-78.306100000000001
 20
5.242
 30
0.0
  0
SPLINE
  5
11E
100
AcDbEntity
  8
Layer 1
370
    20
100
AcDbSpline
210
0.0
220
0.0
230
1.0
 70
     0
 71
     3
 72
     8
 73
     4
 74
     0
 42
0.0000000001
 43
0.0000000001
 40
0.0
 40
0.0
 40
0.0
 40
0.0
 40
1.0
 40
1.0
 40
1.0
 40
1.0
 10
-78.306100000000001
 20
5.242
 30
0.0
 10
-78.306100000000001
 20
5.242
 30
0.0
 10
-76.431600000000003
 20
3.8037000000000001
 30
0.0
 10
-76.431600000000003
 20
3.8037000000000001
 30
0.0
  0
SPLINE
  5
11F
100
AcDbEntity
  8
Layer 1
370
    20
100
AcDbSpline
210
0.0
220
0.0
230
1.0
 70
     0
 71
     3
 72
     8
 73
     4
 74
     0
 42
0.0000000001
 43
0.0000000001
 40
0.0
 40
0.0
 40
0.0
 40
0.0
 40
1.0
 40
1.0
 40
1.0
 40
1.0
 10
-76.431600000000003
 20
3.8037000000000001
 30
0.0
 10
-76.431600000000003
 20
3.8037000000000001
 30
0.0
 10
-74.248699999999999
 20
2.8995000000000002
 30
0.0
 10
-74.248699999999999
 20
2.8995000000000002
 30
0.0
  0
SPLINE
  5
120
100
AcDbEntity
  8
Layer 1
370
    20
100
AcDbSpline
210
0.0
220
0.0
230
1.0
 70
     0
 71
     3
 72
     8
 73
     4
 74
     0
 42
0.0000000001
 43
0.0000000001
 40
0.0
 40
0.0
 40
0.0
 40
0.0
 40
1.0
 40
1.0
 40
1.0
 40
1.0
 10
-74.248699999999999
 20
2.8995000000000002
 30
0.0
 10
-74.248699999999999
 20
2.8995000000000002
 30
0.0
 10
-71.906199999999998
 20
2.5911
 30
0.0
 10
-71.906199999999998
 20
2.5911
 30
0.0
  0
SPLINE
  5
121
100
AcDbEntity
  8
Layer 1
370
    20
100
AcDbSpline
210
0.0
220
0.0
230
1.0
 70
     0
 71
     3
 72
     8
 73
     4
 74
     0
 42
0.0000000001
 43
0.0000000001
 40
0.0
 40
0.0
 40
0.0
 40
0.0
 40
1.0
 40
1.0
 40
1.0
 40
1.0
 10
-71.906199999999998
 20
2.5911
 30
0.0
 10
-71.906199999999998
 20
2.5911
 30
0.0
 10
-69.563699999999997
 20
2.8995000000000002
 30
0.0
 10
-69.563699999999997
 20
2.8995000000000002
 30
0.0
  0
SPLINE
  5
122
100
AcDbEntity
  8
Layer 1
370
    20
100
AcDbSpline
210
0.0
220
0.0
230
1.0
 70
     0
 71
     3
 72
     8
 73
     4
 74
     0
 42
0.0000000001
 43
0.0000000001
 40
0.0
 40
0.0
 40
0.0
 40
0.0
 40
1.0
 40
1.0
 40
1.0
 40
1.0
 10
-69.563699999999997
 20
2.8995000000000002
 30
0.0
 10
-69.563699999999997
 20
2.8995000000000002
 30
0.0
 10
-67.380899999999997
 20
3.8037000000000001
 30
0.0
 10
-67.380899999999997
 20
3.8037000000000001
 30
0.0
  0
SPLINE
  5
123
100
AcDbEntity
  8
Layer 1
370
    20
100
AcDbSpline
210
0.0
220
0.0
230
1.0
 70
     0
 71
     3
 72
     8
 73
     4
 74
     0
 42
0.0000000001
 43
0.0000000001
 40
0.0
 40
0.0
 40
0.0
 40
0.0
 40
1.0
 40
1.0
 40
1.0
 40
1.0
 10
-67.380899999999997
 20
3.8037000000000001
 30
0.0
 10
-67.380899999999997
 20
3.8037000000000001
 30
0.0
 10
-65.506399999999999
 20
5.242
 30
0.0
 10
-65.506399999999999
 20
5.242
 30
0.0
  0
SPLINE
  5
124
100
AcDbEntity
  8
Layer 1
370
    20
100
AcDbSpline
210
0.0
220
0.0
230
1.0
 70
     0
 71
     3
 72
     8
 73
     4
 74
     0
 42
0.0000000001
 43
0.0000000001
 40
0.0
 40
0.0
 40
0.0
 40
0.0
 40
1.0
 40
1.0
 40
1.0
 40
1.0
 10
-65.506399999999999
 20
5.242
 30
0.0
 10
-65.506399999999999
 20
5.242
 30
0.0
 10
-64.067999999999998
 20
7.1165000000000003
 30
0.0
 10
-64.067999999999998
 20
7.1165000000000003
 30
0.0
  0
SPLINE
  5
125
100
AcDbEntity
  8
Layer 1
370
    20
100
AcDbSpline
210
0.0
220
0.0
230
1.0
 70
     0
 71
     3
 72
     8
 73
     4
 74
     0
 42
0.0000000001
 43
0.0000000001
 40
0.0
 40
0.0
 40
0.0
 40
0.0
 40
1.0
 40
1.0
 40
1.0
 40
1.0
 10
-64.067999999999998
 20
7.1165000000000003
 30
0.0
 10
-64.067999999999998
 20
7.1165000000000003
 30
0.0
 10
-63.163900000000005
 20
9.2994000000000003
 30
0.0
 10
-63.163900000000005
 20
9.2994000000000003
 30
0.0
  0
SPLINE
  5
126
100
AcDbEntity
  8
Layer 1
370
    20
100
AcDbSpline
210
0.0
220
0.0
230
1.0
 70
     0
 71
     3
 72
     8
 73
     4
 74
     0
 42
0.0000000001
 43
0.0000000001
 40
0.0
 40
0.0
 40
0.0
 40
0.0
 40
1.0
 40
1.0
 40
1.0
 40
1.0
 10
-63.163900000000005
 20
9.2994000000000003
 30
0.0
 10
-63.163900000000005
 20
9.2994000000000003
 30
0.0
 10
-63.096400000000003
 20
9.8117000000000001
 30
0.0
 10
-63.096400000000003
 20
9.8117000000000001
 30
0.0
  0
SPLINE
  5
127
100
AcDbEntity
  8
Layer 1
370
    20
100
AcDbSpline
210
0.0
220
0.0
230
1.0
 70
     0
 71
     3
 72
     8
 73
     4
 74
     0
 42
0.0000000001
 43
0.0000000001
 40
0.0
 40
0.0
 40
0.0
 40
0.0
 40
1.0
 40
1.0
 40
1.0
 40
1.0
 10
-63.096400000000003
 20
9.8117000000000001
 30
0.0
 10
-63.096400000000003
 20
9.8117000000000001
 30
0.0
 10
-58.8459
 20
8.5339000000000009
 30
0.0
 10
-58.8459
 20
8.5339000000000009
 30
0.0
  0
SPLINE
  5
128
100
AcDbEntity
  8
Layer 1
370
    20
100
AcDbSpline
210
0.0
220
0.0
230
1.0
 70
     0
 71
     3
 72
     8
 73
     4
 74
     0
 42
0.0000000001
 43
0.0000000001
 40
0.0
 40
0.0
 40
0.0
 40
0.0
 40
1.0
 40
1.0
 40
1.0
 40
1.0
 10
-58.8459
 20
8.5339000000000009
 30
0.0
 10
-58.8459
 20
8.5339000000000009
 30
0.0
 10
-52.676100000000005
 20
5.8609
 30
0.0
 10
-52.676100000000005
 20
5.8609
 30
0.0
  0
SPLINE
  5
129
100
AcDbEntity
  8
Layer 1
370
    20
100
AcDbSpline
210
0.0
220
0.0
230
1.0
 70
     0
 71
     3
 72
     8
 73
     4
 74
     0
 42
0.0000000001
 43
0.0000000001
 40
0.0
 40
0.0
 40
0.0
 40
0.0
 40
1.0
 40
1.0
 40
1.0
 40
1.0
 10
-52.676100000000005
 20
5.8609
 30
0.0
 10
-52.676100000000005
 20
5.8609
 30
0.0
 10
-46.859900000000003
 20
2.4870000000000001
 30
0.0
 10
-46.859900000000003
 20
2.4870000000000001
 30
0.0
  0
SPLINE
  5
12A
100
AcDbEntity
  8
Layer 1
370
    20
100
AcDbSpline
210
0.0
220
0.0
230
1.0
 70
     0
 71
     3
 72
     8
 73
     4
 74
     0
 42
0.0000000001
 43
0.0000000001
 40
0.0
 40
0.0
 40
0.0
 40
0.0
 40
1.0
 40
1.0
 40
1.0
 40
1.0
 10
-46.859900000000003
 20
2.4870000000000001
 30
0.0
 10
-46.859900000000003
 20
2.4870000000000001
 30
0.0
 10
-41.476500000000001
 20
-1.5418000000000001
 30
0.0
 10
-41.476500000000001
 20
-1.5418000000000001
 30
0.0
  0
SPLINE
  5
12B
100
AcDbEntity
  8
Layer 1
370
    20
100
AcDbSpline
210
0.0
220
0.0
230
1.0
 70
     0
 71
     3
 72
     8
 73
     4
 74
     0
 42
0.0000000001
 43
0.0000000001
 40
0.0
 40
0.0
 40
0.0
 40
0.0
 40
1.0
 40
1.0
 40
1.0
 40
1.0
 10
-41.476500000000001
 20
-1.5418000000000001
 30
0.0
 10
-41.476500000000001
 20
-1.5418000000000001
 30
0.0
 10
-38.501100000000001
 20
-4.0413000000000006
 30
0.0
 10
-38.501100000000001
 20
-4.0413000000000006
 30
0.0
  0
SPLINE
  5
12C
100
AcDbEntity
  8
Layer 1
370
    20
100
AcDbSpline
210
0.0
220
0.0
230
1.0
 70
     0
 71
     3
 72
     8
 73
     4
 74
     0
 42
0.0000000001
 43
0.0000000001
 40
0.0
 40
0.0
 40
0.0
 40
0.0
 40
1.0
 40
1.0
 40
1.0
 40
1.0
 10
-38.501100000000001
 20
-4.0413000000000006
 30
0.0
 10
-38.501100000000001
 20
-4.0413000000000006
 30
0.0
 10
-32.308800000000005
 20
-9.6829999999999998
 30
0.0
 10
-32.308800000000005
 20
-9.6829999999999998
 30
0.0
  0
SPLINE
  5
12D
100
AcDbEntity
  8
Layer 1
370
    20
100
AcDbSpline
210
0.0
220
0.0
230
1.0
 70
     0
 71
     3
 72
     8
 73
     4
 74
     0
 42
0.0000000001
 43
0.0000000001
 40
0.0
 40
0.0
 40
0.0
 40
0.0
 40
1.0
 40
1.0
 40
1.0
 40
1.0
 10
-32.308800000000005
 20
-9.6829999999999998
 30
0.0
 10
-32.308800000000005
 20
-9.6829999999999998
 30
0.0
 10
-26.348200000000002
 20
-15.569100000000001
 30
0.0
 10
-26.348200000000002
 20
-15.569100000000001
 30
0.0
  0
SPLINE
  5
12E
100
AcDbEntity
  8
Layer 1
370
    20
100
AcDbSpline
210
0.0
220
0.0
230
1.0
 70
     0
 71
     3
 72
     8
 73
     4
 74
     0
 42
0.0000000001
 43
0.0000000001
 40
0.0
 40
0.0
 40
0.0
 40
0.0
 40
1.0
 40
1.0
 40
1.0
 40
1.0
 10
-26.348200000000002
 20
-15.569100000000001
 30
0.0
 10
-26.348200000000002
 20
-15.569100000000001
 30
0.0
 10
-20.629100000000001
 20
-21.690000000000001
 30
0.0
 10
-20.629100000000001
 20
-21.690000000000001
 30
0.0
  0
SPLINE
  5
12F
100
AcDbEntity
  8
Layer 1
370
    20
100
AcDbSpline
210
0.0
220
0.0
230
1.0
 70
     0
 71
     3
 72
     8
 73
     4
 74
     0
 42
0.0000000001
 43
0.0000000001
 40
0.0
 40
0.0
 40
0.0
 40
0.0
 40
1.0
 40
1.0
 40
1.0
 40
1.0
 10
-20.629100000000001
 20
-21.690000000000001
 30
0.0
 10
-20.629100000000001
 20
-21.690000000000001
 30
0.0
 10
-15.160600000000001
 20
-28.035800000000002
 30
0.0
 10
-15.160600000000001
 20
-28.035800000000002
 30
0.0
  0
SPLINE
  5
130
100
AcDbEntity
  8
Layer 1
370
    20
100
AcDbSpline
210
0.0
220
0.0
230
1.0
 70
     0
 71
     3
 72
     8
 73
     4
 74
     0
 42
0.0000000001
 43
0.0000000001
 40
0.0
 40
0.0
 40
0.0
 40
0.0
 40
1.0
 40
1.0
 40
1.0
 40
1.0
 10
-15.160600000000001
 20
-28.035800000000002
 30
0.0
 10
-15.160600000000001
 20
-28.035800000000002
 30
0.0
 10
-9.9517000000000007
 20
-34.596299999999999
 30
0.0
 10
-9.9517000000000007
 20
-34.596299999999999
 30
0.0
  0
SPLINE
  5
131
100
AcDbEntity
  8
Layer 1
370
    20
100
AcDbSpline
210
0.0
220
0.0
230
1.0
 70
     0
 71
     3
 72
     8
 73
     4
 74
     0
 42
0.0000000001
 43
0.0000000001
 40
0.0
 40
0.0
 40
0.0
 40
0.0
 40
1.0
 40
1.0
 40
1.0
 40
1.0
 10
-9.9517000000000007
 20
-34.596299999999999
 30
0.0
 10
-9.9517000000000007
 20
-34.596299999999999
 30
0.0
 10
-5.0106000000000002
 20
-41.361000000000004
 30
0.0
 10
-5.0106000000000002
 20
-41.361000000000004
 30
0.0
  0
SPLINE
  5
132
100
AcDbEntity
  8
Layer 1
370
    20
100
AcDbSpline
210
0.0
220
0.0
230
1.0
 70
     0
 71
     3
 72
     8
 73
     4
 74
     0
 42
0.0000000001
 43
0.0000000001
 40
0.0
 40
0.0
 40
0.0
 40
0.0
 40
1.0
 40
1.0
 40
1.0
 40
1.0
 10
-5.0106000000000002
 20
-41.361000000000004
 30
0.0
 10
-5.0106000000000002
 20
-41.361000000000004
 30
0.0
 10
-0.3455
 20
-48.318800000000003
 30
0.0
 10
-0.3455
 20
-48.318800000000003
 30
0.0
  0
SPLINE
  5
133
100
AcDbEntity
  8
Layer 1
370
    20
100
AcDbSpline
210
0.0
220
0.0
230
1.0
 70
     0
 71
     3
 72
     8
 73
     4
 74
     0
 42
0.0000000001
 43
0.0000000001
 40
0.0
 40
0.0
 40
0.0
 40
0.0
 40
1.0
 40
1.0
 40
1.0
 40
1.0
 10
-0.3455
 20
-48.318800000000003
 30
0.0
 10
-0.3455
 20
-48.318800000000003
 30
0.0
 10
4.0362
 20
-55.458400000000005
 30
0.0
 10
4.0362
 20
-55.458400000000005
 30
0.0
  0
SPLINE
  5
134
100
AcDbEntity
  8
Layer 1
370
    20
100
AcDbSpline
210
0.0
220
0.0
230
1.0
 70
     0
 71
     3
 72
     8
 73
     4
 74
     0
 42
0.0000000001
 43
0.0000000001
 40
0.0
 40
0.0
 40
0.0
 40
0.0
 40
1.0
 40
1.0
 40
1.0
 40
1.0
 10
4.0362
 20
-55.458400000000005
 30
0.0
 10
4.0362
 20
-55.458400000000005
 30
0.0
 10
4.4931999999999999
 20
-56.054000000000002
 30
0.0
 10
4.4931999999999999
 20
-56.054000000000002
 30
0.0
  0
SPLINE
  5
135
100
AcDbEntity
  8
Layer 1
370
    20
100
AcDbSpline
210
0.0
220
0.0
230
1.0
 70
     0
 71
     3
 72
     8
 73
     4
 74
     0
 42
0.0000000001
 43
0.0000000001
 40
0.0
 40
0.0
 40
0.0
 40
0.0
 40
1.0
 40
1.0
 40
1.0
 40
1.0
 10
4.4931999999999999
 20
-56.054000000000002
 30
0.0
 10
4.4931999999999999
 20
-56.054000000000002
 30
0.0
 10
5.0887000000000002
 20
-56.510899999999999
 30
0.0
 10
5.0887000000000002
 20
-56.510899999999999
 30
0.0
  0
SPLINE
  5
136
100
AcDbEntity
  8
Layer 1
370
    20
100
AcDbSpline
210
0.0
220
0.0
230
1.0
 70
     0
 71
     3
 72
     8
 73
     4
 74
     0
 42
0.0000000001
 43
0.0000000001
 40
0.0
 40
0.0
 40
0.0
 40
0.0
 40
1.0
 40
1.0
 40
1.0
 40
1.0
 10
5.0887000000000002
 20
-56.510899999999999
 30
0.0
 10
5.0887000000000002
 20
-56.510899999999999
 30
0.0
 10
5.7822000000000005
 20
-56.798200000000001
 30
0.0
 10
5.7822000000000005
 20
-56.798200000000001
 30
0.0
  0
SPLINE
  5
137
100
AcDbEntity
  8
Layer 1
370
    20
100
AcDbSpline
210
0.0
220
0.0
230
1.0
 70
     0
 71
     3
 72
     8
 73
     4
 74
     0
 42
0.0000000001
 43
0.0000000001
 40
0.0
 40
0.0
 40
0.0
 40
0.0
 40
1.0
 40
1.0
 40
1.0
 40
1.0
 10
5.7822000000000005
 20
-56.798200000000001
 30
0.0
 10
5.7822000000000005
 20
-56.798200000000001
 30
0.0
 10
6.5264000000000006
 20
-56.8962
 30
0.0
 10
6.5264000000000006
 20
-56.8962
 30
0.0
  0
SPLINE
  5
138
100
AcDbEntity
  8
Layer 1
370
    20
100
AcDbSpline
210
0.0
220
0.0
230
1.0
 70
     0
 71
     3
 72
     8
 73
     4
 74
     0
 42
0.0000000001
 43
0.0000000001
 40
0.0
 40
0.0
 40
0.0
 40
0.0
 40
1.0
 40
1.0
 40
1.0
 40
1.0
 10
6.5264000000000006
 20
-56.8962
 30
0.0
 10
6.5264000000000006
 20
-56.8962
 30
0.0
 10
7.2707000000000006
 20
-56.798200000000001
 30
0.0
 10
7.2707000000000006
 20
-56.798200000000001
 30
0.0
  0
SPLINE
  5
139
100
AcDbEntity
  8
Layer 1
370
    20
100
AcDbSpline
210
0.0
220
0.0
230
1.0
 70
     0
 71
     3
 72
     8
 73
     4
 74
     0
 42
0.0000000001
 43
0.0000000001
 40
0.0
 40
0.0
 40
0.0
 40
0.0
 40
1.0
 40
1.0
 40
1.0
 40
1.0
 10
7.2707000000000006
 20
-56.798200000000001
 30
0.0
 10
7.2707000000000006
 20
-56.798200000000001
 30
0.0
 10
7.9641999999999999
 20
-56.510899999999999
 30
0.0
 10
7.9641999999999999
 20
-56.510899999999999
 30
0.0
  0
SPLINE
  5
13A
100
AcDbEntity
  8
Layer 1
370
    20
100
AcDbSpline
210
0.0
220
0.0
230
1.0
 70
     0
 71
     3
 72
     8
 73
     4
 74
     0
 42
0.0000000001
 43
0.0000000001
 40
0.0
 40
0.0
 40
0.0
 40
0.0
 40
1.0
 40
1.0
 40
1.0
 40
1.0
 10
7.9641999999999999
 20
-56.510899999999999
 30
0.0
 10
7.9641999999999999
 20
-56.510899999999999
 30
0.0
 10
8.5597000000000012
 20
-56.054000000000002
 30
0.0
 10
8.5597000000000012
 20
-56.054000000000002
 30
0.0
  0
SPLINE
  5
13B
100
AcDbEntity
  8
Layer 1
370
    20
100
AcDbSpline
210
0.0
220
0.0
230
1.0
 70
     0
 71
     3
 72
     8
 73
     4
 74
     0
 42
0.0000000001
 43
0.0000000001
 40
0.0
 40
0.0
 40
0.0
 40
0.0
 40
1.0
 40
1.0
 40
1.0
 40
1.0
 10
8.5597000000000012
 20
-56.054000000000002
 30
0.0
 10
8.5597000000000012
 20
-56.054000000000002
 30
0.0
 10
9.0167000000000002
 20
-55.458400000000005
 30
0.0
 10
9.0167000000000002
 20
-55.458400000000005
 30
0.0
  0
SPLINE
  5
13C
100
AcDbEntity
  8
Layer 1
370
    20
100
AcDbSpline
210
0.0
220
0.0
230
1.0
 70
     0
 71
     3
 72
     8
 73
     4
 74
     0
 42
0.0000000001
 43
0.0000000001
 40
0.0
 40
0.0
 40
0.0
 40
0.0
 40
1.0
 40
1.0
 40
1.0
 40
1.0
 10
9.0167000000000002
 20
-55.458400000000005
 30
0.0
 10
9.0167000000000002
 20
-55.458400000000005
 30
0.0
 10
9.3040000000000003
 20
-54.764900000000004
 30
0.0
 10
9.3040000000000003
 20
-54.764900000000004
 30
0.0
  0
SPLINE
  5
13D
100
AcDbEntity
  8
Layer 1
370
    20
100
AcDbSpline
210
0.0
220
0.0
230
1.0
 70
     0
 71
     3
 72
     8
 73
     4
 74
     0
 42
0.0000000001
 43
0.0000000001
 40
0.0
 40
0.0
 40
0.0
 40
0.0
 40
1.0
 40
1.0
 40
1.0
 40
1.0
 10
9.3040000000000003
 20
-54.764900000000004
 30
0.0
 10
9.3040000000000003
 20
-54.764900000000004
 30
0.0
 10
9.4019000000000013
 20
-54.020700000000005
 30
0.0
 10
9.4019000000000013
 20
-54.020700000000005
 30
0.0
  0
SPLINE
  5
13E
100
AcDbEntity
  8
Layer 1
370
    20
100
AcDbSpline
210
0.0
220
0.0
230
1.0
 70
     0
 71
     3
 72
     8
 73
     4
 74
     0
 42
0.0000000001
 43
0.0000000001
 40
0.0
 40
0.0
 40
0.0
 40
0.0
 40
1.0
 40
1.0
 40
1.0
 40
1.0
 10
9.4019000000000013
 20
-54.020700000000005
 30
0.0
 10
9.4019000000000013
 20
-54.020700000000005
 30
0.0
 10
9.3040000000000003
 20
-53.276400000000002
 30
0.0
 10
9.3040000000000003
 20
-53.276400000000002
 30
0.0
  0
SPLINE
  5
13F
100
AcDbEntity
  8
Layer 1
370
    20
100
AcDbSpline
210
0.0
220
0.0
230
1.0
 70
     0
 71
     3
 72
     8
 73
     4
 74
     0
 42
0.0000000001
 43
0.0000000001
 40
0.0
 40
0.0
 40
0.0
 40
0.0
 40
1.0
 40
1.0
 40
1.0
 40
1.0
 10
9.3040000000000003
 20
-53.276400000000002
 30
0.0
 10
9.3040000000000003
 20
-53.276400000000002
 30
0.0
 10
9.0167000000000002
 20
-52.582900000000002
 30
0.0
 10
9.0167000000000002
 20
-52.582900000000002
 30
0.0
  0
SPLINE
  5
140
100
AcDbEntity
  8
Layer 1
370
    20
100
AcDbSpline
210
0.0
220
0.0
230
1.0
 70
     0
 71
     3
 72
     8
 73
     4
 74
     0
 42
0.0000000001
 43
0.0000000001
 40
0.0
 40
0.0
 40
0.0
 40
0.0
 40
1.0
 40
1.0
 40
1.0
 40
1.0
 10
9.0167000000000002
 20
-52.582900000000002
 30
0.0
 10
9.0167000000000002
 20
-52.582900000000002
 30
0.0
 10
-1.7446000000000002
 20
-30.9269
 30
0.0
 10
-1.7446000000000002
 20
-30.9269
 30
0.0
  0
SPLINE
  5
141
100
AcDbEntity
  8
Layer 1
370
    20
100
AcDbSpline
210
0.0
220
0.0
230
1.0
 70
     0
 71
     3
 72
     8
 73
     4
 74
     0
 42
0.0000000001
 43
0.0000000001
 40
0.0
 40
0.0
 40
0.0
 40
0.0
 40
1.0
 40
1.0
 40
1.0
 40
1.0
 10
-1.7446000000000002
 20
-30.9269
 30
0.0
 10
-1.7446000000000002
 20
-30.9269
 30
0.0
 10
-6.8068
 20
-33.849499999999999
 30
0.0
 10
-6.8068
 20
-33.849499999999999
 30
0.0
  0
SPLINE
  5
142
100
AcDbEntity
  8
Layer 1
370
    20
100
AcDbSpline
210
0.0
220
0.0
230
1.0
 70
     0
 71
     3
 72
     8
 73
     4
 74
     0
 42
0.0000000001
 43
0.0000000001
 40
0.0
 40
0.0
 40
0.0
 40
0.0
 40
1.0
 40
1.0
 40
1.0
 40
1.0
 10
-6.8068
 20
-33.849499999999999
 30
0.0
 10
-6.8068
 20
-33.849499999999999
 30
0.0
 10
-8.3152000000000008
 20
-31.236800000000002
 30
0.0
 10
-8.3152000000000008
 20
-31.236800000000002
 30
0.0
  0
SPLINE
  5
143
100
AcDbEntity
  8
Layer 1
370
    20
100
AcDbSpline
210
0.0
220
0.0
230
1.0
 70
     0
 71
     3
 72
     8
 73
     4
 74
     0
 42
0.0000000001
 43
0.0000000001
 40
0.0
 40
0.0
 40
0.0
 40
0.0
 40
1.0
 40
1.0
 40
1.0
 40
1.0
 10
-8.3152000000000008
 20
-31.236800000000002
 30
0.0
 10
-8.3152000000000008
 20
-31.236800000000002
 30
0.0
 10
-3.0898000000000003
 20
-28.219800000000003
 30
0.0
 10
-3.0898000000000003
 20
-28.219800000000003
 30
0.0
  0
SPLINE
  5
144
100
AcDbEntity
  8
Layer 1
370
    20
100
AcDbSpline
210
0.0
220
0.0
230
1.0
 70
     0
 71
     3
 72
     8
 73
     4
 74
     0
 42
0.0000000001
 43
0.0000000001
 40
0.0
 40
0.0
 40
0.0
 40
0.0
 40
1.0
 40
1.0
 40
1.0
 40
1.0
 10
-3.0898000000000003
 20
-28.219800000000003
 30
0.0
 10
-3.0898000000000003
 20
-28.219800000000003
 30
0.0
 10
-12.5059
 20
-9.2708000000000013
 30
0.0
 10
-12.5059
 20
-9.2708000000000013
 30
0.0
  0
SPLINE
  5
145
100
AcDbEntity
  8
Layer 1
370
    20
100
AcDbSpline
210
0.0
220
0.0
230
1.0
 70
     0
 71
     3
 72
     8
 73
     4
 74
     0
 42
0.0000000001
 43
0.0000000001
 40
0.0
 40
0.0
 40
0.0
 40
0.0
 40
1.0
 40
1.0
 40
1.0
 40
1.0
 10
-12.5059
 20
-9.2708000000000013
 30
0.0
 10
-12.5059
 20
-9.2708000000000013
 30
0.0
 10
-17.547700000000003
 20
-12.181700000000001
 30
0.0
 10
-17.547700000000003
 20
-12.181700000000001
 30
0.0
  0
SPLINE
  5
146
100
AcDbEntity
  8
Layer 1
370
    20
100
AcDbSpline
210
0.0
220
0.0
230
1.0
 70
     0
 71
     3
 72
     8
 73
     4
 74
     0
 42
0.0000000001
 43
0.0000000001
 40
0.0
 40
0.0
 40
0.0
 40
0.0
 40
1.0
 40
1.0
 40
1.0
 40
1.0
 10
-17.547700000000003
 20
-12.181700000000001
 30
0.0
 10
-17.547700000000003
 20
-12.181700000000001
 30
0.0
 10
-19.056100000000001
 20
-9.5689000000000011
 30
0.0
 10
-19.056100000000001
 20
-9.5689000000000011
 30
0.0
  0
SPLINE
  5
147
100
AcDbEntity
  8
Layer 1
370
    20
100
AcDbSpline
210
0.0
220
0.0
230
1.0
 70
     0
 71
     3
 72
     8
 73
     4
 74
     0
 42
0.0000000001
 43
0.0000000001
 40
0.0
 40
0.0
 40
0.0
 40
0.0
 40
1.0
 40
1.0
 40
1.0
 40
1.0
 10
-19.056100000000001
 20
-9.5689000000000011
 30
0.0
 10
-19.056100000000001
 20
-9.5689000000000011
 30
0.0
 10
-13.8307
 20
-6.5520000000000005
 30
0.0
 10
-13.8307
 20
-6.5520000000000005
 30
0.0
  0
SPLINE
  5
148
100
AcDbEntity
  8
Layer 1
370
    20
100
AcDbSpline
210
0.0
220
0.0
230
1.0
 70
     0
 71
     3
 72
     8
 73
     4
 74
     0
 42
0.0000000001
 43
0.0000000001
 40
0.0
 40
0.0
 40
0.0
 40
0.0
 40
1.0
 40
1.0
 40
1.0
 40
1.0
 10
-13.8307
 20
-6.5520000000000005
 30
0.0
 10
-13.8307
 20
-6.5520000000000005
 30
0.0
 10
-22.961100000000002
 20
12.562000000000001
 30
0.0
 10
-22.961100000000002
 20
12.562000000000001
 30
0.0
  0
SPLINE
  5
149
100
AcDbEntity
  8
Layer 1
370
    20
100
AcDbSpline
210
0.0
220
0.0
230
1.0
 70
     0
 71
     3
 72
     8
 73
     4
 74
     0
 42
0.0000000001
 43
0.0000000001
 40
0.0
 40
0.0
 40
0.0
 40
0.0
 40
1.0
 40
1.0
 40
1.0
 40
1.0
 10
-22.961100000000002
 20
12.562000000000001
 30
0.0
 10
-22.961100000000002
 20
12.562000000000001
 30
0.0
 10
-27.941600000000001
 20
9.6865000000000006
 30
0.0
 10
-27.941600000000001
 20
9.6865000000000006
 30
0.0
  0
SPLINE
  5
14A
100
AcDbEntity
  8
Layer 1
370
    20
100
AcDbSpline
210
0.0
220
0.0
230
1.0
 70
     0
 71
     3
 72
     8
 73
     4
 74
     0
 42
0.0000000001
 43
0.0000000001
 40
0.0
 40
0.0
 40
0.0
 40
0.0
 40
1.0
 40
1.0
 40
1.0
 40
1.0
 10
-27.941600000000001
 20
9.6865000000000006
 30
0.0
 10
-27.941600000000001
 20
9.6865000000000006
 30
0.0
 10
-29.450000000000003
 20
12.299300000000001
 30
0.0
 10
-29.450000000000003
 20
12.299300000000001
 30
0.0
  0
SPLINE
  5
14B
100
AcDbEntity
  8
Layer 1
370
    20
100
AcDbSpline
210
0.0
220
0.0
230
1.0
 70
     0
 71
     3
 72
     8
 73
     4
 74
     0
 42
0.0000000001
 43
0.0000000001
 40
0.0
 40
0.0
 40
0.0
 40
0.0
 40
1.0
 40
1.0
 40
1.0
 40
1.0
 10
-29.450000000000003
 20
12.299300000000001
 30
0.0
 10
-29.450000000000003
 20
12.299300000000001
 30
0.0
 10
-24.224600000000002
 20
15.3162
 30
0.0
 10
-24.224600000000002
 20
15.3162
 30
0.0
  0
SPLINE
  5
14C
100
AcDbEntity
  8
Layer 1
370
    20
100
AcDbSpline
210
0.0
220
0.0
230
1.0
 70
     0
 71
     3
 72
     8
 73
     4
 74
     0
 42
0.0000000001
 43
0.0000000001
 40
0.0
 40
0.0
 40
0.0
 40
0.0
 40
1.0
 40
1.0
 40
1.0
 40
1.0
 10
-24.224600000000002
 20
15.3162
 30
0.0
 10
-24.224600000000002
 20
15.3162
 30
0.0
 10
-32.1721
 20
33.371300000000005
 30
0.0
 10
-32.1721
 20
33.371300000000005
 30
0.0
  0
SPLINE
  5
14D
100
AcDbEntity
  8
Layer 1
370
    20
100
AcDbSpline
210
0.0
220
0.0
230
1.0
 70
     0
 71
     3
 72
     8
 73
     4
 74
     0
 42
0.0000000001
 43
0.0000000001
 40
0.0
 40
0.0
 40
0.0
 40
0.0
 40
1.0
 40
1.0
 40
1.0
 40
1.0
 10
-32.1721
 20
33.371300000000005
 30
0.0
 10
-32.1721
 20
33.371300000000005
 30
0.0
 10
-37.111800000000002
 20
30.519400000000001
 30
0.0
 10
-37.111800000000002
 20
30.519400000000001
 30
0.0
  0
SPLINE
  5
14E
100
AcDbEntity
  8
Layer 1
370
    20
100
AcDbSpline
210
0.0
220
0.0
230
1.0
 70
     0
 71
     3
 72
     8
 73
     4
 74
     0
 42
0.0000000001
 43
0.0000000001
 40
0.0
 40
0.0
 40
0.0
 40
0.0
 40
1.0
 40
1.0
 40
1.0
 40
1.0
 10
-37.111800000000002
 20
30.519400000000001
 30
0.0
 10
-37.111800000000002
 20
30.519400000000001
 30
0.0
 10
-38.620200000000004
 20
33.132100000000001
 30
0.0
 10
-38.620200000000004
 20
33.132100000000001
 30
0.0
  0
SPLINE
  5
14F
100
AcDbEntity
  8
Layer 1
370
    20
100
AcDbSpline
210
0.0
220
0.0
230
1.0
 70
     0
 71
     3
 72
     8
 73
     4
 74
     0
 42
0.0000000001
 43
0.0000000001
 40
0.0
 40
0.0
 40
0.0
 40
0.0
 40
1.0
 40
1.0
 40
1.0
 40
1.0
 10
-38.620200000000004
 20
33.132100000000001
 30
0.0
 10
-38.620200000000004
 20
33.132100000000001
 30
0.0
 10
-28.455100000000002
 20
39.001000000000005
 30
0.0
 10
-28.455100000000002
 20
39.001000000000005
 30
0.0
  0
SPLINE
  5
150
100
AcDbEntity
  8
Layer 1
370
    20
100
AcDbSpline
210
0.0
220
0.0
230
1.0
 70
     0
 71
     3
 72
     8
 73
     4
 74
     0
 42
0.0000000001
 43
0.0000000001
 40
0.0
 40
0.0
 40
0.0
 40
0.0
 40
1.0
 40
1.0
 40
1.0
 40
1.0
 10
-28.455100000000002
 20
39.001000000000005
 30
0.0
 10
-28.455100000000002
 20
39.001000000000005
 30
0.0
 10
-29.9635
 20
41.613700000000001
 30
0.0
 10
-29.9635
 20
41.613700000000001
 30
0.0
  0
SPLINE
  5
151
100
AcDbEntity
  8
Layer 1
370
    20
100
AcDbSpline
210
0.0
220
0.0
230
1.0
 70
     0
 71
     3
 72
     8
 73
     4
 74
     0
 42
0.0000000001
 43
0.0000000001
 40
0.0
 40
0.0
 40
0.0
 40
0.0
 40
1.0
 40
1.0
 40
1.0
 40
1.0
 10
-29.9635
 20
41.613700000000001
 30
0.0
 10
-29.9635
 20
41.613700000000001
 30
0.0
 10
-48.240000000000002
 20
54.988300000000002
 30
0.0
 10
-48.240000000000002
 20
54.988300000000002
 30
0.0
  0
SPLINE
  5
152
100
AcDbEntity
  8
Layer 1
370
    20
100
AcDbSpline
210
0.0
220
0.0
230
1.0
 70
     0
 71
     3
 72
     8
 73
     4
 74
     0
 42
0.0000000001
 43
0.0000000001
 40
0.0
 40
0.0
 40
0.0
 40
0.0
 40
1.0
 40
1.0
 40
1.0
 40
1.0
 10
-48.240000000000002
 20
54.988300000000002
 30
0.0
 10
-48.240000000000002
 20
54.988300000000002
 30
0.0
 10
-49.305199999999999
 20
55.728300000000004
 30
0.0
 10
-49.305199999999999
 20
55.728300000000004
 30
0.0
  0
SPLINE
  5
153
100
AcDbEntity
  8
Layer 1
370
    20
100
AcDbSpline
210
0.0
220
0.0
230
1.0
 70
     0
 71
     3
 72
     8
 73
     4
 74
     0
 42
0.0000000001
 43
0.0000000001
 40
0.0
 40
0.0
 40
0.0
 40
0.0
 40
1.0
 40
1.0
 40
1.0
 40
1.0
 10
-49.305199999999999
 20
55.728300000000004
 30
0.0
 10
-49.305199999999999
 20
55.728300000000004
 30
0.0
 10
-49.020600000000002
 20
56.117600000000003
 30
0.0
 10
-49.020600000000002
 20
56.117600000000003
 30
0.0
  0
SPLINE
  5
154
100
AcDbEntity
  8
Layer 1
370
    20
100
AcDbSpline
210
0.0
220
0.0
230
1.0
 70
     0
 71
     3
 72
     8
 73
     4
 74
     0
 42
0.0000000001
 43
0.0000000001
 40
0.0
 40
0.0
 40
0.0
 40
0.0
 40
1.0
 40
1.0
 40
1.0
 40
1.0
 10
-49.020600000000002
 20
56.117600000000003
 30
0.0
 10
-49.020600000000002
 20
56.117600000000003
 30
0.0
 10
-48.593900000000005
 20
57.219200000000001
 30
0.0
 10
-48.593900000000005
 20
57.219200000000001
 30
0.0
  0
SPLINE
  5
155
100
AcDbEntity
  8
Layer 1
370
    20
100
AcDbSpline
210
0.0
220
0.0
230
1.0
 70
     0
 71
     3
 72
     8
 73
     4
 74
     0
 42
0.0000000001
 43
0.0000000001
 40
0.0
 40
0.0
 40
0.0
 40
0.0
 40
1.0
 40
1.0
 40
1.0
 40
1.0
 10
-48.593900000000005
 20
57.219200000000001
 30
0.0
 10
-48.593900000000005
 20
57.219200000000001
 30
0.0
 10
-48.466900000000003
 20
58.393700000000003
 30
0.0
 10
-48.466900000000003
 20
58.393700000000003
 30
0.0
  0
SPLINE
  5
156
100
AcDbEntity
  8
Layer 1
370
    20
100
AcDbSpline
210
0.0
220
0.0
230
1.0
 70
     0
 71
     3
 72
     8
 73
     4
 74
     0
 42
0.0000000001
 43
0.0000000001
 40
0.0
 40
0.0
 40
0.0
 40
0.0
 40
1.0
 40
1.0
 40
1.0
 40
1.0
 10
-48.466900000000003
 20
58.393700000000003
 30
0.0
 10
-48.466900000000003
 20
58.393700000000003
 30
0.0
 10
-48.648200000000003
 20
59.561100000000003
 30
0.0
 10
-48.648200000000003
 20
59.561100000000003
 30
0.0
  0
SPLINE
  5
157
100
AcDbEntity
  8
Layer 1
370
    20
100
AcDbSpline
210
0.0
220
0.0
230
1.0
 70
     0
 71
     3
 72
     8
 73
     4
 74
     0
 42
0.0000000001
 43
0.0000000001
 40
0.0
 40
0.0
 40
0.0
 40
0.0
 40
1.0
 40
1.0
 40
1.0
 40
1.0
 10
-48.648200000000003
 20
59.561100000000003
 30
0.0
 10
-48.648200000000003
 20
59.561100000000003
 30
0.0
 10
-49.125399999999999
 20
60.641800000000003
 30
0.0
 10
-49.125399999999999
 20
60.641800000000003
 30
0.0
  0
SPLINE
  5
158
100
AcDbEntity
  8
Layer 1
370
    20
100
AcDbSpline
210
0.0
220
0.0
230
1.0
 70
     0
 71
     3
 72
     8
 73
     4
 74
     0
 42
0.0000000001
 43
0.0000000001
 40
0.0
 40
0.0
 40
0.0
 40
0.0
 40
1.0
 40
1.0
 40
1.0
 40
1.0
 10
-49.125399999999999
 20
60.641800000000003
 30
0.0
 10
-49.125399999999999
 20
60.641800000000003
 30
0.0
 10
-49.866100000000003
 20
61.562100000000001
 30
0.0
 10
-49.866100000000003
 20
61.562100000000001
 30
0.0
  0
SPLINE
  5
159
100
AcDbEntity
  8
Layer 1
370
    20
100
AcDbSpline
210
0.0
220
0.0
230
1.0
 70
     0
 71
     3
 72
     8
 73
     4
 74
     0
 42
0.0000000001
 43
0.0000000001
 40
0.0
 40
0.0
 40
0.0
 40
0.0
 40
1.0
 40
1.0
 40
1.0
 40
1.0
 10
-49.866100000000003
 20
61.562100000000001
 30
0.0
 10
-49.866100000000003
 20
61.562100000000001
 30
0.0
 10
-50.819800000000001
 20
62.259400000000007
 30
0.0
 10
-50.819800000000001
 20
62.259400000000007
 30
0.0
  0
SPLINE
  5
15A
100
AcDbEntity
  8
Layer 1
370
    20
100
AcDbSpline
210
0.0
220
0.0
230
1.0
 70
     0
 71
     3
 72
     8
 73
     4
 74
     0
 42
0.0000000001
 43
0.0000000001
 40
0.0
 40
0.0
 40
0.0
 40
0.0
 40
1.0
 40
1.0
 40
1.0
 40
1.0
 10
-50.819800000000001
 20
62.259400000000007
 30
0.0
 10
-50.819800000000001
 20
62.259400000000007
 30
0.0
 10
-51.921400000000006
 20
62.686100000000003
 30
0.0
 10
-51.921400000000006
 20
62.686100000000003
 30
0.0
  0
SPLINE
  5
15B
100
AcDbEntity
  8
Layer 1
370
    20
100
AcDbSpline
210
0.0
220
0.0
230
1.0
 70
     0
 71
     3
 72
     8
 73
     4
 74
     0
 42
0.0000000001
 43
0.0000000001
 40
0.0
 40
0.0
 40
0.0
 40
0.0
 40
1.0
 40
1.0
 40
1.0
 40
1.0
 10
-51.921400000000006
 20
62.686100000000003
 30
0.0
 10
-51.921400000000006
 20
62.686100000000003
 30
0.0
 10
-53.0959
 20
62.813100000000006
 30
0.0
 10
-53.0959
 20
62.813100000000006
 30
0.0
  0
SPLINE
  5
15C
100
AcDbEntity
  8
Layer 1
370
    20
100
AcDbSpline
210
0.0
220
0.0
230
1.0
 70
     0
 71
     3
 72
     8
 73
     4
 74
     0
 42
0.0000000001
 43
0.0000000001
 40
0.0
 40
0.0
 40
0.0
 40
0.0
 40
1.0
 40
1.0
 40
1.0
 40
1.0
 10
-53.0959
 20
62.813100000000006
 30
0.0
 10
-53.0959
 20
62.813100000000006
 30
0.0
 10
-54.263200000000005
 20
62.631800000000005
 30
0.0
 10
-54.263200000000005
 20
62.631800000000005
 30
0.0
  0
SPLINE
  5
15D
100
AcDbEntity
  8
Layer 1
370
    20
100
AcDbSpline
210
0.0
220
0.0
230
1.0
 70
     0
 71
     3
 72
     8
 73
     4
 74
     0
 42
0.0000000001
 43
0.0000000001
 40
0.0
 40
0.0
 40
0.0
 40
0.0
 40
1.0
 40
1.0
 40
1.0
 40
1.0
 10
-54.263200000000005
 20
62.631800000000005
 30
0.0
 10
-54.263200000000005
 20
62.631800000000005
 30
0.0
 10
-55.343900000000005
 20
62.154600000000002
 30
0.0
 10
-55.343900000000005
 20
62.154600000000002
 30
0.0
  0
SPLINE
  5
15E
100
AcDbEntity
  8
Layer 1
370
    20
100
AcDbSpline
210
0.0
220
0.0
230
1.0
 70
     0
 71
     3
 72
     8
 73
     4
 74
     0
 42
0.0000000001
 43
0.0000000001
 40
0.0
 40
0.0
 40
0.0
 40
0.0
 40
1.0
 40
1.0
 40
1.0
 40
1.0
 10
-55.343900000000005
 20
62.154600000000002
 30
0.0
 10
-55.343900000000005
 20
62.154600000000002
 30
0.0
 10
-56.264300000000006
 20
61.413900000000005
 30
0.0
 10
-56.264300000000006
 20
61.413900000000005
 30
0.0
  0
SPLINE
  5
15F
100
AcDbEntity
  8
Layer 1
370
    20
100
AcDbSpline
210
0.0
220
0.0
230
1.0
 70
     0
 71
     3
 72
     8
 73
     4
 74
     0
 42
0.0000000001
 43
0.0000000001
 40
0.0
 40
0.0
 40
0.0
 40
0.0
 40
1.0
 40
1.0
 40
1.0
 40
1.0
 10
-56.264300000000006
 20
61.413900000000005
 30
0.0
 10
-56.264300000000006
 20
61.413900000000005
 30
0.0
 10
-56.676900000000003
 20
60.849500000000006
 30
0.0
 10
-56.676900000000003
 20
60.849500000000006
 30
0.0
  0
SPLINE
  5
160
100
AcDbEntity
  8
Layer 1
370
    20
100
AcDbSpline
210
0.0
220
0.0
230
1.0
 70
     0
 71
     3
 72
     8
 73
     4
 74
     0
 42
0.0000000001
 43
0.0000000001
 40
0.0
 40
0.0
 40
0.0
 40
0.0
 40
1.0
 40
1.0
 40
1.0
 40
1.0
 10
-56.676900000000003
 20
60.849500000000006
 30
0.0
 10
-56.676900000000003
 20
60.849500000000006
 30
0.0
 10
-56.920900000000003
 20
61.019000000000005
 30
0.0
 10
-56.920900000000003
 20
61.019000000000005
 30
0.0
  0
SPLINE
  5
161
100
AcDbEntity
  8
Layer 1
370
    20
100
AcDbSpline
210
0.0
220
0.0
230
1.0
 70
     0
 71
     3
 72
     8
 73
     4
 74
     0
 42
0.0000000001
 43
0.0000000001
 40
0.0
 40
0.0
 40
0.0
 40
0.0
 40
1.0
 40
1.0
 40
1.0
 40
1.0
 10
-56.920900000000003
 20
61.019000000000005
 30
0.0
 10
-56.920900000000003
 20
61.019000000000005
 30
0.0
 10
-66.5124
 20
65.460800000000006
 30
0.0
 10
-66.5124
 20
65.460800000000006
 30
0.0
  0
SPLINE
  5
162
100
AcDbEntity
  8
Layer 1
370
    20
100
AcDbSpline
210
0.0
220
0.0
230
1.0
 70
     0
 71
     3
 72
     8
 73
     4
 74
     0
 42
0.0000000001
 43
0.0000000001
 40
0.0
 40
0.0
 40
0.0
 40
0.0
 40
1.0
 40
1.0
 40
1.0
 40
1.0
 10
-66.5124
 20
65.460800000000006
 30
0.0
 10
-66.5124
 20
65.460800000000006
 30
0.0
 10
-67.984200000000001
 20
65.837800000000001
 30
0.0
 10
-67.984200000000001
 20
65.837800000000001
 30
0.0
  0
SPLINE
  5
163
100
AcDbEntity
  8
Layer 1
370
    20
100
AcDbSpline
210
0.0
220
0.0
230
1.0
 70
     0
 71
     3
 72
     8
 73
     4
 74
     0
 42
0.0000000001
 43
0.0000000001
 40
0.0
 40
0.0
 40
0.0
 40
0.0
 40
1.0
 40
1.0
 40
1.0
 40
1.0
 10
-67.984200000000001
 20
65.837800000000001
 30
0.0
 10
-67.984200000000001
 20
65.837800000000001
 30
0.0
 10
-67.67580000000001
 20
68.180300000000003
 30
0.0
 10
-67.67580000000001
 20
68.180300000000003
 30
0.0
  0
SPLINE
  5
164
100
AcDbEntity
  8
Layer 1
370
    20
100
AcDbSpline
210
0.0
220
0.0
230
1.0
 70
     0
 71
     3
 72
     8
 73
     4
 74
     0
 42
0.0000000001
 43
0.0000000001
 40
0.0
 40
0.0
 40
0.0
 40
0.0
 40
1.0
 40
1.0
 40
1.0
 40
1.0
 10
-67.67580000000001
 20
68.180300000000003
 30
0.0
 10
-67.67580000000001
 20
68.180300000000003
 30
0.0
 10
-67.984200000000001
 20
70.522800000000004
 30
0.0
 10
-67.984200000000001
 20
70.522800000000004
 30
0.0
  0
SPLINE
  5
165
100
AcDbEntity
  8
Layer 1
370
    20
100
AcDbSpline
210
0.0
220
0.0
230
1.0
 70
     0
 71
     3
 72
     8
 73
     4
 74
     0
 42
0.0000000001
 43
0.0000000001
 40
0.0
 40
0.0
 40
0.0
 40
0.0
 40
1.0
 40
1.0
 40
1.0
 40
1.0
 10
-67.984200000000001
 20
70.522800000000004
 30
0.0
 10
-67.984200000000001
 20
70.522800000000004
 30
0.0
 10
-68.888400000000004
 20
72.705700000000007
 30
0.0
 10
-68.888400000000004
 20
72.705700000000007
 30
0.0
  0
SPLINE
  5
166
100
AcDbEntity
  8
Layer 1
370
    20
100
AcDbSpline
210
0.0
220
0.0
230
1.0
 70
     0
 71
     3
 72
     8
 73
     4
 74
     0
 42
0.0000000001
 43
0.0000000001
 40
0.0
 40
0.0
 40
0.0
 40
0.0
 40
1.0
 40
1.0
 40
1.0
 40
1.0
 10
-68.888400000000004
 20
72.705700000000007
 30
0.0
 10
-68.888400000000004
 20
72.705700000000007
 30
0.0
 10
-70.326700000000002
 20
74.580100000000002
 30
0.0
 10
-70.326700000000002
 20
74.580100000000002
 30
0.0
  0
SPLINE
  5
167
100
AcDbEntity
  8
Layer 1
370
    20
100
AcDbSpline
210
0.0
220
0.0
230
1.0
 70
     0
 71
     3
 72
     8
 73
     4
 74
     0
 42
0.0000000001
 43
0.0000000001
 40
0.0
 40
0.0
 40
0.0
 40
0.0
 40
1.0
 40
1.0
 40
1.0
 40
1.0
 10
-70.326700000000002
 20
74.580100000000002
 30
0.0
 10
-70.326700000000002
 20
74.580100000000002
 30
0.0
 10
-72.2012
 20
76.018500000000003
 30
0.0
 10
-72.2012
 20
76.018500000000003
 30
0.0
  0
SPLINE
  5
168
100
AcDbEntity
  8
Layer 1
370
    20
100
AcDbSpline
210
0.0
220
0.0
230
1.0
 70
     0
 71
     3
 72
     8
 73
     4
 74
     0
 42
0.0000000001
 43
0.0000000001
 40
0.0
 40
0.0
 40
0.0
 40
0.0
 40
1.0
 40
1.0
 40
1.0
 40
1.0
 10
-72.2012
 20
76.018500000000003
 30
0.0
 10
-72.2012
 20
76.018500000000003
 30
0.0
 10
-74.384100000000004
 20
76.922600000000003
 30
0.0
 10
-74.384100000000004
 20
76.922600000000003
 30
0.0
  0
SPLINE
  5
169
100
AcDbEntity
  8
Layer 1
370
    20
100
AcDbSpline
210
0.0
220
0.0
230
1.0
 70
     0
 71
     3
 72
     8
 73
     4
 74
     0
 42
0.0000000001
 43
0.0000000001
 40
0.0
 40
0.0
 40
0.0
 40
0.0
 40
1.0
 40
1.0
 40
1.0
 40
1.0
 10
-74.384100000000004
 20
76.922600000000003
 30
0.0
 10
-74.384100000000004
 20
76.922600000000003
 30
0.0
 10
-76.726600000000005
 20
77.231000000000009
 30
0.0
 10
-76.726600000000005
 20
77.231000000000009
 30
0.0
  0
SPLINE
  5
16A
100
AcDbEntity
  8
Layer 1
370
    20
100
AcDbSpline
210
0.0
220
0.0
230
1.0
 70
     0
 71
     3
 72
     8
 73
     4
 74
     0
 42
0.0000000001
 43
0.0000000001
 40
0.0
 40
0.0
 40
0.0
 40
0.0
 40
1.0
 40
1.0
 40
1.0
 40
1.0
 10
-76.726600000000005
 20
77.231000000000009
 30
0.0
 10
-76.726600000000005
 20
77.231000000000009
 30
0.0
 10
-79.069100000000006
 20
76.922600000000003
 30
0.0
 10
-79.069100000000006
 20
76.922600000000003
 30
0.0
  0
SPLINE
  5
16B
100
AcDbEntity
  8
Layer 1
370
    20
100
AcDbSpline
210
0.0
220
0.0
230
1.0
 70
     0
 71
     3
 72
     8
 73
     4
 74
     0
 42
0.0000000001
 43
0.0000000001
 40
0.0
 40
0.0
 40
0.0
 40
0.0
 40
1.0
 40
1.0
 40
1.0
 40
1.0
 10
-79.069100000000006
 20
76.922600000000003
 30
0.0
 10
-79.069100000000006
 20
76.922600000000003
 30
0.0
 10
-81.251900000000006
 20
76.018500000000003
 30
0.0
 10
-81.251900000000006
 20
76.018500000000003
 30
0.0
  0
SPLINE
  5
16C
100
AcDbEntity
  8
Layer 1
370
    20
100
AcDbSpline
210
0.0
220
0.0
230
1.0
 70
     0
 71
     3
 72
     8
 73
     4
 74
     0
 42
0.0000000001
 43
0.0000000001
 40
0.0
 40
0.0
 40
0.0
 40
0.0
 40
1.0
 40
1.0
 40
1.0
 40
1.0
 10
-81.251900000000006
 20
76.018500000000003
 30
0.0
 10
-81.251900000000006
 20
76.018500000000003
 30
0.0
 10
-83.126400000000004
 20
74.580100000000002
 30
0.0
 10
-83.126400000000004
 20
74.580100000000002
 30
0.0
  0
SPLINE
  5
16D
100
AcDbEntity
  8
Layer 1
370
    20
100
AcDbSpline
210
0.0
220
0.0
230
1.0
 70
     0
 71
     3
 72
     8
 73
     4
 74
     0
 42
0.0000000001
 43
0.0000000001
 40
0.0
 40
0.0
 40
0.0
 40
0.0
 40
1.0
 40
1.0
 40
1.0
 40
1.0
 10
-83.126400000000004
 20
74.580100000000002
 30
0.0
 10
-83.126400000000004
 20
74.580100000000002
 30
0.0
 10
-84.445900000000009
 20
72.860600000000005
 30
0.0
 10
-84.445900000000009
 20
72.860600000000005
 30
0.0
  0
SPLINE
  5
16E
100
AcDbEntity
  8
Layer 1
370
    20
100
AcDbSpline
210
0.0
220
0.0
230
1.0
 70
     0
 71
     3
 72
     8
 73
     4
 74
     0
 42
0.0000000001
 43
0.0000000001
 40
0.0
 40
0.0
 40
0.0
 40
0.0
 40
1.0
 40
1.0
 40
1.0
 40
1.0
 10
-84.445900000000009
 20
72.860600000000005
 30
0.0
 10
-84.445900000000009
 20
72.860600000000005
 30
0.0
 10
-84.976799999999997
 20
74.442700000000002
 30
0.0
 10
-84.976799999999997
 20
74.442700000000002
 30
0.0
  0
SPLINE
  5
16F
100
AcDbEntity
  8
Layer 1
370
    20
100
AcDbSpline
210
0.0
220
0.0
230
1.0
 70
     0
 71
     3
 72
     8
 73
     4
 74
     0
 42
0.0000000001
 43
0.0000000001
 40
0.0
 40
0.0
 40
0.0
 40
0.0
 40
1.0
 40
1.0
 40
1.0
 40
1.0
 10
-84.976799999999997
 20
74.442700000000002
 30
0.0
 10
-84.976799999999997
 20
74.442700000000002
 30
0.0
 10
-87.034100000000009
 20
77.544800000000009
 30
0.0
 10
-87.034100000000009
 20
77.544800000000009
 30
0.0
  0
SPLINE
  5
170
100
AcDbEntity
  8
Layer 1
370
    20
100
AcDbSpline
210
0.0
220
0.0
230
1.0
 70
     0
 71
     3
 72
     8
 73
     4
 74
     0
 42
0.0000000001
 43
0.0000000001
 40
0.0
 40
0.0
 40
0.0
 40
0.0
 40
1.0
 40
1.0
 40
1.0
 40
1.0
 10
-87.034100000000009
 20
77.544800000000009
 30
0.0
 10
-87.034100000000009
 20
77.544800000000009
 30
0.0
 10
-89.824300000000008
 20
80.008800000000008
 30
0.0
 10
-89.824300000000008
 20
80.008800000000008
 30
0.0
  0
SPLINE
  5
171
100
AcDbEntity
  8
Layer 1
370
    20
100
AcDbSpline
210
0.0
220
0.0
230
1.0
 70
     0
 71
     3
 72
     8
 73
     4
 74
     0
 42
0.0000000001
 43
0.0000000001
 40
0.0
 40
0.0
 40
0.0
 40
0.0
 40
1.0
 40
1.0
 40
1.0
 40
1.0
 10
-89.824300000000008
 20
80.008800000000008
 30
0.0
 10
-89.824300000000008
 20
80.008800000000008
 30
0.0
 10
-93.157000000000011
 20
81.666700000000006
 30
0.0
 10
-93.157000000000011
 20
81.666700000000006
 30
0.0
  0
SPLINE
  5
172
100
AcDbEntity
  8
Layer 1
370
    20
100
AcDbSpline
210
0.0
220
0.0
230
1.0
 70
     0
 71
     3
 72
     8
 73
     4
 74
     0
 42
0.0000000001
 43
0.0000000001
 40
0.0
 40
0.0
 40
0.0
 40
0.0
 40
1.0
 40
1.0
 40
1.0
 40
1.0
 10
-93.157000000000011
 20
81.666700000000006
 30
0.0
 10
-93.157000000000011
 20
81.666700000000006
 30
0.0
 10
-96.805400000000006
 20
82.405600000000007
 30
0.0
 10
-96.805400000000006
 20
82.405600000000007
 30
0.0
  0
SPLINE
  5
173
100
AcDbEntity
  8
Layer 1
370
    20
100
AcDbSpline
210
0.0
220
0.0
230
1.0
 70
     0
 71
     3
 72
     8
 73
     4
 74
     0
 42
0.0000000001
 43
0.0000000001
 40
0.0
 40
0.0
 40
0.0
 40
0.0
 40
1.0
 40
1.0
 40
1.0
 40
1.0
 10
-96.805400000000006
 20
82.405600000000007
 30
0.0
 10
-96.805400000000006
 20
82.405600000000007
 30
0.0
 10
-100.5206
 20
82.174999999999997
 30
0.0
 10
-100.5206
 20
82.174999999999997
 30
0.0
  0
SPLINE
  5
174
100
AcDbEntity
  8
Layer 1
370
    20
100
AcDbSpline
210
0.0
220
0.0
230
1.0
 70
     0
 71
     3
 72
     8
 73
     4
 74
     0
 42
0.0000000001
 43
0.0000000001
 40
0.0
 40
0.0
 40
0.0
 40
0.0
 40
1.0
 40
1.0
 40
1.0
 40
1.0
 10
-100.5206
 20
82.174999999999997
 30
0.0
 10
-100.5206
 20
82.174999999999997
 30
0.0
 10
-104.04950000000001
 20
80.990600000000001
 30
0.0
 10
-104.04950000000001
 20
80.990600000000001
 30
0.0
  0
SPLINE
  5
175
100
AcDbEntity
  8
Layer 1
370
    20
100
AcDbSpline
210
0.0
220
0.0
230
1.0
 70
     0
 71
     3
 72
     8
 73
     4
 74
     0
 42
0.0000000001
 43
0.0000000001
 40
0.0
 40
0.0
 40
0.0
 40
0.0
 40
1.0
 40
1.0
 40
1.0
 40
1.0
 10
-104.04950000000001
 20
80.990600000000001
 30
0.0
 10
-104.04950000000001
 20
80.990600000000001
 30
0.0
 10
-107.15170000000001
 20
78.933300000000003
 30
0.0
 10
-107.15170000000001
 20
78.933300000000003
 30
0.0
  0
SPLINE
  5
176
100
AcDbEntity
  8
Layer 1
370
    20
100
AcDbSpline
210
0.0
220
0.0
230
1.0
 70
     0
 71
     3
 72
     8
 73
     4
 74
     0
 42
0.0000000001
 43
0.0000000001
 40
0.0
 40
0.0
 40
0.0
 40
0.0
 40
1.0
 40
1.0
 40
1.0
 40
1.0
 10
-107.15170000000001
 20
78.933300000000003
 30
0.0
 10
-107.15170000000001
 20
78.933300000000003
 30
0.0
 10
-109.6157
 20
76.143200000000007
 30
0.0
 10
-109.6157
 20
76.143200000000007
 30
0.0
  0
SPLINE
  5
177
100
AcDbEntity
  8
Layer 1
370
    20
100
AcDbSpline
210
0.0
220
0.0
230
1.0
 70
     0
 71
     3
 72
     8
 73
     4
 74
     0
 42
0.0000000001
 43
0.0000000001
 40
0.0
 40
0.0
 40
0.0
 40
0.0
 40
1.0
 40
1.0
 40
1.0
 40
1.0
 10
-109.6157
 20
76.143200000000007
 30
0.0
 10
-109.6157
 20
76.143200000000007
 30
0.0
 10
-111.2736
 20
72.810400000000001
 30
0.0
 10
-111.2736
 20
72.810400000000001
 30
0.0
  0
SPLINE
  5
178
100
AcDbEntity
  8
Layer 1
370
    20
100
AcDbSpline
210
0.0
220
0.0
230
1.0
 70
     0
 71
     3
 72
     8
 73
     4
 74
     0
 42
0.0000000001
 43
0.0000000001
 40
0.0
 40
0.0
 40
0.0
 40
0.0
 40
1.0
 40
1.0
 40
1.0
 40
1.0
 10
-111.2736
 20
72.810400000000001
 30
0.0
 10
-111.2736
 20
72.810400000000001
 30
0.0
 10
-111.6452
 20
70.975400000000008
 30
0.0
 10
-111.6452
 20
70.975400000000008
 30
0.0
  0
SPLINE
  5
179
100
AcDbEntity
  8
Layer 1
370
    20
100
AcDbSpline
210
0.0
220
0.0
230
1.0
 70
     0
 71
     3
 72
     8
 73
     4
 74
     0
 42
0.0000000001
 43
0.0000000001
 40
0.0
 40
0.0
 40
0.0
 40
0.0
 40
1.0
 40
1.0
 40
1.0
 40
1.0
 10
-111.6452
 20
70.975400000000008
 30
0.0
 10
-111.6452
 20
70.975400000000008
 30
0.0
 10
-114.983
 20
74.069900000000004
 30
0.0
 10
-114.983
 20
74.069900000000004
 30
0.0
  0
SPLINE
  5
17A
100
AcDbEntity
  8
Layer 1
370
    20
100
AcDbSpline
210
0.0
220
0.0
230
1.0
 70
     0
 71
     3
 72
     8
 73
     4
 74
     0
 42
0.0000000001
 43
0.0000000001
 40
0.0
 40
0.0
 40
0.0
 40
0.0
 40
1.0
 40
1.0
 40
1.0
 40
1.0
 10
-114.983
 20
74.069900000000004
 30
0.0
 10
-114.983
 20
74.069900000000004
 30
0.0
 10
-122.37440000000001
 20
78.003700000000009
 30
0.0
 10
-122.37440000000001
 20
78.003700000000009
 30
0.0
  0
SPLINE
  5
17B
100
AcDbEntity
  8
Layer 1
370
    20
100
AcDbSpline
210
0.0
220
0.0
230
1.0
 70
     0
 71
     3
 72
     8
 73
     4
 74
     0
 42
0.0000000001
 43
0.0000000001
 40
0.0
 40
0.0
 40
0.0
 40
0.0
 40
1.0
 40
1.0
 40
1.0
 40
1.0
 10
-122.37440000000001
 20
78.003700000000009
 30
0.0
 10
-122.37440000000001
 20
78.003700000000009
 30
0.0
 10
-120.80640000000001
 20
78.664600000000007
 30
0.0
 10
-120.80640000000001
 20
78.664600000000007
 30
0.0
  0
SPLINE
  5
17C
100
AcDbEntity
  8
Layer 1
370
    20
100
AcDbSpline
210
0.0
220
0.0
230
1.0
 70
     0
 71
     3
 72
     8
 73
     4
 74
     0
 42
0.0000000001
 43
0.0000000001
 40
0.0
 40
0.0
 40
0.0
 40
0.0
 40
1.0
 40
1.0
 40
1.0
 40
1.0
 10
-120.80640000000001
 20
78.664600000000007
 30
0.0
 10
-120.80640000000001
 20
78.664600000000007
 30
0.0
 10
-118.0081
 20
80.839500000000001
 30
0.0
 10
-118.0081
 20
80.839500000000001
 30
0.0
  0
SPLINE
  5
17D
100
AcDbEntity
  8
Layer 1
370
    20
100
AcDbSpline
210
0.0
220
0.0
230
1.0
 70
     0
 71
     3
 72
     8
 73
     4
 74
     0
 42
0.0000000001
 43
0.0000000001
 40
0.0
 40
0.0
 40
0.0
 40
0.0
 40
1.0
 40
1.0
 40
1.0
 40
1.0
 10
-118.0081
 20
80.839500000000001
 30
0.0
 10
-118.0081
 20
80.839500000000001
 30
0.0
 10
-115.86810000000001
 20
83.664600000000007
 30
0.0
 10
-115.86810000000001
 20
83.664600000000007
 30
0.0
  0
SPLINE
  5
17E
100
AcDbEntity
  8
Layer 1
370
    20
100
AcDbSpline
210
0.0
220
0.0
230
1.0
 70
     0
 71
     3
 72
     8
 73
     4
 74
     0
 42
0.0000000001
 43
0.0000000001
 40
0.0
 40
0.0
 40
0.0
 40
0.0
 40
1.0
 40
1.0
 40
1.0
 40
1.0
 10
-115.86810000000001
 20
83.664600000000007
 30
0.0
 10
-115.86810000000001
 20
83.664600000000007
 30
0.0
 10
-114.5322
 20
86.947299999999998
 30
0.0
 10
-114.5322
 20
86.947299999999998
 30
0.0
  0
SPLINE
  5
17F
100
AcDbEntity
  8
Layer 1
370
    20
100
AcDbSpline
210
0.0
220
0.0
230
1.0
 70
     0
 71
     3
 72
     8
 73
     4
 74
     0
 42
0.0000000001
 43
0.0000000001
 40
0.0
 40
0.0
 40
0.0
 40
0.0
 40
1.0
 40
1.0
 40
1.0
 40
1.0
 10
-114.5322
 20
86.947299999999998
 30
0.0
 10
-114.5322
 20
86.947299999999998
 30
0.0
 10
-114.2805
 20
88.955399999999997
 30
0.0
 10
-114.2805
 20
88.955399999999997
 30
0.0
  0
SPLINE
  5
180
100
AcDbEntity
  8
Layer 1
370
    20
100
AcDbSpline
210
0.0
220
0.0
230
1.0
 70
     0
 71
     3
 72
     8
 73
     4
 74
     0
 42
0.0000000001
 43
0.0000000001
 40
0.0
 40
0.0
 40
0.0
 40
0.0
 40
1.0
 40
1.0
 40
1.0
 40
1.0
 10
-114.2805
 20
88.955399999999997
 30
0.0
 10
-114.2805
 20
88.955399999999997
 30
0.0
 10
-114.09150000000001
 20
90.463800000000006
 30
0.0
 10
-114.09150000000001
 20
90.463800000000006
 30
0.0
  0
SPLINE
  5
181
100
AcDbEntity
  8
Layer 1
370
    20
100
AcDbSpline
210
0.0
220
0.0
230
1.0
 70
     0
 71
     3
 72
     8
 73
     4
 74
     0
 42
0.0000000001
 43
0.0000000001
 40
0.0
 40
0.0
 40
0.0
 40
0.0
 40
1.0
 40
1.0
 40
1.0
 40
1.0
 10
-114.09150000000001
 20
90.463800000000006
 30
0.0
 10
-114.09150000000001
 20
90.463800000000006
 30
0.0
 10
-114.29960000000001
 20
91.972300000000004
 30
0.0
 10
-114.29960000000001
 20
91.972300000000004
 30
0.0
  0
SPLINE
  5
182
100
AcDbEntity
  8
Layer 1
370
    20
100
AcDbSpline
210
0.0
220
0.0
230
1.0
 70
     0
 71
     3
 72
     8
 73
     4
 74
     0
 42
0.0000000001
 43
0.0000000001
 40
0.0
 40
0.0
 40
0.0
 40
0.0
 40
1.0
 40
1.0
 40
1.0
 40
1.0
 10
-114.29960000000001
 20
91.972300000000004
 30
0.0
 10
-114.29960000000001
 20
91.972300000000004
 30
0.0
 10
-114.5759
 20
93.974699999999999
 30
0.0
 10
-114.5759
 20
93.974699999999999
 30
0.0
  0
SPLINE
  5
183
100
AcDbEntity
  8
Layer 1
370
    20
100
AcDbSpline
210
0.0
220
0.0
230
1.0
 70
     0
 71
     3
 72
     8
 73
     4
 74
     0
 42
0.0000000001
 43
0.0000000001
 40
0.0
 40
0.0
 40
0.0
 40
0.0
 40
1.0
 40
1.0
 40
1.0
 40
1.0
 10
-114.5759
 20
93.974699999999999
 30
0.0
 10
-114.5759
 20
93.974699999999999
 30
0.0
 10
-115.89590000000001
 20
97.106200000000001
 30
0.0
 10
-115.89590000000001
 20
97.106200000000001
 30
0.0
  0
SPLINE
  5
184
100
AcDbEntity
  8
Layer 1
370
    20
100
AcDbSpline
210
0.0
220
0.0
230
1.0
 70
     0
 71
     3
 72
     8
 73
     4
 74
     0
 42
0.0000000001
 43
0.0000000001
 40
0.0
 40
0.0
 40
0.0
 40
0.0
 40
1.0
 40
1.0
 40
1.0
 40
1.0
 10
-115.89590000000001
 20
97.106200000000001
 30
0.0
 10
-115.89590000000001
 20
97.106200000000001
 30
0.0
 10
-114.91160000000001
 20
97.588999999999999
 30
0.0
 10
-114.91160000000001
 20
97.588999999999999
 30
0.0
  0
SPLINE
  5
185
100
AcDbEntity
  8
Layer 1
370
    20
100
AcDbSpline
210
0.0
220
0.0
230
1.0
 70
     0
 71
     3
 72
     8
 73
     4
 74
     0
 42
0.0000000001
 43
0.0000000001
 40
0.0
 40
0.0
 40
0.0
 40
0.0
 40
1.0
 40
1.0
 40
1.0
 40
1.0
 10
-114.91160000000001
 20
97.588999999999999
 30
0.0
 10
-114.91160000000001
 20
97.588999999999999
 30
0.0
 10
-113.7252
 20
98.625100000000003
 30
0.0
 10
-113.7252
 20
98.625100000000003
 30
0.0
  0
SPLINE
  5
186
100
AcDbEntity
  8
Layer 1
370
    20
100
AcDbSpline
210
0.0
220
0.0
230
1.0
 70
     0
 71
     3
 72
     8
 73
     4
 74
     0
 42
0.0000000001
 43
0.0000000001
 40
0.0
 40
0.0
 40
0.0
 40
0.0
 40
1.0
 40
1.0
 40
1.0
 40
1.0
 10
-113.7252
 20
98.625100000000003
 30
0.0
 10
-113.7252
 20
98.625100000000003
 30
0.0
 10
-112.84740000000001
 20
99.932900000000004
 30
0.0
 10
-112.84740000000001
 20
99.932900000000004
 30
0.0
  0
SPLINE
  5
187
100
AcDbEntity
  8
Layer 1
370
    20
100
AcDbSpline
210
0.0
220
0.0
230
1.0
 70
     0
 71
     3
 72
     8
 73
     4
 74
     0
 42
0.0000000001
 43
0.0000000001
 40
0.0
 40
0.0
 40
0.0
 40
0.0
 40
1.0
 40
1.0
 40
1.0
 40
1.0
 10
-112.84740000000001
 20
99.932900000000004
 30
0.0
 10
-112.84740000000001
 20
99.932900000000004
 30
0.0
 10
-112.3379
 20
101.4234
 30
0.0
 10
-112.3379
 20
101.4234
 30
0.0
  0
SPLINE
  5
188
100
AcDbEntity
  8
Layer 1
370
    20
100
AcDbSpline
210
0.0
220
0.0
230
1.0
 70
     0
 71
     3
 72
     8
 73
     4
 74
     0
 42
0.0000000001
 43
0.0000000001
 40
0.0
 40
0.0
 40
0.0
 40
0.0
 40
1.0
 40
1.0
 40
1.0
 40
1.0
 10
-112.3379
 20
101.4234
 30
0.0
 10
-112.3379
 20
101.4234
 30
0.0
 10
-112.2316
 20
102.995
 30
0.0
 10
-112.2316
 20
102.995
 30
0.0
  0
SPLINE
  5
189
100
AcDbEntity
  8
Layer 1
370
    20
100
AcDbSpline
210
0.0
220
0.0
230
1.0
 70
     0
 71
     3
 72
     8
 73
     4
 74
     0
 42
0.0000000001
 43
0.0000000001
 40
0.0
 40
0.0
 40
0.0
 40
0.0
 40
1.0
 40
1.0
 40
1.0
 40
1.0
 10
-112.2316
 20
102.995
 30
0.0
 10
-112.2316
 20
102.995
 30
0.0
 10
-112.53570000000001
 20
104.54050000000001
 30
0.0
 10
-112.53570000000001
 20
104.54050000000001
 30
0.0
  0
SPLINE
  5
18A
100
AcDbEntity
  8
Layer 1
370
    20
100
AcDbSpline
210
0.0
220
0.0
230
1.0
 70
     0
 71
     3
 72
     8
 73
     4
 74
     0
 42
0.0000000001
 43
0.0000000001
 40
0.0
 40
0.0
 40
0.0
 40
0.0
 40
1.0
 40
1.0
 40
1.0
 40
1.0
 10
-112.53570000000001
 20
104.54050000000001
 30
0.0
 10
-112.53570000000001
 20
104.54050000000001
 30
0.0
 10
-113.22940000000001
 20
105.9547
 30
0.0
 10
-113.22940000000001
 20
105.9547
 30
0.0
  0
SPLINE
  5
18B
100
AcDbEntity
  8
Layer 1
370
    20
100
AcDbSpline
210
0.0
220
0.0
230
1.0
 70
     0
 71
     3
 72
     8
 73
     4
 74
     0
 42
0.0000000001
 43
0.0000000001
 40
0.0
 40
0.0
 40
0.0
 40
0.0
 40
1.0
 40
1.0
 40
1.0
 40
1.0
 10
-113.22940000000001
 20
105.9547
 30
0.0
 10
-113.22940000000001
 20
105.9547
 30
0.0
 10
-114.2655
 20
107.14110000000001
 30
0.0
 10
-114.2655
 20
107.14110000000001
 30
0.0
  0
SPLINE
  5
18C
100
AcDbEntity
  8
Layer 1
370
    20
100
AcDbSpline
210
0.0
220
0.0
230
1.0
 70
     0
 71
     3
 72
     8
 73
     4
 74
     0
 42
0.0000000001
 43
0.0000000001
 40
0.0
 40
0.0
 40
0.0
 40
0.0
 40
1.0
 40
1.0
 40
1.0
 40
1.0
 10
-114.2655
 20
107.14110000000001
 30
0.0
 10
-114.2655
 20
107.14110000000001
 30
0.0
 10
-115.57340000000001
 20
108.0189
 30
0.0
 10
-115.57340000000001
 20
108.0189
 30
0.0
  0
SPLINE
  5
18D
100
AcDbEntity
  8
Layer 1
370
    20
100
AcDbSpline
210
0.0
220
0.0
230
1.0
 70
     0
 71
     3
 72
     8
 73
     4
 74
     0
 42
0.0000000001
 43
0.0000000001
 40
0.0
 40
0.0
 40
0.0
 40
0.0
 40
1.0
 40
1.0
 40
1.0
 40
1.0
 10
-115.57340000000001
 20
108.0189
 30
0.0
 10
-115.57340000000001
 20
108.0189
 30
0.0
 10
-117.0639
 20
108.5283
 30
0.0
 10
-117.0639
 20
108.5283
 30
0.0
  0
SPLINE
  5
18E
100
AcDbEntity
  8
Layer 1
370
    20
100
AcDbSpline
210
0.0
220
0.0
230
1.0
 70
     0
 71
     3
 72
     8
 73
     4
 74
     0
 42
0.0000000001
 43
0.0000000001
 40
0.0
 40
0.0
 40
0.0
 40
0.0
 40
1.0
 40
1.0
 40
1.0
 40
1.0
 10
-117.0639
 20
108.5283
 30
0.0
 10
-117.0639
 20
108.5283
 30
0.0
 10
-117.29270000000001
 20
108.5438
 30
0.0
 10
-117.29270000000001
 20
108.5438
 30
0.0
  0
SPLINE
  5
18F
100
AcDbEntity
  8
Layer 1
370
    20
100
AcDbSpline
210
0.0
220
0.0
230
1.0
 70
     0
 71
     3
 72
     8
 73
     4
 74
     0
 42
0.0000000001
 43
0.0000000001
 40
0.0
 40
0.0
 40
0.0
 40
0.0
 40
1.0
 40
1.0
 40
1.0
 40
1.0
 10
-117.29270000000001
 20
108.5438
 30
0.0
 10
-117.29270000000001
 20
108.5438
 30
0.0
 10
-117.85290000000001
 20
114.3186
 30
0.0
 10
-117.85290000000001
 20
114.3186
 30
0.0
  0
SPLINE
  5
190
100
AcDbEntity
  8
Layer 1
370
    20
100
AcDbSpline
210
0.0
220
0.0
230
1.0
 70
     0
 71
     3
 72
     8
 73
     4
 74
     0
 42
0.0000000001
 43
0.0000000001
 40
0.0
 40
0.0
 40
0.0
 40
0.0
 40
1.0
 40
1.0
 40
1.0
 40
1.0
 10
-117.85290000000001
 20
114.3186
 30
0.0
 10
-117.85290000000001
 20
114.3186
 30
0.0
 10
-119.9255
 20
119.84990000000001
 30
0.0
 10
-119.9255
 20
119.84990000000001
 30
0.0
  0
SPLINE
  5
191
100
AcDbEntity
  8
Layer 1
370
    20
100
AcDbSpline
210
0.0
220
0.0
230
1.0
 70
     0
 71
     3
 72
     8
 73
     4
 74
     0
 42
0.0000000001
 43
0.0000000001
 40
0.0
 40
0.0
 40
0.0
 40
0.0
 40
1.0
 40
1.0
 40
1.0
 40
1.0
 10
-119.9255
 20
119.84990000000001
 30
0.0
 10
-119.9255
 20
119.84990000000001
 30
0.0
 10
-123.35900000000001
 20
124.6563
 30
0.0
 10
-123.35900000000001
 20
124.6563
 30
0.0
  0
SPLINE
  5
192
100
AcDbEntity
  8
Layer 1
370
    20
100
AcDbSpline
210
0.0
220
0.0
230
1.0
 70
     0
 71
     3
 72
     8
 73
     4
 74
     0
 42
0.0000000001
 43
0.0000000001
 40
0.0
 40
0.0
 40
0.0
 40
0.0
 40
1.0
 40
1.0
 40
1.0
 40
1.0
 10
-123.35900000000001
 20
124.6563
 30
0.0
 10
-123.35900000000001
 20
124.6563
 30
0.0
 10
-125.46690000000001
 20
126.3914
 30
0.0
 10
-125.46690000000001
 20
126.3914
 30
0.0
  0
SPLINE
  5
193
100
AcDbEntity
  8
Layer 1
370
    20
100
AcDbSpline
210
0.0
220
0.0
230
1.0
 70
     0
 71
     3
 72
     8
 73
     4
 74
     0
 42
0.0000000001
 43
0.0000000001
 40
0.0
 40
0.0
 40
0.0
 40
0.0
 40
1.0
 40
1.0
 40
1.0
 40
1.0
 10
-125.46690000000001
 20
126.3914
 30
0.0
 10
-125.46690000000001
 20
126.3914
 30
0.0
 10
-125.27220000000001
 20
126.6688
 30
0.0
 10
-125.27220000000001
 20
126.6688
 30
0.0
  0
SPLINE
  5
194
100
AcDbEntity
  8
Layer 1
370
    20
100
AcDbSpline
210
0.0
220
0.0
230
1.0
 70
     0
 71
     3
 72
     8
 73
     4
 74
     0
 42
0.0000000001
 43
0.0000000001
 40
0.0
 40
0.0
 40
0.0
 40
0.0
 40
1.0
 40
1.0
 40
1.0
 40
1.0
 10
-125.27220000000001
 20
126.6688
 30
0.0
 10
-125.27220000000001
 20
126.6688
 30
0.0
 10
-124.4619
 20
128.88830000000002
 30
0.0
 10
-124.4619
 20
128.88830000000002
 30
0.0
  0
SPLINE
  5
195
100
AcDbEntity
  8
Layer 1
370
    20
100
AcDbSpline
210
0.0
220
0.0
230
1.0
 70
     0
 71
     3
 72
     8
 73
     4
 74
     0
 42
0.0000000001
 43
0.0000000001
 40
0.0
 40
0.0
 40
0.0
 40
0.0
 40
1.0
 40
1.0
 40
1.0
 40
1.0
 10
-124.4619
 20
128.88830000000002
 30
0.0
 10
-124.4619
 20
128.88830000000002
 30
0.0
 10
-124.25360000000001
 20
131.24180000000001
 30
0.0
 10
-124.25360000000001
 20
131.24180000000001
 30
0.0
  0
SPLINE
  5
196
100
AcDbEntity
  8
Layer 1
370
    20
100
AcDbSpline
210
0.0
220
0.0
230
1.0
 70
     0
 71
     3
 72
     8
 73
     4
 74
     0
 42
0.0000000001
 43
0.0000000001
 40
0.0
 40
0.0
 40
0.0
 40
0.0
 40
1.0
 40
1.0
 40
1.0
 40
1.0
 10
-124.25360000000001
 20
131.24180000000001
 30
0.0
 10
-124.25360000000001
 20
131.24180000000001
 30
0.0
 10
-124.66160000000001
 20
133.56900000000002
 30
0.0
 10
-124.66160000000001
 20
133.56900000000002
 30
0.0
  0
SPLINE
  5
197
100
AcDbEntity
  8
Layer 1
370
    20
100
AcDbSpline
210
0.0
220
0.0
230
1.0
 70
     0
 71
     3
 72
     8
 73
     4
 74
     0
 42
0.0000000001
 43
0.0000000001
 40
0.0
 40
0.0
 40
0.0
 40
0.0
 40
1.0
 40
1.0
 40
1.0
 40
1.0
 10
-124.66160000000001
 20
133.56900000000002
 30
0.0
 10
-124.66160000000001
 20
133.56900000000002
 30
0.0
 10
-125.658
 20
135.71129999999999
 30
0.0
 10
-125.658
 20
135.71129999999999
 30
0.0
  0
SPLINE
  5
198
100
AcDbEntity
  8
Layer 1
370
    20
100
AcDbSpline
210
0.0
220
0.0
230
1.0
 70
     0
 71
     3
 72
     8
 73
     4
 74
     0
 42
0.0000000001
 43
0.0000000001
 40
0.0
 40
0.0
 40
0.0
 40
0.0
 40
1.0
 40
1.0
 40
1.0
 40
1.0
 10
-125.658
 20
135.71129999999999
 30
0.0
 10
-125.658
 20
135.71129999999999
 30
0.0
 10
-127.17500000000001
 20
137.52280000000002
 30
0.0
 10
-127.17500000000001
 20
137.52280000000002
 30
0.0
  0
SPLINE
  5
199
100
AcDbEntity
  8
Layer 1
370
    20
100
AcDbSpline
210
0.0
220
0.0
230
1.0
 70
     0
 71
     3
 72
     8
 73
     4
 74
     0
 42
0.0000000001
 43
0.0000000001
 40
0.0
 40
0.0
 40
0.0
 40
0.0
 40
1.0
 40
1.0
 40
1.0
 40
1.0
 10
-127.17500000000001
 20
137.52280000000002
 30
0.0
 10
-127.17500000000001
 20
137.52280000000002
 30
0.0
 10
-129.10910000000001
 20
138.87990000000002
 30
0.0
 10
-129.10910000000001
 20
138.87990000000002
 30
0.0
  0
SPLINE
  5
19A
100
AcDbEntity
  8
Layer 1
370
    20
100
AcDbSpline
210
0.0
220
0.0
230
1.0
 70
     0
 71
     3
 72
     8
 73
     4
 74
     0
 42
0.0000000001
 43
0.0000000001
 40
0.0
 40
0.0
 40
0.0
 40
0.0
 40
1.0
 40
1.0
 40
1.0
 40
1.0
 10
-129.10910000000001
 20
138.87990000000002
 30
0.0
 10
-129.10910000000001
 20
138.87990000000002
 30
0.0
 10
-131.32850000000002
 20
139.6902
 30
0.0
 10
-131.32850000000002
 20
139.6902
 30
0.0
  0
SPLINE
  5
19B
100
AcDbEntity
  8
Layer 1
370
    20
100
AcDbSpline
210
0.0
220
0.0
230
1.0
 70
     0
 71
     3
 72
     8
 73
     4
 74
     0
 42
0.0000000001
 43
0.0000000001
 40
0.0
 40
0.0
 40
0.0
 40
0.0
 40
1.0
 40
1.0
 40
1.0
 40
1.0
 10
-131.32850000000002
 20
139.6902
 30
0.0
 10
-131.32850000000002
 20
139.6902
 30
0.0
 10
-133.68200000000002
 20
139.89840000000001
 30
0.0
 10
-133.68200000000002
 20
139.89840000000001
 30
0.0
  0
SPLINE
  5
19C
100
AcDbEntity
  8
Layer 1
370
    20
100
AcDbSpline
210
0.0
220
0.0
230
1.0
 70
     0
 71
     3
 72
     8
 73
     4
 74
     0
 42
0.0000000001
 43
0.0000000001
 40
0.0
 40
0.0
 40
0.0
 40
0.0
 40
1.0
 40
1.0
 40
1.0
 40
1.0
 10
-133.68200000000002
 20
139.89840000000001
 30
0.0
 10
-133.68200000000002
 20
139.89840000000001
 30
0.0
 10
-136.0093
 20
139.4905
 30
0.0
 10
-136.0093
 20
139.4905
 30
0.0
  0
SPLINE
  5
19D
100
AcDbEntity
  8
Layer 1
370
    20
100
AcDbSpline
210
0.0
220
0.0
230
1.0
 70
     0
 71
     3
 72
     8
 73
     4
 74
     0
 42
0.0000000001
 43
0.0000000001
 40
0.0
 40
0.0
 40
0.0
 40
0.0
 40
1.0
 40
1.0
 40
1.0
 40
1.0
 10
-136.0093
 20
139.4905
 30
0.0
 10
-136.0093
 20
139.4905
 30
0.0
 10
-138.1516
 20
138.4941
 30
0.0
 10
-138.1516
 20
138.4941
 30
0.0
  0
SPLINE
  5
19E
100
AcDbEntity
  8
Layer 1
370
    20
100
AcDbSpline
210
0.0
220
0.0
230
1.0
 70
     0
 71
     3
 72
     8
 73
     4
 74
     0
 42
0.0000000001
 43
0.0000000001
 40
0.0
 40
0.0
 40
0.0
 40
0.0
 40
1.0
 40
1.0
 40
1.0
 40
1.0
 10
-138.1516
 20
138.4941
 30
0.0
 10
-138.1516
 20
138.4941
 30
0.0
 10
-139.89840000000001
 20
137.03120000000001
 30
0.0
 10
-139.89840000000001
 20
137.03120000000001
 30
0.0
  0
SPLINE
  5
19F
100
AcDbEntity
  8
Layer 1
370
    20
100
AcDbSpline
210
0.0
220
0.0
230
1.0
 70
     0
 71
     3
 72
     8
 73
     4
 74
     0
 42
0.0000000001
 43
0.0000000001
 40
0.0
 40
0.0
 40
0.0
 40
0.0
 40
1.0
 40
1.0
 40
1.0
 40
1.0
 10
-139.89840000000001
 20
137.03120000000001
 30
0.0
 10
-139.89840000000001
 20
137.03120000000001
 30
0.0
 10
-139.8963
 20
91.972300000000004
 30
0.0
 10
-139.8963
 20
91.972300000000004
 30
0.0
  0
SPLINE
  5
1A0
100
AcDbEntity
  8
Layer 1
370
    20
100
AcDbSpline
210
0.0
220
0.0
230
1.0
 70
     0
 71
     3
 72
     8
 73
     4
 74
     0
 42
0.0000000001
 43
0.0000000001
 40
0.0
 40
0.0
 40
0.0
 40
0.0
 40
1.0
 40
1.0
 40
1.0
 40
1.0
 10
88.649300000000011
 20
66.624800000000008
 30
0.0
 10
88.649300000000011
 20
66.624800000000008
 30
0.0
 10
88.649300000000011
 20
57.574100000000001
 30
0.0
 10
88.649300000000011
 20
57.574100000000001
 30
0.0
  0
SPLINE
  5
1A1
100
AcDbEntity
  8
Layer 1
370
    20
100
AcDbSpline
210
0.0
220
0.0
230
1.0
 70
     0
 71
     3
 72
     8
 73
     4
 74
     0
 42
0.0000000001
 43
0.0000000001
 40
0.0
 40
0.0
 40
0.0
 40
0.0
 40
1.0
 40
1.0
 40
1.0
 40
1.0
 10
88.649300000000011
 20
57.574100000000001
 30
0.0
 10
88.649300000000011
 20
57.574100000000001
 30
0.0
 10
65.546700000000001
 20
57.574100000000001
 30
0.0
 10
65.546700000000001
 20
57.574100000000001
 30
0.0
  0
SPLINE
  5
1A2
100
AcDbEntity
  8
Layer 1
370
    20
100
AcDbSpline
210
0.0
220
0.0
230
1.0
 70
     0
 71
     3
 72
     8
 73
     4
 74
     0
 42
0.0000000001
 43
0.0000000001
 40
0.0
 40
0.0
 40
0.0
 40
0.0
 40
1.0
 40
1.0
 40
1.0
 40
1.0
 10
65.546700000000001
 20
57.574100000000001
 30
0.0
 10
65.546700000000001
 20
57.574100000000001
 30
0.0
 10
65.714799999999997
 20
52.7044
 30
0.0
 10
65.714799999999997
 20
52.7044
 30
0.0
  0
SPLINE
  5
1A3
100
AcDbEntity
  8
Layer 1
370
    20
100
AcDbSpline
210
0.0
220
0.0
230
1.0
 70
     0
 71
     3
 72
     8
 73
     4
 74
     0
 42
0.0000000001
 43
0.0000000001
 40
0.0
 40
0.0
 40
0.0
 40
0.0
 40
1.0
 40
1.0
 40
1.0
 40
1.0
 10
65.714799999999997
 20
52.7044
 30
0.0
 10
65.714799999999997
 20
52.7044
 30
0.0
 10
68.396100000000004
 20
43.9221
 30
0.0
 10
68.396100000000004
 20
43.9221
 30
0.0
  0
SPLINE
  5
1A4
100
AcDbEntity
  8
Layer 1
370
    20
100
AcDbSpline
210
0.0
220
0.0
230
1.0
 70
     0
 71
     3
 72
     8
 73
     4
 74
     0
 42
0.0000000001
 43
0.0000000001
 40
0.0
 40
0.0
 40
0.0
 40
0.0
 40
1.0
 40
1.0
 40
1.0
 40
1.0
 10
68.396100000000004
 20
43.9221
 30
0.0
 10
68.396100000000004
 20
43.9221
 30
0.0
 10
67.980400000000003
 20
43.811300000000003
 30
0.0
 10
67.980400000000003
 20
43.811300000000003
 30
0.0
  0
SPLINE
  5
1A5
100
AcDbEntity
  8
Layer 1
370
    20
100
AcDbSpline
210
0.0
220
0.0
230
1.0
 70
     0
 71
     3
 72
     8
 73
     4
 74
     0
 42
0.0000000001
 43
0.0000000001
 40
0.0
 40
0.0
 40
0.0
 40
0.0
 40
1.0
 40
1.0
 40
1.0
 40
1.0
 10
67.980400000000003
 20
43.811300000000003
 30
0.0
 10
67.980400000000003
 20
43.811300000000003
 30
0.0
 10
66.956600000000009
 20
43.221900000000005
 30
0.0
 10
66.956600000000009
 20
43.221900000000005
 30
0.0
  0
SPLINE
  5
1A6
100
AcDbEntity
  8
Layer 1
370
    20
100
AcDbSpline
210
0.0
220
0.0
230
1.0
 70
     0
 71
     3
 72
     8
 73
     4
 74
     0
 42
0.0000000001
 43
0.0000000001
 40
0.0
 40
0.0
 40
0.0
 40
0.0
 40
1.0
 40
1.0
 40
1.0
 40
1.0
 10
66.956600000000009
 20
43.221900000000005
 30
0.0
 10
66.956600000000009
 20
43.221900000000005
 30
0.0
 10
66.120199999999997
 20
42.387599999999999
 30
0.0
 10
66.120199999999997
 20
42.387599999999999
 30
0.0
  0
SPLINE
  5
1A7
100
AcDbEntity
  8
Layer 1
370
    20
100
AcDbSpline
210
0.0
220
0.0
230
1.0
 70
     0
 71
     3
 72
     8
 73
     4
 74
     0
 42
0.0000000001
 43
0.0000000001
 40
0.0
 40
0.0
 40
0.0
 40
0.0
 40
1.0
 40
1.0
 40
1.0
 40
1.0
 10
66.120199999999997
 20
42.387599999999999
 30
0.0
 10
66.120199999999997
 20
42.387599999999999
 30
0.0
 10
65.528199999999998
 20
41.365200000000002
 30
0.0
 10
65.528199999999998
 20
41.365200000000002
 30
0.0
  0
SPLINE
  5
1A8
100
AcDbEntity
  8
Layer 1
370
    20
100
AcDbSpline
210
0.0
220
0.0
230
1.0
 70
     0
 71
     3
 72
     8
 73
     4
 74
     0
 42
0.0000000001
 43
0.0000000001
 40
0.0
 40
0.0
 40
0.0
 40
0.0
 40
1.0
 40
1.0
 40
1.0
 40
1.0
 10
65.528199999999998
 20
41.365200000000002
 30
0.0
 10
65.528199999999998
 20
41.365200000000002
 30
0.0
 10
65.221100000000007
 20
40.224499999999999
 30
0.0
 10
65.221100000000007
 20
40.224499999999999
 30
0.0
  0
SPLINE
  5
1A9
100
AcDbEntity
  8
Layer 1
370
    20
100
AcDbSpline
210
0.0
220
0.0
230
1.0
 70
     0
 71
     3
 72
     8
 73
     4
 74
     0
 42
0.0000000001
 43
0.0000000001
 40
0.0
 40
0.0
 40
0.0
 40
0.0
 40
1.0
 40
1.0
 40
1.0
 40
1.0
 10
65.221100000000007
 20
40.224499999999999
 30
0.0
 10
65.221100000000007
 20
40.224499999999999
 30
0.0
 10
65.221100000000007
 20
39.043100000000003
 30
0.0
 10
65.221100000000007
 20
39.043100000000003
 30
0.0
  0
SPLINE
  5
1AA
100
AcDbEntity
  8
Layer 1
370
    20
100
AcDbSpline
210
0.0
220
0.0
230
1.0
 70
     0
 71
     3
 72
     8
 73
     4
 74
     0
 42
0.0000000001
 43
0.0000000001
 40
0.0
 40
0.0
 40
0.0
 40
0.0
 40
1.0
 40
1.0
 40
1.0
 40
1.0
 10
65.221100000000007
 20
39.043100000000003
 30
0.0
 10
65.221100000000007
 20
39.043100000000003
 30
0.0
 10
65.525400000000005
 20
37.901700000000005
 30
0.0
 10
65.525400000000005
 20
37.901700000000005
 30
0.0
  0
SPLINE
  5
1AB
100
AcDbEntity
  8
Layer 1
370
    20
100
AcDbSpline
210
0.0
220
0.0
230
1.0
 70
     0
 71
     3
 72
     8
 73
     4
 74
     0
 42
0.0000000001
 43
0.0000000001
 40
0.0
 40
0.0
 40
0.0
 40
0.0
 40
1.0
 40
1.0
 40
1.0
 40
1.0
 10
65.525400000000005
 20
37.901700000000005
 30
0.0
 10
65.525400000000005
 20
37.901700000000005
 30
0.0
 10
66.114800000000002
 20
36.877900000000004
 30
0.0
 10
66.114800000000002
 20
36.877900000000004
 30
0.0
  0
SPLINE
  5
1AC
100
AcDbEntity
  8
Layer 1
370
    20
100
AcDbSpline
210
0.0
220
0.0
230
1.0
 70
     0
 71
     3
 72
     8
 73
     4
 74
     0
 42
0.0000000001
 43
0.0000000001
 40
0.0
 40
0.0
 40
0.0
 40
0.0
 40
1.0
 40
1.0
 40
1.0
 40
1.0
 10
66.114800000000002
 20
36.877900000000004
 30
0.0
 10
66.114800000000002
 20
36.877900000000004
 30
0.0
 10
66.949200000000005
 20
36.041400000000003
 30
0.0
 10
66.949200000000005
 20
36.041400000000003
 30
0.0
  0
SPLINE
  5
1AD
100
AcDbEntity
  8
Layer 1
370
    20
100
AcDbSpline
210
0.0
220
0.0
230
1.0
 70
     0
 71
     3
 72
     8
 73
     4
 74
     0
 42
0.0000000001
 43
0.0000000001
 40
0.0
 40
0.0
 40
0.0
 40
0.0
 40
1.0
 40
1.0
 40
1.0
 40
1.0
 10
66.949200000000005
 20
36.041400000000003
 30
0.0
 10
66.949200000000005
 20
36.041400000000003
 30
0.0
 10
67.971500000000006
 20
35.4495
 30
0.0
 10
67.971500000000006
 20
35.4495
 30
0.0
  0
SPLINE
  5
1AE
100
AcDbEntity
  8
Layer 1
370
    20
100
AcDbSpline
210
0.0
220
0.0
230
1.0
 70
     0
 71
     3
 72
     8
 73
     4
 74
     0
 42
0.0000000001
 43
0.0000000001
 40
0.0
 40
0.0
 40
0.0
 40
0.0
 40
1.0
 40
1.0
 40
1.0
 40
1.0
 10
67.971500000000006
 20
35.4495
 30
0.0
 10
67.971500000000006
 20
35.4495
 30
0.0
 10
69.112300000000005
 20
35.142400000000002
 30
0.0
 10
69.112300000000005
 20
35.142400000000002
 30
0.0
  0
SPLINE
  5
1AF
100
AcDbEntity
  8
Layer 1
370
    20
100
AcDbSpline
210
0.0
220
0.0
230
1.0
 70
     0
 71
     3
 72
     8
 73
     4
 74
     0
 42
0.0000000001
 43
0.0000000001
 40
0.0
 40
0.0
 40
0.0
 40
0.0
 40
1.0
 40
1.0
 40
1.0
 40
1.0
 10
69.112300000000005
 20
35.142400000000002
 30
0.0
 10
69.112300000000005
 20
35.142400000000002
 30
0.0
 10
70.293599999999998
 20
35.140900000000002
 30
0.0
 10
70.293599999999998
 20
35.140900000000002
 30
0.0
  0
SPLINE
  5
1B0
100
AcDbEntity
  8
Layer 1
370
    20
100
AcDbSpline
210
0.0
220
0.0
230
1.0
 70
     0
 71
     3
 72
     8
 73
     4
 74
     0
 42
0.0000000001
 43
0.0000000001
 40
0.0
 40
0.0
 40
0.0
 40
0.0
 40
1.0
 40
1.0
 40
1.0
 40
1.0
 10
70.293599999999998
 20
35.140900000000002
 30
0.0
 10
70.293599999999998
 20
35.140900000000002
 30
0.0
 10
71.435100000000006
 20
35.4452
 30
0.0
 10
71.435100000000006
 20
35.4452
 30
0.0
  0
SPLINE
  5
1B1
100
AcDbEntity
  8
Layer 1
370
    20
100
AcDbSpline
210
0.0
220
0.0
230
1.0
 70
     0
 71
     3
 72
     8
 73
     4
 74
     0
 42
0.0000000001
 43
0.0000000001
 40
0.0
 40
0.0
 40
0.0
 40
0.0
 40
1.0
 40
1.0
 40
1.0
 40
1.0
 10
71.435100000000006
 20
35.4452
 30
0.0
 10
71.435100000000006
 20
35.4452
 30
0.0
 10
72.086100000000002
 20
35.82
 30
0.0
 10
72.086100000000002
 20
35.82
 30
0.0
  0
SPLINE
  5
1B2
100
AcDbEntity
  8
Layer 1
370
    20
100
AcDbSpline
210
0.0
220
0.0
230
1.0
 70
     0
 71
     3
 72
     8
 73
     4
 74
     0
 42
0.0000000001
 43
0.0000000001
 40
0.0
 40
0.0
 40
0.0
 40
0.0
 40
1.0
 40
1.0
 40
1.0
 40
1.0
 10
72.086100000000002
 20
35.82
 30
0.0
 10
72.086100000000002
 20
35.82
 30
0.0
 10
76.948900000000009
 20
28.031000000000002
 30
0.0
 10
76.948900000000009
 20
28.031000000000002
 30
0.0
  0
SPLINE
  5
1B3
100
AcDbEntity
  8
Layer 1
370
    20
100
AcDbSpline
210
0.0
220
0.0
230
1.0
 70
     0
 71
     3
 72
     8
 73
     4
 74
     0
 42
0.0000000001
 43
0.0000000001
 40
0.0
 40
0.0
 40
0.0
 40
0.0
 40
1.0
 40
1.0
 40
1.0
 40
1.0
 10
76.948900000000009
 20
28.031000000000002
 30
0.0
 10
76.948900000000009
 20
28.031000000000002
 30
0.0
 10
83.606499999999997
 20
21.7973
 30
0.0
 10
83.606499999999997
 20
21.7973
 30
0.0
  0
SPLINE
  5
1B4
100
AcDbEntity
  8
Layer 1
370
    20
100
AcDbSpline
210
0.0
220
0.0
230
1.0
 70
     0
 71
     3
 72
     8
 73
     4
 74
     0
 42
0.0000000001
 43
0.0000000001
 40
0.0
 40
0.0
 40
0.0
 40
0.0
 40
1.0
 40
1.0
 40
1.0
 40
1.0
 10
83.606499999999997
 20
21.7973
 30
0.0
 10
83.606499999999997
 20
21.7973
 30
0.0
 10
86.944299999999998
 20
18.7028
 30
0.0
 10
86.944299999999998
 20
18.7028
 30
0.0
  0
SPLINE
  5
1B5
100
AcDbEntity
  8
Layer 1
370
    20
100
AcDbSpline
210
0.0
220
0.0
230
1.0
 70
     0
 71
     3
 72
     8
 73
     4
 74
     0
 42
0.0000000001
 43
0.0000000001
 40
0.0
 40
0.0
 40
0.0
 40
0.0
 40
1.0
 40
1.0
 40
1.0
 40
1.0
 10
86.944299999999998
 20
18.7028
 30
0.0
 10
86.944299999999998
 20
18.7028
 30
0.0
 10
94.335700000000003
 20
14.769
 30
0.0
 10
94.335700000000003
 20
14.769
 30
0.0
  0
SPLINE
  5
1B6
100
AcDbEntity
  8
Layer 1
370
    20
100
AcDbSpline
210
0.0
220
0.0
230
1.0
 70
     0
 71
     3
 72
     8
 73
     4
 74
     0
 42
0.0000000001
 43
0.0000000001
 40
0.0
 40
0.0
 40
0.0
 40
0.0
 40
1.0
 40
1.0
 40
1.0
 40
1.0
 10
94.335700000000003
 20
14.769
 30
0.0
 10
94.335700000000003
 20
14.769
 30
0.0
 10
99.013400000000004
 20
12.279500000000001
 30
0.0
 10
99.013400000000004
 20
12.279500000000001
 30
0.0
  0
SPLINE
  5
1B7
100
AcDbEntity
  8
Layer 1
370
    20
100
AcDbSpline
210
0.0
220
0.0
230
1.0
 70
     0
 71
     3
 72
     8
 73
     4
 74
     0
 42
0.0000000001
 43
0.0000000001
 40
0.0
 40
0.0
 40
0.0
 40
0.0
 40
1.0
 40
1.0
 40
1.0
 40
1.0
 10
99.013400000000004
 20
12.279500000000001
 30
0.0
 10
99.013400000000004
 20
12.279500000000001
 30
0.0
 10
100.17450000000001
 20
12.011000000000001
 30
0.0
 10
100.17450000000001
 20
12.011000000000001
 30
0.0
  0
SPLINE
  5
1B8
100
AcDbEntity
  8
Layer 1
370
    20
100
AcDbSpline
210
0.0
220
0.0
230
1.0
 70
     0
 71
     3
 72
     8
 73
     4
 74
     0
 42
0.0000000001
 43
0.0000000001
 40
0.0
 40
0.0
 40
0.0
 40
0.0
 40
1.0
 40
1.0
 40
1.0
 40
1.0
 10
100.17450000000001
 20
12.011000000000001
 30
0.0
 10
100.17450000000001
 20
12.011000000000001
 30
0.0
 10
99.958400000000012
 20
11.305300000000001
 30
0.0
 10
99.958400000000012
 20
11.305300000000001
 30
0.0
  0
SPLINE
  5
1B9
100
AcDbEntity
  8
Layer 1
370
    20
100
AcDbSpline
210
0.0
220
0.0
230
1.0
 70
     0
 71
     3
 72
     8
 73
     4
 74
     0
 42
0.0000000001
 43
0.0000000001
 40
0.0
 40
0.0
 40
0.0
 40
0.0
 40
1.0
 40
1.0
 40
1.0
 40
1.0
 10
99.958400000000012
 20
11.305300000000001
 30
0.0
 10
99.958400000000012
 20
11.305300000000001
 30
0.0
 10
99.847100000000012
 20
8.157
 30
0.0
 10
99.847100000000012
 20
8.157
 30
0.0
  0
SPLINE
  5
1BA
100
AcDbEntity
  8
Layer 1
370
    20
100
AcDbSpline
210
0.0
220
0.0
230
1.0
 70
     0
 71
     3
 72
     8
 73
     4
 74
     0
 42
0.0000000001
 43
0.0000000001
 40
0.0
 40
0.0
 40
0.0
 40
0.0
 40
1.0
 40
1.0
 40
1.0
 40
1.0
 10
99.847100000000012
 20
8.157
 30
0.0
 10
99.847100000000012
 20
8.157
 30
0.0
 10
100.5544
 20
5.0871000000000004
 30
0.0
 10
100.5544
 20
5.0871000000000004
 30
0.0
  0
SPLINE
  5
1BB
100
AcDbEntity
  8
Layer 1
370
    20
100
AcDbSpline
210
0.0
220
0.0
230
1.0
 70
     0
 71
     3
 72
     8
 73
     4
 74
     0
 42
0.0000000001
 43
0.0000000001
 40
0.0
 40
0.0
 40
0.0
 40
0.0
 40
1.0
 40
1.0
 40
1.0
 40
1.0
 10
100.5544
 20
5.0871000000000004
 30
0.0
 10
100.5544
 20
5.0871000000000004
 30
0.0
 10
102.0322
 20
2.3048999999999999
 30
0.0
 10
102.0322
 20
2.3048999999999999
 30
0.0
  0
SPLINE
  5
1BC
100
AcDbEntity
  8
Layer 1
370
    20
100
AcDbSpline
210
0.0
220
0.0
230
1.0
 70
     0
 71
     3
 72
     8
 73
     4
 74
     0
 42
0.0000000001
 43
0.0000000001
 40
0.0
 40
0.0
 40
0.0
 40
0.0
 40
1.0
 40
1.0
 40
1.0
 40
1.0
 10
102.0322
 20
2.3048999999999999
 30
0.0
 10
102.0322
 20
2.3048999999999999
 30
0.0
 10
104.17970000000001
 20
0.0
 30
0.0
 10
104.17970000000001
 20
0.0
 30
0.0
  0
SPLINE
  5
1BD
100
AcDbEntity
  8
Layer 1
370
    20
100
AcDbSpline
210
0.0
220
0.0
230
1.0
 70
     0
 71
     3
 72
     8
 73
     4
 74
     0
 42
0.0000000001
 43
0.0000000001
 40
0.0
 40
0.0
 40
0.0
 40
0.0
 40
1.0
 40
1.0
 40
1.0
 40
1.0
 10
104.17970000000001
 20
0.0
 30
0.0
 10
104.17970000000001
 20
0.0
 30
0.0
 10
106.8506
 20
-1.6705000000000001
 30
0.0
 10
106.8506
 20
-1.6705000000000001
 30
0.0
  0
SPLINE
  5
1BE
100
AcDbEntity
  8
Layer 1
370
    20
100
AcDbSpline
210
0.0
220
0.0
230
1.0
 70
     0
 71
     3
 72
     8
 73
     4
 74
     0
 42
0.0000000001
 43
0.0000000001
 40
0.0
 40
0.0
 40
0.0
 40
0.0
 40
1.0
 40
1.0
 40
1.0
 40
1.0
 10
106.8506
 20
-1.6705000000000001
 30
0.0
 10
106.8506
 20
-1.6705000000000001
 30
0.0
 10
109.86280000000001
 20
-2.5929000000000002
 30
0.0
 10
109.86280000000001
 20
-2.5929000000000002
 30
0.0
  0
SPLINE
  5
1BF
100
AcDbEntity
  8
Layer 1
370
    20
100
AcDbSpline
210
0.0
220
0.0
230
1.0
 70
     0
 71
     3
 72
     8
 73
     4
 74
     0
 42
0.0000000001
 43
0.0000000001
 40
0.0
 40
0.0
 40
0.0
 40
0.0
 40
1.0
 40
1.0
 40
1.0
 40
1.0
 10
109.86280000000001
 20
-2.5929000000000002
 30
0.0
 10
109.86280000000001
 20
-2.5929000000000002
 30
0.0
 10
111.85760000000001
 20
-2.6634000000000002
 30
0.0
 10
111.85760000000001
 20
-2.6634000000000002
 30
0.0
  0
SPLINE
  5
1C0
100
AcDbEntity
  8
Layer 1
370
    20
100
AcDbSpline
210
0.0
220
0.0
230
1.0
 70
     0
 71
     3
 72
     8
 73
     4
 74
     0
 42
0.0000000001
 43
0.0000000001
 40
0.0
 40
0.0
 40
0.0
 40
0.0
 40
1.0
 40
1.0
 40
1.0
 40
1.0
 10
111.85760000000001
 20
-2.6634000000000002
 30
0.0
 10
111.85760000000001
 20
-2.6634000000000002
 30
0.0
 10
111.85760000000001
 20
137.0557
 30
0.0
 10
111.85760000000001
 20
137.0557
 30
0.0
  0
SPLINE
  5
1C1
100
AcDbEntity
  8
Layer 1
370
    20
100
AcDbSpline
210
0.0
220
0.0
230
1.0
 70
     0
 71
     3
 72
     8
 73
     4
 74
     0
 42
0.0000000001
 43
0.0000000001
 40
0.0
 40
0.0
 40
0.0
 40
0.0
 40
1.0
 40
1.0
 40
1.0
 40
1.0
 10
111.85760000000001
 20
137.0557
 30
0.0
 10
111.85760000000001
 20
137.0557
 30
0.0
 10
109.98320000000001
 20
137.15540000000001
 30
0.0
 10
109.98320000000001
 20
137.15540000000001
 30
0.0
  0
SPLINE
  5
1C2
100
AcDbEntity
  8
Layer 1
370
    20
100
AcDbSpline
210
0.0
220
0.0
230
1.0
 70
     0
 71
     3
 72
     8
 73
     4
 74
     0
 42
0.0000000001
 43
0.0000000001
 40
0.0
 40
0.0
 40
0.0
 40
0.0
 40
1.0
 40
1.0
 40
1.0
 40
1.0
 10
109.98320000000001
 20
137.15540000000001
 30
0.0
 10
109.98320000000001
 20
137.15540000000001
 30
0.0
 10
103.81920000000001
 20
135.85040000000001
 30
0.0
 10
103.81920000000001
 20
135.85040000000001
 30
0.0
  0
SPLINE
  5
1C3
100
AcDbEntity
  8
Layer 1
370
    20
100
AcDbSpline
210
0.0
220
0.0
230
1.0
 70
     0
 71
     3
 72
     8
 73
     4
 74
     0
 42
0.0000000001
 43
0.0000000001
 40
0.0
 40
0.0
 40
0.0
 40
0.0
 40
1.0
 40
1.0
 40
1.0
 40
1.0
 10
103.81920000000001
 20
135.85040000000001
 30
0.0
 10
103.81920000000001
 20
135.85040000000001
 30
0.0
 10
98.203000000000003
 20
132.99440000000001
 30
0.0
 10
98.203000000000003
 20
132.99440000000001
 30
0.0
  0
SPLINE
  5
1C4
100
AcDbEntity
  8
Layer 1
370
    20
100
AcDbSpline
210
0.0
220
0.0
230
1.0
 70
     0
 71
     3
 72
     8
 73
     4
 74
     0
 42
0.0000000001
 43
0.0000000001
 40
0.0
 40
0.0
 40
0.0
 40
0.0
 40
1.0
 40
1.0
 40
1.0
 40
1.0
 10
98.203000000000003
 20
132.99440000000001
 30
0.0
 10
98.203000000000003
 20
132.99440000000001
 30
0.0
 10
93.517400000000009
 20
128.78229999999999
 30
0.0
 10
93.517400000000009
 20
128.78229999999999
 30
0.0
  0
SPLINE
  5
1C5
100
AcDbEntity
  8
Layer 1
370
    20
100
AcDbSpline
210
0.0
220
0.0
230
1.0
 70
     0
 71
     3
 72
     8
 73
     4
 74
     0
 42
0.0000000001
 43
0.0000000001
 40
0.0
 40
0.0
 40
0.0
 40
0.0
 40
1.0
 40
1.0
 40
1.0
 40
1.0
 10
93.517400000000009
 20
128.78229999999999
 30
0.0
 10
93.517400000000009
 20
128.78229999999999
 30
0.0
 10
90.081699999999998
 20
123.5009
 30
0.0
 10
90.081699999999998
 20
123.5009
 30
0.0
  0
SPLINE
  5
1C6
100
AcDbEntity
  8
Layer 1
370
    20
100
AcDbSpline
210
0.0
220
0.0
230
1.0
 70
     0
 71
     3
 72
     8
 73
     4
 74
     0
 42
0.0000000001
 43
0.0000000001
 40
0.0
 40
0.0
 40
0.0
 40
0.0
 40
1.0
 40
1.0
 40
1.0
 40
1.0
 10
90.081699999999998
 20
123.5009
 30
0.0
 10
90.081699999999998
 20
123.5009
 30
0.0
 10
88.129900000000006
 20
117.51020000000001
 30
0.0
 10
88.129900000000006
 20
117.51020000000001
 30
0.0
  0
SPLINE
  5
1C7
100
AcDbEntity
  8
Layer 1
370
    20
100
AcDbSpline
210
0.0
220
0.0
230
1.0
 70
     0
 71
     3
 72
     8
 73
     4
 74
     0
 42
0.0000000001
 43
0.0000000001
 40
0.0
 40
0.0
 40
0.0
 40
0.0
 40
1.0
 40
1.0
 40
1.0
 40
1.0
 10
88.129900000000006
 20
117.51020000000001
 30
0.0
 10
88.129900000000006
 20
117.51020000000001
 30
0.0
 10
87.795100000000005
 20
111.21860000000001
 30
0.0
 10
87.795100000000005
 20
111.21860000000001
 30
0.0
  0
SPLINE
  5
1C8
100
AcDbEntity
  8
Layer 1
370
    20
100
AcDbSpline
210
0.0
220
0.0
230
1.0
 70
     0
 71
     3
 72
     8
 73
     4
 74
     0
 42
0.0000000001
 43
0.0000000001
 40
0.0
 40
0.0
 40
0.0
 40
0.0
 40
1.0
 40
1.0
 40
1.0
 40
1.0
 10
87.795100000000005
 20
111.21860000000001
 30
0.0
 10
87.795100000000005
 20
111.21860000000001
 30
0.0
 10
89.100099999999998
 20
105.05460000000001
 30
0.0
 10
89.100099999999998
 20
105.05460000000001
 30
0.0
  0
SPLINE
  5
1C9
100
AcDbEntity
  8
Layer 1
370
    20
100
AcDbSpline
210
0.0
220
0.0
230
1.0
 70
     0
 71
     3
 72
     8
 73
     4
 74
     0
 42
0.0000000001
 43
0.0000000001
 40
0.0
 40
0.0
 40
0.0
 40
0.0
 40
1.0
 40
1.0
 40
1.0
 40
1.0
 10
89.100099999999998
 20
105.05460000000001
 30
0.0
 10
89.100099999999998
 20
105.05460000000001
 30
0.0
 10
89.164000000000001
 20
104.92910000000001
 30
0.0
 10
89.164000000000001
 20
104.92910000000001
 30
0.0
  0
SPLINE
  5
1CA
100
AcDbEntity
  8
Layer 1
370
    20
100
AcDbSpline
210
0.0
220
0.0
230
1.0
 70
     0
 71
     3
 72
     8
 73
     4
 74
     0
 42
0.0000000001
 43
0.0000000001
 40
0.0
 40
0.0
 40
0.0
 40
0.0
 40
1.0
 40
1.0
 40
1.0
 40
1.0
 10
89.164000000000001
 20
104.92910000000001
 30
0.0
 10
89.164000000000001
 20
104.92910000000001
 30
0.0
 10
84.076700000000002
 20
101.753
 30
0.0
 10
84.076700000000002
 20
101.753
 30
0.0
  0
SPLINE
  5
1CB
100
AcDbEntity
  8
Layer 1
370
    20
100
AcDbSpline
210
0.0
220
0.0
230
1.0
 70
     0
 71
     3
 72
     8
 73
     4
 74
     0
 42
0.0000000001
 43
0.0000000001
 40
0.0
 40
0.0
 40
0.0
 40
0.0
 40
1.0
 40
1.0
 40
1.0
 40
1.0
 10
84.076700000000002
 20
101.753
 30
0.0
 10
84.076700000000002
 20
101.753
 30
0.0
 10
74.748500000000007
 20
91.757600000000011
 30
0.0
 10
74.748500000000007
 20
91.757600000000011
 30
0.0
  0
SPLINE
  5
1CC
100
AcDbEntity
  8
Layer 1
370
    20
100
AcDbSpline
210
0.0
220
0.0
230
1.0
 70
     0
 71
     3
 72
     8
 73
     4
 74
     0
 42
0.0000000001
 43
0.0000000001
 40
0.0
 40
0.0
 40
0.0
 40
0.0
 40
1.0
 40
1.0
 40
1.0
 40
1.0
 10
74.748500000000007
 20
91.757600000000011
 30
0.0
 10
74.748500000000007
 20
91.757600000000011
 30
0.0
 10
68.325200000000009
 20
79.688600000000008
 30
0.0
 10
68.325200000000009
 20
79.688600000000008
 30
0.0
  0
SPLINE
  5
1CD
100
AcDbEntity
  8
Layer 1
370
    20
100
AcDbSpline
210
0.0
220
0.0
230
1.0
 70
     0
 71
     3
 72
     8
 73
     4
 74
     0
 42
0.0000000001
 43
0.0000000001
 40
0.0
 40
0.0
 40
0.0
 40
0.0
 40
1.0
 40
1.0
 40
1.0
 40
1.0
 10
68.325200000000009
 20
79.688600000000008
 30
0.0
 10
68.325200000000009
 20
79.688600000000008
 30
0.0
 10
65.303899999999999
 20
66.624800000000008
 30
0.0
 10
65.303899999999999
 20
66.624800000000008
 30
0.0
  0
SPLINE
  5
1CE
100
AcDbEntity
  8
Layer 1
370
    20
100
AcDbSpline
210
0.0
220
0.0
230
1.0
 70
     0
 71
     3
 72
     8
 73
     4
 74
     0
 42
0.0000000001
 43
0.0000000001
 40
0.0
 40
0.0
 40
0.0
 40
0.0
 40
1.0
 40
1.0
 40
1.0
 40
1.0
 10
65.303899999999999
 20
66.624800000000008
 30
0.0
 10
65.303899999999999
 20
66.624800000000008
 30
0.0
 10
88.649300000000011
 20
66.624800000000008
 30
0.0
 10
88.649300000000011
 20
66.624800000000008
 30
0.0
  0
SPLINE
  5
1CF
100
AcDbEntity
  8
Layer 1
370
    20
100
AcDbSpline
210
0.0
220
0.0
230
1.0
 70
     0
 71
     3
 72
     8
 73
     4
 74
     0
 42
0.0000000001
 43
0.0000000001
 40
0.0
 40
0.0
 40
0.0
 40
0.0
 40
1.0
 40
1.0
 40
1.0
 40
1.0
 10
-81.835300000000004
 20
-8.8490000000000002
 30
0.0
 10
-81.835300000000004
 20
-8.8490000000000002
 30
0.0
 10
-89.377600000000001
 20
-8.8490000000000002
 30
0.0
 10
-89.377600000000001
 20
-8.8490000000000002
 30
0.0
  0
SPLINE
  5
1D0
100
AcDbEntity
  8
Layer 1
370
    20
100
AcDbSpline
210
0.0
220
0.0
230
1.0
 70
     0
 71
     3
 72
     8
 73
     4
 74
     0
 42
0.0000000001
 43
0.0000000001
 40
0.0
 40
0.0
 40
0.0
 40
0.0
 40
1.0
 40
1.0
 40
1.0
 40
1.0
 10
-89.377600000000001
 20
-8.8490000000000002
 30
0.0
 10
-89.377600000000001
 20
-8.8490000000000002
 30
0.0
 10
-89.377600000000001
 20
-11.8659
 30
0.0
 10
-89.377600000000001
 20
-11.8659
 30
0.0
  0
SPLINE
  5
1D1
100
AcDbEntity
  8
Layer 1
370
    20
100
AcDbSpline
210
0.0
220
0.0
230
1.0
 70
     0
 71
     3
 72
     8
 73
     4
 74
     0
 42
0.0000000001
 43
0.0000000001
 40
0.0
 40
0.0
 40
0.0
 40
0.0
 40
1.0
 40
1.0
 40
1.0
 40
1.0
 10
-89.377600000000001
 20
-11.8659
 30
0.0
 10
-89.377600000000001
 20
-11.8659
 30
0.0
 10
-86.360700000000008
 20
-11.8659
 30
0.0
 10
-86.360700000000008
 20
-11.8659
 30
0.0
  0
SPLINE
  5
1D2
100
AcDbEntity
  8
Layer 1
370
    20
100
AcDbSpline
210
0.0
220
0.0
230
1.0
 70
     0
 71
     3
 72
     8
 73
     4
 74
     0
 42
0.0000000001
 43
0.0000000001
 40
0.0
 40
0.0
 40
0.0
 40
0.0
 40
1.0
 40
1.0
 40
1.0
 40
1.0
 10
-86.360700000000008
 20
-11.8659
 30
0.0
 10
-86.360700000000008
 20
-11.8659
 30
0.0
 10
-86.360700000000008
 20
-14.882800000000001
 30
0.0
 10
-86.360700000000008
 20
-14.882800000000001
 30
0.0
  0
SPLINE
  5
1D3
100
AcDbEntity
  8
Layer 1
370
    20
100
AcDbSpline
210
0.0
220
0.0
230
1.0
 70
     0
 71
     3
 72
     8
 73
     4
 74
     0
 42
0.0000000001
 43
0.0000000001
 40
0.0
 40
0.0
 40
0.0
 40
0.0
 40
1.0
 40
1.0
 40
1.0
 40
1.0
 10
-86.360700000000008
 20
-14.882800000000001
 30
0.0
 10
-86.360700000000008
 20
-14.882800000000001
 30
0.0
 10
-87.869100000000003
 20
-14.882800000000001
 30
0.0
 10
-87.869100000000003
 20
-14.882800000000001
 30
0.0
  0
SPLINE
  5
1D4
100
AcDbEntity
  8
Layer 1
370
    20
100
AcDbSpline
210
0.0
220
0.0
230
1.0
 70
     0
 71
     3
 72
     8
 73
     4
 74
     0
 42
0.0000000001
 43
0.0000000001
 40
0.0
 40
0.0
 40
0.0
 40
0.0
 40
1.0
 40
1.0
 40
1.0
 40
1.0
 10
-87.869100000000003
 20
-14.882800000000001
 30
0.0
 10
-87.869100000000003
 20
-14.882800000000001
 30
0.0
 10
-87.869100000000003
 20
-17.899800000000003
 30
0.0
 10
-87.869100000000003
 20
-17.899800000000003
 30
0.0
  0
SPLINE
  5
1D5
100
AcDbEntity
  8
Layer 1
370
    20
100
AcDbSpline
210
0.0
220
0.0
230
1.0
 70
     0
 71
     3
 72
     8
 73
     4
 74
     0
 42
0.0000000001
 43
0.0000000001
 40
0.0
 40
0.0
 40
0.0
 40
0.0
 40
1.0
 40
1.0
 40
1.0
 40
1.0
 10
-87.869100000000003
 20
-17.899800000000003
 30
0.0
 10
-87.869100000000003
 20
-17.899800000000003
 30
0.0
 10
-86.360700000000008
 20
-17.899800000000003
 30
0.0
 10
-86.360700000000008
 20
-17.899800000000003
 30
0.0
  0
SPLINE
  5
1D6
100
AcDbEntity
  8
Layer 1
370
    20
100
AcDbSpline
210
0.0
220
0.0
230
1.0
 70
     0
 71
     3
 72
     8
 73
     4
 74
     0
 42
0.0000000001
 43
0.0000000001
 40
0.0
 40
0.0
 40
0.0
 40
0.0
 40
1.0
 40
1.0
 40
1.0
 40
1.0
 10
-86.360700000000008
 20
-17.899800000000003
 30
0.0
 10
-86.360700000000008
 20
-17.899800000000003
 30
0.0
 10
-86.360700000000008
 20
-20.916700000000002
 30
0.0
 10
-86.360700000000008
 20
-20.916700000000002
 30
0.0
  0
SPLINE
  5
1D7
100
AcDbEntity
  8
Layer 1
370
    20
100
AcDbSpline
210
0.0
220
0.0
230
1.0
 70
     0
 71
     3
 72
     8
 73
     4
 74
     0
 42
0.0000000001
 43
0.0000000001
 40
0.0
 40
0.0
 40
0.0
 40
0.0
 40
1.0
 40
1.0
 40
1.0
 40
1.0
 10
-86.360700000000008
 20
-20.916700000000002
 30
0.0
 10
-86.360700000000008
 20
-20.916700000000002
 30
0.0
 10
-89.377600000000001
 20
-20.916700000000002
 30
0.0
 10
-89.377600000000001
 20
-20.916700000000002
 30
0.0
  0
SPLINE
  5
1D8
100
AcDbEntity
  8
Layer 1
370
    20
100
AcDbSpline
210
0.0
220
0.0
230
1.0
 70
     0
 71
     3
 72
     8
 73
     4
 74
     0
 42
0.0000000001
 43
0.0000000001
 40
0.0
 40
0.0
 40
0.0
 40
0.0
 40
1.0
 40
1.0
 40
1.0
 40
1.0
 10
-89.377600000000001
 20
-20.916700000000002
 30
0.0
 10
-89.377600000000001
 20
-20.916700000000002
 30
0.0
 10
-89.377600000000001
 20
-23.933600000000002
 30
0.0
 10
-89.377600000000001
 20
-23.933600000000002
 30
0.0
  0
SPLINE
  5
1D9
100
AcDbEntity
  8
Layer 1
370
    20
100
AcDbSpline
210
0.0
220
0.0
230
1.0
 70
     0
 71
     3
 72
     8
 73
     4
 74
     0
 42
0.0000000001
 43
0.0000000001
 40
0.0
 40
0.0
 40
0.0
 40
0.0
 40
1.0
 40
1.0
 40
1.0
 40
1.0
 10
-89.377600000000001
 20
-23.933600000000002
 30
0.0
 10
-89.377600000000001
 20
-23.933600000000002
 30
0.0
 10
-81.835300000000004
 20
-23.933600000000002
 30
0.0
 10
-81.835300000000004
 20
-23.933600000000002
 30
0.0
  0
SPLINE
  5
1DA
100
AcDbEntity
  8
Layer 1
370
    20
100
AcDbSpline
210
0.0
220
0.0
230
1.0
 70
     0
 71
     3
 72
     8
 73
     4
 74
     0
 42
0.0000000001
 43
0.0000000001
 40
0.0
 40
0.0
 40
0.0
 40
0.0
 40
1.0
 40
1.0
 40
1.0
 40
1.0
 10
-81.835300000000004
 20
-23.933600000000002
 30
0.0
 10
-81.835300000000004
 20
-23.933600000000002
 30
0.0
 10
-81.835300000000004
 20
-17.899800000000003
 30
0.0
 10
-81.835300000000004
 20
-17.899800000000003
 30
0.0
  0
SPLINE
  5
1DB
100
AcDbEntity
  8
Layer 1
370
    20
100
AcDbSpline
210
0.0
220
0.0
230
1.0
 70
     0
 71
     3
 72
     8
 73
     4
 74
     0
 42
0.0000000001
 43
0.0000000001
 40
0.0
 40
0.0
 40
0.0
 40
0.0
 40
1.0
 40
1.0
 40
1.0
 40
1.0
 10
-81.835300000000004
 20
-17.899800000000003
 30
0.0
 10
-81.835300000000004
 20
-17.899800000000003
 30
0.0
 10
-83.343699999999998
 20
-17.899800000000003
 30
0.0
 10
-83.343699999999998
 20
-17.899800000000003
 30
0.0
  0
SPLINE
  5
1DC
100
AcDbEntity
  8
Layer 1
370
    20
100
AcDbSpline
210
0.0
220
0.0
230
1.0
 70
     0
 71
     3
 72
     8
 73
     4
 74
     0
 42
0.0000000001
 43
0.0000000001
 40
0.0
 40
0.0
 40
0.0
 40
0.0
 40
1.0
 40
1.0
 40
1.0
 40
1.0
 10
-83.343699999999998
 20
-17.899800000000003
 30
0.0
 10
-83.343699999999998
 20
-17.899800000000003
 30
0.0
 10
-83.343699999999998
 20
-14.882800000000001
 30
0.0
 10
-83.343699999999998
 20
-14.882800000000001
 30
0.0
  0
SPLINE
  5
1DD
100
AcDbEntity
  8
Layer 1
370
    20
100
AcDbSpline
210
0.0
220
0.0
230
1.0
 70
     0
 71
     3
 72
     8
 73
     4
 74
     0
 42
0.0000000001
 43
0.0000000001
 40
0.0
 40
0.0
 40
0.0
 40
0.0
 40
1.0
 40
1.0
 40
1.0
 40
1.0
 10
-83.343699999999998
 20
-14.882800000000001
 30
0.0
 10
-83.343699999999998
 20
-14.882800000000001
 30
0.0
 10
-81.835300000000004
 20
-14.882800000000001
 30
0.0
 10
-81.835300000000004
 20
-14.882800000000001
 30
0.0
  0
SPLINE
  5
1DE
100
AcDbEntity
  8
Layer 1
370
    20
100
AcDbSpline
210
0.0
220
0.0
230
1.0
 70
     0
 71
     3
 72
     8
 73
     4
 74
     0
 42
0.0000000001
 43
0.0000000001
 40
0.0
 40
0.0
 40
0.0
 40
0.0
 40
1.0
 40
1.0
 40
1.0
 40
1.0
 10
-81.835300000000004
 20
-14.882800000000001
 30
0.0
 10
-81.835300000000004
 20
-14.882800000000001
 30
0.0
 10
-81.835300000000004
 20
-8.8490000000000002
 30
0.0
 10
-81.835300000000004
 20
-8.8490000000000002
 30
0.0
  0
SPLINE
  5
1DF
100
AcDbEntity
  8
Layer 1
370
    20
100
AcDbSpline
210
0.0
220
0.0
230
1.0
 70
     0
 71
     3
 72
     8
 73
     4
 74
     0
 42
0.0000000001
 43
0.0000000001
 40
0.0
 40
0.0
 40
0.0
 40
0.0
 40
1.0
 40
1.0
 40
1.0
 40
1.0
 10
-81.835300000000004
 20
-29.967400000000001
 30
0.0
 10
-81.835300000000004
 20
-29.967400000000001
 30
0.0
 10
-89.377600000000001
 20
-29.967400000000001
 30
0.0
 10
-89.377600000000001
 20
-29.967400000000001
 30
0.0
  0
SPLINE
  5
1E0
100
AcDbEntity
  8
Layer 1
370
    20
100
AcDbSpline
210
0.0
220
0.0
230
1.0
 70
     0
 71
     3
 72
     8
 73
     4
 74
     0
 42
0.0000000001
 43
0.0000000001
 40
0.0
 40
0.0
 40
0.0
 40
0.0
 40
1.0
 40
1.0
 40
1.0
 40
1.0
 10
-89.377600000000001
 20
-29.967400000000001
 30
0.0
 10
-89.377600000000001
 20
-29.967400000000001
 30
0.0
 10
-89.377600000000001
 20
-32.984400000000001
 30
0.0
 10
-89.377600000000001
 20
-32.984400000000001
 30
0.0
  0
SPLINE
  5
1E1
100
AcDbEntity
  8
Layer 1
370
    20
100
AcDbSpline
210
0.0
220
0.0
230
1.0
 70
     0
 71
     3
 72
     8
 73
     4
 74
     0
 42
0.0000000001
 43
0.0000000001
 40
0.0
 40
0.0
 40
0.0
 40
0.0
 40
1.0
 40
1.0
 40
1.0
 40
1.0
 10
-89.377600000000001
 20
-32.984400000000001
 30
0.0
 10
-89.377600000000001
 20
-32.984400000000001
 30
0.0
 10
-86.360700000000008
 20
-32.984400000000001
 30
0.0
 10
-86.360700000000008
 20
-32.984400000000001
 30
0.0
  0
SPLINE
  5
1E2
100
AcDbEntity
  8
Layer 1
370
    20
100
AcDbSpline
210
0.0
220
0.0
230
1.0
 70
     0
 71
     3
 72
     8
 73
     4
 74
     0
 42
0.0000000001
 43
0.0000000001
 40
0.0
 40
0.0
 40
0.0
 40
0.0
 40
1.0
 40
1.0
 40
1.0
 40
1.0
 10
-86.360700000000008
 20
-32.984400000000001
 30
0.0
 10
-86.360700000000008
 20
-32.984400000000001
 30
0.0
 10
-86.360700000000008
 20
-36.001300000000001
 30
0.0
 10
-86.360700000000008
 20
-36.001300000000001
 30
0.0
  0
SPLINE
  5
1E3
100
AcDbEntity
  8
Layer 1
370
    20
100
AcDbSpline
210
0.0
220
0.0
230
1.0
 70
     0
 71
     3
 72
     8
 73
     4
 74
     0
 42
0.0000000001
 43
0.0000000001
 40
0.0
 40
0.0
 40
0.0
 40
0.0
 40
1.0
 40
1.0
 40
1.0
 40
1.0
 10
-86.360700000000008
 20
-36.001300000000001
 30
0.0
 10
-86.360700000000008
 20
-36.001300000000001
 30
0.0
 10
-87.869100000000003
 20
-36.001300000000001
 30
0.0
 10
-87.869100000000003
 20
-36.001300000000001
 30
0.0
  0
SPLINE
  5
1E4
100
AcDbEntity
  8
Layer 1
370
    20
100
AcDbSpline
210
0.0
220
0.0
230
1.0
 70
     0
 71
     3
 72
     8
 73
     4
 74
     0
 42
0.0000000001
 43
0.0000000001
 40
0.0
 40
0.0
 40
0.0
 40
0.0
 40
1.0
 40
1.0
 40
1.0
 40
1.0
 10
-87.869100000000003
 20
-36.001300000000001
 30
0.0
 10
-87.869100000000003
 20
-36.001300000000001
 30
0.0
 10
-87.869100000000003
 20
-39.0182
 30
0.0
 10
-87.869100000000003
 20
-39.0182
 30
0.0
  0
SPLINE
  5
1E5
100
AcDbEntity
  8
Layer 1
370
    20
100
AcDbSpline
210
0.0
220
0.0
230
1.0
 70
     0
 71
     3
 72
     8
 73
     4
 74
     0
 42
0.0000000001
 43
0.0000000001
 40
0.0
 40
0.0
 40
0.0
 40
0.0
 40
1.0
 40
1.0
 40
1.0
 40
1.0
 10
-87.869100000000003
 20
-39.0182
 30
0.0
 10
-87.869100000000003
 20
-39.0182
 30
0.0
 10
-86.360700000000008
 20
-39.0182
 30
0.0
 10
-86.360700000000008
 20
-39.0182
 30
0.0
  0
SPLINE
  5
1E6
100
AcDbEntity
  8
Layer 1
370
    20
100
AcDbSpline
210
0.0
220
0.0
230
1.0
 70
     0
 71
     3
 72
     8
 73
     4
 74
     0
 42
0.0000000001
 43
0.0000000001
 40
0.0
 40
0.0
 40
0.0
 40
0.0
 40
1.0
 40
1.0
 40
1.0
 40
1.0
 10
-86.360700000000008
 20
-39.0182
 30
0.0
 10
-86.360700000000008
 20
-39.0182
 30
0.0
 10
-86.360700000000008
 20
-42.0351
 30
0.0
 10
-86.360700000000008
 20
-42.0351
 30
0.0
  0
SPLINE
  5
1E7
100
AcDbEntity
  8
Layer 1
370
    20
100
AcDbSpline
210
0.0
220
0.0
230
1.0
 70
     0
 71
     3
 72
     8
 73
     4
 74
     0
 42
0.0000000001
 43
0.0000000001
 40
0.0
 40
0.0
 40
0.0
 40
0.0
 40
1.0
 40
1.0
 40
1.0
 40
1.0
 10
-86.360700000000008
 20
-42.0351
 30
0.0
 10
-86.360700000000008
 20
-42.0351
 30
0.0
 10
-89.377600000000001
 20
-42.0351
 30
0.0
 10
-89.377600000000001
 20
-42.0351
 30
0.0
  0
SPLINE
  5
1E8
100
AcDbEntity
  8
Layer 1
370
    20
100
AcDbSpline
210
0.0
220
0.0
230
1.0
 70
     0
 71
     3
 72
     8
 73
     4
 74
     0
 42
0.0000000001
 43
0.0000000001
 40
0.0
 40
0.0
 40
0.0
 40
0.0
 40
1.0
 40
1.0
 40
1.0
 40
1.0
 10
-89.377600000000001
 20
-42.0351
 30
0.0
 10
-89.377600000000001
 20
-42.0351
 30
0.0
 10
-89.377600000000001
 20
-45.052
 30
0.0
 10
-89.377600000000001
 20
-45.052
 30
0.0
  0
SPLINE
  5
1E9
100
AcDbEntity
  8
Layer 1
370
    20
100
AcDbSpline
210
0.0
220
0.0
230
1.0
 70
     0
 71
     3
 72
     8
 73
     4
 74
     0
 42
0.0000000001
 43
0.0000000001
 40
0.0
 40
0.0
 40
0.0
 40
0.0
 40
1.0
 40
1.0
 40
1.0
 40
1.0
 10
-89.377600000000001
 20
-45.052
 30
0.0
 10
-89.377600000000001
 20
-45.052
 30
0.0
 10
-81.835300000000004
 20
-45.052
 30
0.0
 10
-81.835300000000004
 20
-45.052
 30
0.0
  0
SPLINE
  5
1EA
100
AcDbEntity
  8
Layer 1
370
    20
100
AcDbSpline
210
0.0
220
0.0
230
1.0
 70
     0
 71
     3
 72
     8
 73
     4
 74
     0
 42
0.0000000001
 43
0.0000000001
 40
0.0
 40
0.0
 40
0.0
 40
0.0
 40
1.0
 40
1.0
 40
1.0
 40
1.0
 10
-81.835300000000004
 20
-45.052
 30
0.0
 10
-81.835300000000004
 20
-45.052
 30
0.0
 10
-81.835300000000004
 20
-39.0182
 30
0.0
 10
-81.835300000000004
 20
-39.0182
 30
0.0
  0
SPLINE
  5
1EB
100
AcDbEntity
  8
Layer 1
370
    20
100
AcDbSpline
210
0.0
220
0.0
230
1.0
 70
     0
 71
     3
 72
     8
 73
     4
 74
     0
 42
0.0000000001
 43
0.0000000001
 40
0.0
 40
0.0
 40
0.0
 40
0.0
 40
1.0
 40
1.0
 40
1.0
 40
1.0
 10
-81.835300000000004
 20
-39.0182
 30
0.0
 10
-81.835300000000004
 20
-39.0182
 30
0.0
 10
-83.343699999999998
 20
-39.0182
 30
0.0
 10
-83.343699999999998
 20
-39.0182
 30
0.0
  0
SPLINE
  5
1EC
100
AcDbEntity
  8
Layer 1
370
    20
100
AcDbSpline
210
0.0
220
0.0
230
1.0
 70
     0
 71
     3
 72
     8
 73
     4
 74
     0
 42
0.0000000001
 43
0.0000000001
 40
0.0
 40
0.0
 40
0.0
 40
0.0
 40
1.0
 40
1.0
 40
1.0
 40
1.0
 10
-83.343699999999998
 20
-39.0182
 30
0.0
 10
-83.343699999999998
 20
-39.0182
 30
0.0
 10
-83.343699999999998
 20
-36.001300000000001
 30
0.0
 10
-83.343699999999998
 20
-36.001300000000001
 30
0.0
  0
SPLINE
  5
1ED
100
AcDbEntity
  8
Layer 1
370
    20
100
AcDbSpline
210
0.0
220
0.0
230
1.0
 70
     0
 71
     3
 72
     8
 73
     4
 74
     0
 42
0.0000000001
 43
0.0000000001
 40
0.0
 40
0.0
 40
0.0
 40
0.0
 40
1.0
 40
1.0
 40
1.0
 40
1.0
 10
-83.343699999999998
 20
-36.001300000000001
 30
0.0
 10
-83.343699999999998
 20
-36.001300000000001
 30
0.0
 10
-81.835300000000004
 20
-36.001300000000001
 30
0.0
 10
-81.835300000000004
 20
-36.001300000000001
 30
0.0
  0
SPLINE
  5
1EE
100
AcDbEntity
  8
Layer 1
370
    20
100
AcDbSpline
210
0.0
220
0.0
230
1.0
 70
     0
 71
     3
 72
     8
 73
     4
 74
     0
 42
0.0000000001
 43
0.0000000001
 40
0.0
 40
0.0
 40
0.0
 40
0.0
 40
1.0
 40
1.0
 40
1.0
 40
1.0
 10
-81.835300000000004
 20
-36.001300000000001
 30
0.0
 10
-81.835300000000004
 20
-36.001300000000001
 30
0.0
 10
-81.835300000000004
 20
-29.967400000000001
 30
0.0
 10
-81.835300000000004
 20
-29.967400000000001
 30
0.0
  0
SPLINE
  5
1EF
100
AcDbEntity
  8
Layer 1
370
    20
100
AcDbSpline
210
0.0
220
0.0
230
1.0
 70
     0
 71
     3
 72
     8
 73
     4
 74
     0
 42
0.0000000001
 43
0.0000000001
 40
0.0
 40
0.0
 40
0.0
 40
0.0
 40
1.0
 40
1.0
 40
1.0
 40
1.0
 10
71.622600000000006
 20
-7.6191000000000004
 30
0.0
 10
71.622600000000006
 20
-7.6191000000000004
 30
0.0
 10
74.235399999999998
 20
-9.127600000000001
 30
0.0
 10
74.235399999999998
 20
-9.127600000000001
 30
0.0
  0
SPLINE
  5
1F0
100
AcDbEntity
  8
Layer 1
370
    20
100
AcDbSpline
210
0.0
220
0.0
230
1.0
 70
     0
 71
     3
 72
     8
 73
     4
 74
     0
 42
0.0000000001
 43
0.0000000001
 40
0.0
 40
0.0
 40
0.0
 40
0.0
 40
1.0
 40
1.0
 40
1.0
 40
1.0
 10
74.235399999999998
 20
-9.127600000000001
 30
0.0
 10
74.235399999999998
 20
-9.127600000000001
 30
0.0
 10
87.609999999999999
 20
-27.4041
 30
0.0
 10
87.609999999999999
 20
-27.4041
 30
0.0
  0
SPLINE
  5
1F1
100
AcDbEntity
  8
Layer 1
370
    20
100
AcDbSpline
210
0.0
220
0.0
230
1.0
 70
     0
 71
     3
 72
     8
 73
     4
 74
     0
 42
0.0000000001
 43
0.0000000001
 40
0.0
 40
0.0
 40
0.0
 40
0.0
 40
1.0
 40
1.0
 40
1.0
 40
1.0
 10
87.609999999999999
 20
-27.4041
 30
0.0
 10
87.609999999999999
 20
-27.4041
 30
0.0
 10
88.350000000000009
 20
-28.4693
 30
0.0
 10
88.350000000000009
 20
-28.4693
 30
0.0
  0
SPLINE
  5
1F2
100
AcDbEntity
  8
Layer 1
370
    20
100
AcDbSpline
210
0.0
220
0.0
230
1.0
 70
     0
 71
     3
 72
     8
 73
     4
 74
     0
 42
0.0000000001
 43
0.0000000001
 40
0.0
 40
0.0
 40
0.0
 40
0.0
 40
1.0
 40
1.0
 40
1.0
 40
1.0
 10
88.350000000000009
 20
-28.4693
 30
0.0
 10
88.350000000000009
 20
-28.4693
 30
0.0
 10
88.739200000000011
 20
-28.184700000000003
 30
0.0
 10
88.739200000000011
 20
-28.184700000000003
 30
0.0
  0
SPLINE
  5
1F3
100
AcDbEntity
  8
Layer 1
370
    20
100
AcDbSpline
210
0.0
220
0.0
230
1.0
 70
     0
 71
     3
 72
     8
 73
     4
 74
     0
 42
0.0000000001
 43
0.0000000001
 40
0.0
 40
0.0
 40
0.0
 40
0.0
 40
1.0
 40
1.0
 40
1.0
 40
1.0
 10
88.739200000000011
 20
-28.184700000000003
 30
0.0
 10
88.739200000000011
 20
-28.184700000000003
 30
0.0
 10
89.840800000000002
 20
-27.758000000000003
 30
0.0
 10
89.840800000000002
 20
-27.758000000000003
 30
0.0
  0
SPLINE
  5
1F4
100
AcDbEntity
  8
Layer 1
370
    20
100
AcDbSpline
210
0.0
220
0.0
230
1.0
 70
     0
 71
     3
 72
     8
 73
     4
 74
     0
 42
0.0000000001
 43
0.0000000001
 40
0.0
 40
0.0
 40
0.0
 40
0.0
 40
1.0
 40
1.0
 40
1.0
 40
1.0
 10
89.840800000000002
 20
-27.758000000000003
 30
0.0
 10
89.840800000000002
 20
-27.758000000000003
 30
0.0
 10
91.0154
 20
-27.631
 30
0.0
 10
91.0154
 20
-27.631
 30
0.0
  0
SPLINE
  5
1F5
100
AcDbEntity
  8
Layer 1
370
    20
100
AcDbSpline
210
0.0
220
0.0
230
1.0
 70
     0
 71
     3
 72
     8
 73
     4
 74
     0
 42
0.0000000001
 43
0.0000000001
 40
0.0
 40
0.0
 40
0.0
 40
0.0
 40
1.0
 40
1.0
 40
1.0
 40
1.0
 10
91.0154
 20
-27.631
 30
0.0
 10
91.0154
 20
-27.631
 30
0.0
 10
92.182700000000011
 20
-27.8123
 30
0.0
 10
92.182700000000011
 20
-27.8123
 30
0.0
  0
SPLINE
  5
1F6
100
AcDbEntity
  8
Layer 1
370
    20
100
AcDbSpline
210
0.0
220
0.0
230
1.0
 70
     0
 71
     3
 72
     8
 73
     4
 74
     0
 42
0.0000000001
 43
0.0000000001
 40
0.0
 40
0.0
 40
0.0
 40
0.0
 40
1.0
 40
1.0
 40
1.0
 40
1.0
 10
92.182700000000011
 20
-27.8123
 30
0.0
 10
92.182700000000011
 20
-27.8123
 30
0.0
 10
93.263400000000004
 20
-28.2895
 30
0.0
 10
93.263400000000004
 20
-28.2895
 30
0.0
  0
SPLINE
  5
1F7
100
AcDbEntity
  8
Layer 1
370
    20
100
AcDbSpline
210
0.0
220
0.0
230
1.0
 70
     0
 71
     3
 72
     8
 73
     4
 74
     0
 42
0.0000000001
 43
0.0000000001
 40
0.0
 40
0.0
 40
0.0
 40
0.0
 40
1.0
 40
1.0
 40
1.0
 40
1.0
 10
93.263400000000004
 20
-28.2895
 30
0.0
 10
93.263400000000004
 20
-28.2895
 30
0.0
 10
94.183700000000002
 20
-29.030200000000001
 30
0.0
 10
94.183700000000002
 20
-29.030200000000001
 30
0.0
  0
SPLINE
  5
1F8
100
AcDbEntity
  8
Layer 1
370
    20
100
AcDbSpline
210
0.0
220
0.0
230
1.0
 70
     0
 71
     3
 72
     8
 73
     4
 74
     0
 42
0.0000000001
 43
0.0000000001
 40
0.0
 40
0.0
 40
0.0
 40
0.0
 40
1.0
 40
1.0
 40
1.0
 40
1.0
 10
94.183700000000002
 20
-29.030200000000001
 30
0.0
 10
94.183700000000002
 20
-29.030200000000001
 30
0.0
 10
94.881
 20
-29.983800000000002
 30
0.0
 10
94.881
 20
-29.983800000000002
 30
0.0
  0
SPLINE
  5
1F9
100
AcDbEntity
  8
Layer 1
370
    20
100
AcDbSpline
210
0.0
220
0.0
230
1.0
 70
     0
 71
     3
 72
     8
 73
     4
 74
     0
 42
0.0000000001
 43
0.0000000001
 40
0.0
 40
0.0
 40
0.0
 40
0.0
 40
1.0
 40
1.0
 40
1.0
 40
1.0
 10
94.881
 20
-29.983800000000002
 30
0.0
 10
94.881
 20
-29.983800000000002
 30
0.0
 10
95.307700000000011
 20
-31.0854
 30
0.0
 10
95.307700000000011
 20
-31.0854
 30
0.0
  0
SPLINE
  5
1FA
100
AcDbEntity
  8
Layer 1
370
    20
100
AcDbSpline
210
0.0
220
0.0
230
1.0
 70
     0
 71
     3
 72
     8
 73
     4
 74
     0
 42
0.0000000001
 43
0.0000000001
 40
0.0
 40
0.0
 40
0.0
 40
0.0
 40
1.0
 40
1.0
 40
1.0
 40
1.0
 10
95.307700000000011
 20
-31.0854
 30
0.0
 10
95.307700000000011
 20
-31.0854
 30
0.0
 10
95.434700000000007
 20
-32.259900000000002
 30
0.0
 10
95.434700000000007
 20
-32.259900000000002
 30
0.0
  0
SPLINE
  5
1FB
100
AcDbEntity
  8
Layer 1
370
    20
100
AcDbSpline
210
0.0
220
0.0
230
1.0
 70
     0
 71
     3
 72
     8
 73
     4
 74
     0
 42
0.0000000001
 43
0.0000000001
 40
0.0
 40
0.0
 40
0.0
 40
0.0
 40
1.0
 40
1.0
 40
1.0
 40
1.0
 10
95.434700000000007
 20
-32.259900000000002
 30
0.0
 10
95.434700000000007
 20
-32.259900000000002
 30
0.0
 10
95.253399999999999
 20
-33.427300000000002
 30
0.0
 10
95.253399999999999
 20
-33.427300000000002
 30
0.0
  0
SPLINE
  5
1FC
100
AcDbEntity
  8
Layer 1
370
    20
100
AcDbSpline
210
0.0
220
0.0
230
1.0
 70
     0
 71
     3
 72
     8
 73
     4
 74
     0
 42
0.0000000001
 43
0.0000000001
 40
0.0
 40
0.0
 40
0.0
 40
0.0
 40
1.0
 40
1.0
 40
1.0
 40
1.0
 10
95.253399999999999
 20
-33.427300000000002
 30
0.0
 10
95.253399999999999
 20
-33.427300000000002
 30
0.0
 10
94.776200000000003
 20
-34.508000000000003
 30
0.0
 10
94.776200000000003
 20
-34.508000000000003
 30
0.0
  0
SPLINE
  5
1FD
100
AcDbEntity
  8
Layer 1
370
    20
100
AcDbSpline
210
0.0
220
0.0
230
1.0
 70
     0
 71
     3
 72
     8
 73
     4
 74
     0
 42
0.0000000001
 43
0.0000000001
 40
0.0
 40
0.0
 40
0.0
 40
0.0
 40
1.0
 40
1.0
 40
1.0
 40
1.0
 10
94.776200000000003
 20
-34.508000000000003
 30
0.0
 10
94.776200000000003
 20
-34.508000000000003
 30
0.0
 10
94.035499999999999
 20
-35.4283
 30
0.0
 10
94.035499999999999
 20
-35.4283
 30
0.0
  0
SPLINE
  5
1FE
100
AcDbEntity
  8
Layer 1
370
    20
100
AcDbSpline
210
0.0
220
0.0
230
1.0
 70
     0
 71
     3
 72
     8
 73
     4
 74
     0
 42
0.0000000001
 43
0.0000000001
 40
0.0
 40
0.0
 40
0.0
 40
0.0
 40
1.0
 40
1.0
 40
1.0
 40
1.0
 10
94.035499999999999
 20
-35.4283
 30
0.0
 10
94.035499999999999
 20
-35.4283
 30
0.0
 10
93.471100000000007
 20
-35.841000000000001
 30
0.0
 10
93.471100000000007
 20
-35.841000000000001
 30
0.0
  0
SPLINE
  5
1FF
100
AcDbEntity
  8
Layer 1
370
    20
100
AcDbSpline
210
0.0
220
0.0
230
1.0
 70
     0
 71
     3
 72
     8
 73
     4
 74
     0
 42
0.0000000001
 43
0.0000000001
 40
0.0
 40
0.0
 40
0.0
 40
0.0
 40
1.0
 40
1.0
 40
1.0
 40
1.0
 10
93.471100000000007
 20
-35.841000000000001
 30
0.0
 10
93.471100000000007
 20
-35.841000000000001
 30
0.0
 10
93.640600000000006
 20
-36.084900000000005
 30
0.0
 10
93.640600000000006
 20
-36.084900000000005
 30
0.0
  0
SPLINE
  5
200
100
AcDbEntity
  8
Layer 1
370
    20
100
AcDbSpline
210
0.0
220
0.0
230
1.0
 70
     0
 71
     3
 72
     8
 73
     4
 74
     0
 42
0.0000000001
 43
0.0000000001
 40
0.0
 40
0.0
 40
0.0
 40
0.0
 40
1.0
 40
1.0
 40
1.0
 40
1.0
 10
93.640600000000006
 20
-36.084900000000005
 30
0.0
 10
93.640600000000006
 20
-36.084900000000005
 30
0.0
 10
98.082400000000007
 20
-45.676400000000001
 30
0.0
 10
98.082400000000007
 20
-45.676400000000001
 30
0.0
  0
SPLINE
  5
201
100
AcDbEntity
  8
Layer 1
370
    20
100
AcDbSpline
210
0.0
220
0.0
230
1.0
 70
     0
 71
     3
 72
     8
 73
     4
 74
     0
 42
0.0000000001
 43
0.0000000001
 40
0.0
 40
0.0
 40
0.0
 40
0.0
 40
1.0
 40
1.0
 40
1.0
 40
1.0
 10
98.082400000000007
 20
-45.676400000000001
 30
0.0
 10
98.082400000000007
 20
-45.676400000000001
 30
0.0
 10
98.459400000000002
 20
-47.148299999999999
 30
0.0
 10
98.459400000000002
 20
-47.148299999999999
 30
0.0
  0
SPLINE
  5
202
100
AcDbEntity
  8
Layer 1
370
    20
100
AcDbSpline
210
0.0
220
0.0
230
1.0
 70
     0
 71
     3
 72
     8
 73
     4
 74
     0
 42
0.0000000001
 43
0.0000000001
 40
0.0
 40
0.0
 40
0.0
 40
0.0
 40
1.0
 40
1.0
 40
1.0
 40
1.0
 10
98.459400000000002
 20
-47.148299999999999
 30
0.0
 10
98.459400000000002
 20
-47.148299999999999
 30
0.0
 10
100.8019
 20
-46.8399
 30
0.0
 10
100.8019
 20
-46.8399
 30
0.0
  0
SPLINE
  5
203
100
AcDbEntity
  8
Layer 1
370
    20
100
AcDbSpline
210
0.0
220
0.0
230
1.0
 70
     0
 71
     3
 72
     8
 73
     4
 74
     0
 42
0.0000000001
 43
0.0000000001
 40
0.0
 40
0.0
 40
0.0
 40
0.0
 40
1.0
 40
1.0
 40
1.0
 40
1.0
 10
100.8019
 20
-46.8399
 30
0.0
 10
100.8019
 20
-46.8399
 30
0.0
 10
103.1444
 20
-47.148299999999999
 30
0.0
 10
103.1444
 20
-47.148299999999999
 30
0.0
  0
SPLINE
  5
204
100
AcDbEntity
  8
Layer 1
370
    20
100
AcDbSpline
210
0.0
220
0.0
230
1.0
 70
     0
 71
     3
 72
     8
 73
     4
 74
     0
 42
0.0000000001
 43
0.0000000001
 40
0.0
 40
0.0
 40
0.0
 40
0.0
 40
1.0
 40
1.0
 40
1.0
 40
1.0
 10
103.1444
 20
-47.148299999999999
 30
0.0
 10
103.1444
 20
-47.148299999999999
 30
0.0
 10
105.32730000000001
 20
-48.052400000000006
 30
0.0
 10
105.32730000000001
 20
-48.052400000000006
 30
0.0
  0
SPLINE
  5
205
100
AcDbEntity
  8
Layer 1
370
    20
100
AcDbSpline
210
0.0
220
0.0
230
1.0
 70
     0
 71
     3
 72
     8
 73
     4
 74
     0
 42
0.0000000001
 43
0.0000000001
 40
0.0
 40
0.0
 40
0.0
 40
0.0
 40
1.0
 40
1.0
 40
1.0
 40
1.0
 10
105.32730000000001
 20
-48.052400000000006
 30
0.0
 10
105.32730000000001
 20
-48.052400000000006
 30
0.0
 10
107.20180000000001
 20
-49.4908
 30
0.0
 10
107.20180000000001
 20
-49.4908
 30
0.0
  0
SPLINE
  5
206
100
AcDbEntity
  8
Layer 1
370
    20
100
AcDbSpline
210
0.0
220
0.0
230
1.0
 70
     0
 71
     3
 72
     8
 73
     4
 74
     0
 42
0.0000000001
 43
0.0000000001
 40
0.0
 40
0.0
 40
0.0
 40
0.0
 40
1.0
 40
1.0
 40
1.0
 40
1.0
 10
107.20180000000001
 20
-49.4908
 30
0.0
 10
107.20180000000001
 20
-49.4908
 30
0.0
 10
108.6401
 20
-51.365200000000002
 30
0.0
 10
108.6401
 20
-51.365200000000002
 30
0.0
  0
SPLINE
  5
207
100
AcDbEntity
  8
Layer 1
370
    20
100
AcDbSpline
210
0.0
220
0.0
230
1.0
 70
     0
 71
     3
 72
     8
 73
     4
 74
     0
 42
0.0000000001
 43
0.0000000001
 40
0.0
 40
0.0
 40
0.0
 40
0.0
 40
1.0
 40
1.0
 40
1.0
 40
1.0
 10
108.6401
 20
-51.365200000000002
 30
0.0
 10
108.6401
 20
-51.365200000000002
 30
0.0
 10
109.54430000000001
 20
-53.548100000000005
 30
0.0
 10
109.54430000000001
 20
-53.548100000000005
 30
0.0
  0
SPLINE
  5
208
100
AcDbEntity
  8
Layer 1
370
    20
100
AcDbSpline
210
0.0
220
0.0
230
1.0
 70
     0
 71
     3
 72
     8
 73
     4
 74
     0
 42
0.0000000001
 43
0.0000000001
 40
0.0
 40
0.0
 40
0.0
 40
0.0
 40
1.0
 40
1.0
 40
1.0
 40
1.0
 10
109.54430000000001
 20
-53.548100000000005
 30
0.0
 10
109.54430000000001
 20
-53.548100000000005
 30
0.0
 10
109.8527
 20
-55.890599999999999
 30
0.0
 10
109.8527
 20
-55.890599999999999
 30
0.0
  0
SPLINE
  5
209
100
AcDbEntity
  8
Layer 1
370
    20
100
AcDbSpline
210
0.0
220
0.0
230
1.0
 70
     0
 71
     3
 72
     8
 73
     4
 74
     0
 42
0.0000000001
 43
0.0000000001
 40
0.0
 40
0.0
 40
0.0
 40
0.0
 40
1.0
 40
1.0
 40
1.0
 40
1.0
 10
109.8527
 20
-55.890599999999999
 30
0.0
 10
109.8527
 20
-55.890599999999999
 30
0.0
 10
109.54430000000001
 20
-58.2331
 30
0.0
 10
109.54430000000001
 20
-58.2331
 30
0.0
  0
SPLINE
  5
20A
100
AcDbEntity
  8
Layer 1
370
    20
100
AcDbSpline
210
0.0
220
0.0
230
1.0
 70
     0
 71
     3
 72
     8
 73
     4
 74
     0
 42
0.0000000001
 43
0.0000000001
 40
0.0
 40
0.0
 40
0.0
 40
0.0
 40
1.0
 40
1.0
 40
1.0
 40
1.0
 10
109.54430000000001
 20
-58.2331
 30
0.0
 10
109.54430000000001
 20
-58.2331
 30
0.0
 10
108.6401
 20
-60.416000000000004
 30
0.0
 10
108.6401
 20
-60.416000000000004
 30
0.0
  0
SPLINE
  5
20B
100
AcDbEntity
  8
Layer 1
370
    20
100
AcDbSpline
210
0.0
220
0.0
230
1.0
 70
     0
 71
     3
 72
     8
 73
     4
 74
     0
 42
0.0000000001
 43
0.0000000001
 40
0.0
 40
0.0
 40
0.0
 40
0.0
 40
1.0
 40
1.0
 40
1.0
 40
1.0
 10
108.6401
 20
-60.416000000000004
 30
0.0
 10
108.6401
 20
-60.416000000000004
 30
0.0
 10
107.20180000000001
 20
-62.290500000000002
 30
0.0
 10
107.20180000000001
 20
-62.290500000000002
 30
0.0
  0
SPLINE
  5
20C
100
AcDbEntity
  8
Layer 1
370
    20
100
AcDbSpline
210
0.0
220
0.0
230
1.0
 70
     0
 71
     3
 72
     8
 73
     4
 74
     0
 42
0.0000000001
 43
0.0000000001
 40
0.0
 40
0.0
 40
0.0
 40
0.0
 40
1.0
 40
1.0
 40
1.0
 40
1.0
 10
107.20180000000001
 20
-62.290500000000002
 30
0.0
 10
107.20180000000001
 20
-62.290500000000002
 30
0.0
 10
105.48220000000001
 20
-63.609900000000003
 30
0.0
 10
105.48220000000001
 20
-63.609900000000003
 30
0.0
  0
SPLINE
  5
20D
100
AcDbEntity
  8
Layer 1
370
    20
100
AcDbSpline
210
0.0
220
0.0
230
1.0
 70
     0
 71
     3
 72
     8
 73
     4
 74
     0
 42
0.0000000001
 43
0.0000000001
 40
0.0
 40
0.0
 40
0.0
 40
0.0
 40
1.0
 40
1.0
 40
1.0
 40
1.0
 10
105.48220000000001
 20
-63.609900000000003
 30
0.0
 10
105.48220000000001
 20
-63.609900000000003
 30
0.0
 10
107.0643
 20
-64.140900000000002
 30
0.0
 10
107.0643
 20
-64.140900000000002
 30
0.0
  0
SPLINE
  5
20E
100
AcDbEntity
  8
Layer 1
370
    20
100
AcDbSpline
210
0.0
220
0.0
230
1.0
 70
     0
 71
     3
 72
     8
 73
     4
 74
     0
 42
0.0000000001
 43
0.0000000001
 40
0.0
 40
0.0
 40
0.0
 40
0.0
 40
1.0
 40
1.0
 40
1.0
 40
1.0
 10
107.0643
 20
-64.140900000000002
 30
0.0
 10
107.0643
 20
-64.140900000000002
 30
0.0
 10
110.16640000000001
 20
-66.1982
 30
0.0
 10
110.16640000000001
 20
-66.1982
 30
0.0
  0
SPLINE
  5
20F
100
AcDbEntity
  8
Layer 1
370
    20
100
AcDbSpline
210
0.0
220
0.0
230
1.0
 70
     0
 71
     3
 72
     8
 73
     4
 74
     0
 42
0.0000000001
 43
0.0000000001
 40
0.0
 40
0.0
 40
0.0
 40
0.0
 40
1.0
 40
1.0
 40
1.0
 40
1.0
 10
110.16640000000001
 20
-66.1982
 30
0.0
 10
110.16640000000001
 20
-66.1982
 30
0.0
 10
112.63050000000001
 20
-68.98830000000001
 30
0.0
 10
112.63050000000001
 20
-68.98830000000001
 30
0.0
  0
SPLINE
  5
210
100
AcDbEntity
  8
Layer 1
370
    20
100
AcDbSpline
210
0.0
220
0.0
230
1.0
 70
     0
 71
     3
 72
     8
 73
     4
 74
     0
 42
0.0000000001
 43
0.0000000001
 40
0.0
 40
0.0
 40
0.0
 40
0.0
 40
1.0
 40
1.0
 40
1.0
 40
1.0
 10
112.63050000000001
 20
-68.98830000000001
 30
0.0
 10
112.63050000000001
 20
-68.98830000000001
 30
0.0
 10
114.28830000000001
 20
-72.321100000000001
 30
0.0
 10
114.28830000000001
 20
-72.321100000000001
 30
0.0
  0
SPLINE
  5
211
100
AcDbEntity
  8
Layer 1
370
    20
100
AcDbSpline
210
0.0
220
0.0
230
1.0
 70
     0
 71
     3
 72
     8
 73
     4
 74
     0
 42
0.0000000001
 43
0.0000000001
 40
0.0
 40
0.0
 40
0.0
 40
0.0
 40
1.0
 40
1.0
 40
1.0
 40
1.0
 10
114.28830000000001
 20
-72.321100000000001
 30
0.0
 10
114.28830000000001
 20
-72.321100000000001
 30
0.0
 10
115.02720000000001
 20
-75.969400000000007
 30
0.0
 10
115.02720000000001
 20
-75.969400000000007
 30
0.0
  0
SPLINE
  5
212
100
AcDbEntity
  8
Layer 1
370
    20
100
AcDbSpline
210
0.0
220
0.0
230
1.0
 70
     0
 71
     3
 72
     8
 73
     4
 74
     0
 42
0.0000000001
 43
0.0000000001
 40
0.0
 40
0.0
 40
0.0
 40
0.0
 40
1.0
 40
1.0
 40
1.0
 40
1.0
 10
115.02720000000001
 20
-75.969400000000007
 30
0.0
 10
115.02720000000001
 20
-75.969400000000007
 30
0.0
 10
114.79660000000001
 20
-79.684600000000003
 30
0.0
 10
114.79660000000001
 20
-79.684600000000003
 30
0.0
  0
SPLINE
  5
213
100
AcDbEntity
  8
Layer 1
370
    20
100
AcDbSpline
210
0.0
220
0.0
230
1.0
 70
     0
 71
     3
 72
     8
 73
     4
 74
     0
 42
0.0000000001
 43
0.0000000001
 40
0.0
 40
0.0
 40
0.0
 40
0.0
 40
1.0
 40
1.0
 40
1.0
 40
1.0
 10
114.79660000000001
 20
-79.684600000000003
 30
0.0
 10
114.79660000000001
 20
-79.684600000000003
 30
0.0
 10
113.6123
 20
-83.2136
 30
0.0
 10
113.6123
 20
-83.2136
 30
0.0
  0
SPLINE
  5
214
100
AcDbEntity
  8
Layer 1
370
    20
100
AcDbSpline
210
0.0
220
0.0
230
1.0
 70
     0
 71
     3
 72
     8
 73
     4
 74
     0
 42
0.0000000001
 43
0.0000000001
 40
0.0
 40
0.0
 40
0.0
 40
0.0
 40
1.0
 40
1.0
 40
1.0
 40
1.0
 10
113.6123
 20
-83.2136
 30
0.0
 10
113.6123
 20
-83.2136
 30
0.0
 10
111.5549
 20
-86.31580000000001
 30
0.0
 10
111.5549
 20
-86.31580000000001
 30
0.0
  0
SPLINE
  5
215
100
AcDbEntity
  8
Layer 1
370
    20
100
AcDbSpline
210
0.0
220
0.0
230
1.0
 70
     0
 71
     3
 72
     8
 73
     4
 74
     0
 42
0.0000000001
 43
0.0000000001
 40
0.0
 40
0.0
 40
0.0
 40
0.0
 40
1.0
 40
1.0
 40
1.0
 40
1.0
 10
111.5549
 20
-86.31580000000001
 30
0.0
 10
111.5549
 20
-86.31580000000001
 30
0.0
 10
108.76480000000001
 20
-88.779800000000009
 30
0.0
 10
108.76480000000001
 20
-88.779800000000009
 30
0.0
  0
SPLINE
  5
216
100
AcDbEntity
  8
Layer 1
370
    20
100
AcDbSpline
210
0.0
220
0.0
230
1.0
 70
     0
 71
     3
 72
     8
 73
     4
 74
     0
 42
0.0000000001
 43
0.0000000001
 40
0.0
 40
0.0
 40
0.0
 40
0.0
 40
1.0
 40
1.0
 40
1.0
 40
1.0
 10
108.76480000000001
 20
-88.779800000000009
 30
0.0
 10
108.76480000000001
 20
-88.779800000000009
 30
0.0
 10
105.432
 20
-90.437700000000007
 30
0.0
 10
105.432
 20
-90.437700000000007
 30
0.0
  0
SPLINE
  5
217
100
AcDbEntity
  8
Layer 1
370
    20
100
AcDbSpline
210
0.0
220
0.0
230
1.0
 70
     0
 71
     3
 72
     8
 73
     4
 74
     0
 42
0.0000000001
 43
0.0000000001
 40
0.0
 40
0.0
 40
0.0
 40
0.0
 40
1.0
 40
1.0
 40
1.0
 40
1.0
 10
105.432
 20
-90.437700000000007
 30
0.0
 10
105.432
 20
-90.437700000000007
 30
0.0
 10
103.59710000000001
 20
-90.809300000000007
 30
0.0
 10
103.59710000000001
 20
-90.809300000000007
 30
0.0
  0
SPLINE
  5
218
100
AcDbEntity
  8
Layer 1
370
    20
100
AcDbSpline
210
0.0
220
0.0
230
1.0
 70
     0
 71
     3
 72
     8
 73
     4
 74
     0
 42
0.0000000001
 43
0.0000000001
 40
0.0
 40
0.0
 40
0.0
 40
0.0
 40
1.0
 40
1.0
 40
1.0
 40
1.0
 10
103.59710000000001
 20
-90.809300000000007
 30
0.0
 10
103.59710000000001
 20
-90.809300000000007
 30
0.0
 10
106.6915
 20
-94.147100000000009
 30
0.0
 10
106.6915
 20
-94.147100000000009
 30
0.0
  0
SPLINE
  5
219
100
AcDbEntity
  8
Layer 1
370
    20
100
AcDbSpline
210
0.0
220
0.0
230
1.0
 70
     0
 71
     3
 72
     8
 73
     4
 74
     0
 42
0.0000000001
 43
0.0000000001
 40
0.0
 40
0.0
 40
0.0
 40
0.0
 40
1.0
 40
1.0
 40
1.0
 40
1.0
 10
106.6915
 20
-94.147100000000009
 30
0.0
 10
106.6915
 20
-94.147100000000009
 30
0.0
 10
110.62530000000001
 20
-101.5385
 30
0.0
 10
110.62530000000001
 20
-101.5385
 30
0.0
  0
SPLINE
  5
21A
100
AcDbEntity
  8
Layer 1
370
    20
100
AcDbSpline
210
0.0
220
0.0
230
1.0
 70
     0
 71
     3
 72
     8
 73
     4
 74
     0
 42
0.0000000001
 43
0.0000000001
 40
0.0
 40
0.0
 40
0.0
 40
0.0
 40
1.0
 40
1.0
 40
1.0
 40
1.0
 10
110.62530000000001
 20
-101.5385
 30
0.0
 10
110.62530000000001
 20
-101.5385
 30
0.0
 10
113.1148
 20
-106.2162
 30
0.0
 10
113.1148
 20
-106.2162
 30
0.0
  0
SPLINE
  5
21B
100
AcDbEntity
  8
Layer 1
370
    20
100
AcDbSpline
210
0.0
220
0.0
230
1.0
 70
     0
 71
     3
 72
     8
 73
     4
 74
     0
 42
0.0000000001
 43
0.0000000001
 40
0.0
 40
0.0
 40
0.0
 40
0.0
 40
1.0
 40
1.0
 40
1.0
 40
1.0
 10
113.1148
 20
-106.2162
 30
0.0
 10
113.1148
 20
-106.2162
 30
0.0
 10
116.08590000000001
 20
-119.0625
 30
0.0
 10
116.08590000000001
 20
-119.0625
 30
0.0
  0
SPLINE
  5
21C
100
AcDbEntity
  8
Layer 1
370
    20
100
AcDbSpline
210
0.0
220
0.0
230
1.0
 70
     0
 71
     3
 72
     8
 73
     4
 74
     0
 42
0.0000000001
 43
0.0000000001
 40
0.0
 40
0.0
 40
0.0
 40
0.0
 40
1.0
 40
1.0
 40
1.0
 40
1.0
 10
116.08590000000001
 20
-119.0625
 30
0.0
 10
116.08590000000001
 20
-119.0625
 30
0.0
 10
114.28830000000001
 20
-119.0625
 30
0.0
 10
114.28830000000001
 20
-119.0625
 30
0.0
  0
SPLINE
  5
21D
100
AcDbEntity
  8
Layer 1
370
    20
100
AcDbSpline
210
0.0
220
0.0
230
1.0
 70
     0
 71
     3
 72
     8
 73
     4
 74
     0
 42
0.0000000001
 43
0.0000000001
 40
0.0
 40
0.0
 40
0.0
 40
0.0
 40
1.0
 40
1.0
 40
1.0
 40
1.0
 10
114.28830000000001
 20
-119.0625
 30
0.0
 10
114.28830000000001
 20
-119.0625
 30
0.0
 10
64.803300000000007
 20
-119.0625
 30
0.0
 10
64.803300000000007
 20
-119.0625
 30
0.0
  0
SPLINE
  5
21E
100
AcDbEntity
  8
Layer 1
370
    20
100
AcDbSpline
210
0.0
220
0.0
230
1.0
 70
     0
 71
     3
 72
     8
 73
     4
 74
     0
 42
0.0000000001
 43
0.0000000001
 40
0.0
 40
0.0
 40
0.0
 40
0.0
 40
1.0
 40
1.0
 40
1.0
 40
1.0
 10
64.803300000000007
 20
-119.0625
 30
0.0
 10
64.803300000000007
 20
-119.0625
 30
0.0
 10
64.803300000000007
 20
-95.829700000000003
 30
0.0
 10
64.803300000000007
 20
-95.829700000000003
 30
0.0
  0
SPLINE
  5
21F
100
AcDbEntity
  8
Layer 1
370
    20
100
AcDbSpline
210
0.0
220
0.0
230
1.0
 70
     0
 71
     3
 72
     8
 73
     4
 74
     0
 42
0.0000000001
 43
0.0000000001
 40
0.0
 40
0.0
 40
0.0
 40
0.0
 40
1.0
 40
1.0
 40
1.0
 40
1.0
 10
64.803300000000007
 20
-95.829700000000003
 30
0.0
 10
64.803300000000007
 20
-95.829700000000003
 30
0.0
 10
61.7864
 20
-95.829700000000003
 30
0.0
 10
61.7864
 20
-95.829700000000003
 30
0.0
  0
SPLINE
  5
220
100
AcDbEntity
  8
Layer 1
370
    20
100
AcDbSpline
210
0.0
220
0.0
230
1.0
 70
     0
 71
     3
 72
     8
 73
     4
 74
     0
 42
0.0000000001
 43
0.0000000001
 40
0.0
 40
0.0
 40
0.0
 40
0.0
 40
1.0
 40
1.0
 40
1.0
 40
1.0
 10
61.7864
 20
-95.829700000000003
 30
0.0
 10
61.7864
 20
-95.829700000000003
 30
0.0
 10
61.7864
 20
-119.0625
 30
0.0
 10
61.7864
 20
-119.0625
 30
0.0
  0
SPLINE
  5
221
100
AcDbEntity
  8
Layer 1
370
    20
100
AcDbSpline
210
0.0
220
0.0
230
1.0
 70
     0
 71
     3
 72
     8
 73
     4
 74
     0
 42
0.0000000001
 43
0.0000000001
 40
0.0
 40
0.0
 40
0.0
 40
0.0
 40
1.0
 40
1.0
 40
1.0
 40
1.0
 10
61.7864
 20
-119.0625
 30
0.0
 10
61.7864
 20
-119.0625
 30
0.0
 10
12.301400000000001
 20
-119.0625
 30
0.0
 10
12.301400000000001
 20
-119.0625
 30
0.0
  0
SPLINE
  5
222
100
AcDbEntity
  8
Layer 1
370
    20
100
AcDbSpline
210
0.0
220
0.0
230
1.0
 70
     0
 71
     3
 72
     8
 73
     4
 74
     0
 42
0.0000000001
 43
0.0000000001
 40
0.0
 40
0.0
 40
0.0
 40
0.0
 40
1.0
 40
1.0
 40
1.0
 40
1.0
 10
12.301400000000001
 20
-119.0625
 30
0.0
 10
12.301400000000001
 20
-119.0625
 30
0.0
 10
12.408700000000001
 20
-115.9551
 30
0.0
 10
12.408700000000001
 20
-115.9551
 30
0.0
  0
SPLINE
  5
223
100
AcDbEntity
  8
Layer 1
370
    20
100
AcDbSpline
210
0.0
220
0.0
230
1.0
 70
     0
 71
     3
 72
     8
 73
     4
 74
     0
 42
0.0000000001
 43
0.0000000001
 40
0.0
 40
0.0
 40
0.0
 40
0.0
 40
1.0
 40
1.0
 40
1.0
 40
1.0
 10
12.408700000000001
 20
-115.9551
 30
0.0
 10
12.408700000000001
 20
-115.9551
 30
0.0
 10
16.4009
 20
-102.8789
 30
0.0
 10
16.4009
 20
-102.8789
 30
0.0
  0
SPLINE
  5
224
100
AcDbEntity
  8
Layer 1
370
    20
100
AcDbSpline
210
0.0
220
0.0
230
1.0
 70
     0
 71
     3
 72
     8
 73
     4
 74
     0
 42
0.0000000001
 43
0.0000000001
 40
0.0
 40
0.0
 40
0.0
 40
0.0
 40
1.0
 40
1.0
 40
1.0
 40
1.0
 10
16.4009
 20
-102.8789
 30
0.0
 10
16.4009
 20
-102.8789
 30
0.0
 10
23.485900000000001
 20
-91.530600000000007
 30
0.0
 10
23.485900000000001
 20
-91.530600000000007
 30
0.0
  0
SPLINE
  5
225
100
AcDbEntity
  8
Layer 1
370
    20
100
AcDbSpline
210
0.0
220
0.0
230
1.0
 70
     0
 71
     3
 72
     8
 73
     4
 74
     0
 42
0.0000000001
 43
0.0000000001
 40
0.0
 40
0.0
 40
0.0
 40
0.0
 40
1.0
 40
1.0
 40
1.0
 40
1.0
 10
23.485900000000001
 20
-91.530600000000007
 30
0.0
 10
23.485900000000001
 20
-91.530600000000007
 30
0.0
 10
23.3293
 20
-91.249099999999999
 30
0.0
 10
23.3293
 20
-91.249099999999999
 30
0.0
  0
SPLINE
  5
226
100
AcDbEntity
  8
Layer 1
370
    20
100
AcDbSpline
210
0.0
220
0.0
230
1.0
 70
     0
 71
     3
 72
     8
 73
     4
 74
     0
 42
0.0000000001
 43
0.0000000001
 40
0.0
 40
0.0
 40
0.0
 40
0.0
 40
1.0
 40
1.0
 40
1.0
 40
1.0
 10
23.3293
 20
-91.249099999999999
 30
0.0
 10
23.3293
 20
-91.249099999999999
 30
0.0
 10
22.632899999999999
 20
-89.997
 30
0.0
 10
22.632899999999999
 20
-89.997
 30
0.0
  0
SPLINE
  5
227
100
AcDbEntity
  8
Layer 1
370
    20
100
AcDbSpline
210
0.0
220
0.0
230
1.0
 70
     0
 71
     3
 72
     8
 73
     4
 74
     0
 42
0.0000000001
 43
0.0000000001
 40
0.0
 40
0.0
 40
0.0
 40
0.0
 40
1.0
 40
1.0
 40
1.0
 40
1.0
 10
22.632899999999999
 20
-89.997
 30
0.0
 10
22.632899999999999
 20
-89.997
 30
0.0
 10
21.5503
 20
-85.681200000000004
 30
0.0
 10
21.5503
 20
-85.681200000000004
 30
0.0
  0
SPLINE
  5
228
100
AcDbEntity
  8
Layer 1
370
    20
100
AcDbSpline
210
0.0
220
0.0
230
1.0
 70
     0
 71
     3
 72
     8
 73
     4
 74
     0
 42
0.0000000001
 43
0.0000000001
 40
0.0
 40
0.0
 40
0.0
 40
0.0
 40
1.0
 40
1.0
 40
1.0
 40
1.0
 10
21.5503
 20
-85.681200000000004
 30
0.0
 10
21.5503
 20
-85.681200000000004
 30
0.0
 10
21.621600000000001
 20
-81.232300000000009
 30
0.0
 10
21.621600000000001
 20
-81.232300000000009
 30
0.0
  0
SPLINE
  5
229
100
AcDbEntity
  8
Layer 1
370
    20
100
AcDbSpline
210
0.0
220
0.0
230
1.0
 70
     0
 71
     3
 72
     8
 73
     4
 74
     0
 42
0.0000000001
 43
0.0000000001
 40
0.0
 40
0.0
 40
0.0
 40
0.0
 40
1.0
 40
1.0
 40
1.0
 40
1.0
 10
21.621600000000001
 20
-81.232300000000009
 30
0.0
 10
21.621600000000001
 20
-81.232300000000009
 30
0.0
 10
22.842000000000002
 20
-76.953400000000002
 30
0.0
 10
22.842000000000002
 20
-76.953400000000002
 30
0.0
  0
SPLINE
  5
22A
100
AcDbEntity
  8
Layer 1
370
    20
100
AcDbSpline
210
0.0
220
0.0
230
1.0
 70
     0
 71
     3
 72
     8
 73
     4
 74
     0
 42
0.0000000001
 43
0.0000000001
 40
0.0
 40
0.0
 40
0.0
 40
0.0
 40
1.0
 40
1.0
 40
1.0
 40
1.0
 10
22.842000000000002
 20
-76.953400000000002
 30
0.0
 10
22.842000000000002
 20
-76.953400000000002
 30
0.0
 10
25.1282
 20
-73.136200000000002
 30
0.0
 10
25.1282
 20
-73.136200000000002
 30
0.0
  0
SPLINE
  5
22B
100
AcDbEntity
  8
Layer 1
370
    20
100
AcDbSpline
210
0.0
220
0.0
230
1.0
 70
     0
 71
     3
 72
     8
 73
     4
 74
     0
 42
0.0000000001
 43
0.0000000001
 40
0.0
 40
0.0
 40
0.0
 40
0.0
 40
1.0
 40
1.0
 40
1.0
 40
1.0
 10
25.1282
 20
-73.136200000000002
 30
0.0
 10
25.1282
 20
-73.136200000000002
 30
0.0
 10
28.3245
 20
-70.040700000000001
 30
0.0
 10
28.3245
 20
-70.040700000000001
 30
0.0
  0
SPLINE
  5
22C
100
AcDbEntity
  8
Layer 1
370
    20
100
AcDbSpline
210
0.0
220
0.0
230
1.0
 70
     0
 71
     3
 72
     8
 73
     4
 74
     0
 42
0.0000000001
 43
0.0000000001
 40
0.0
 40
0.0
 40
0.0
 40
0.0
 40
1.0
 40
1.0
 40
1.0
 40
1.0
 10
28.3245
 20
-70.040700000000001
 30
0.0
 10
28.3245
 20
-70.040700000000001
 30
0.0
 10
32.213000000000001
 20
-67.878
 30
0.0
 10
32.213000000000001
 20
-67.878
 30
0.0
  0
SPLINE
  5
22D
100
AcDbEntity
  8
Layer 1
370
    20
100
AcDbSpline
210
0.0
220
0.0
230
1.0
 70
     0
 71
     3
 72
     8
 73
     4
 74
     0
 42
0.0000000001
 43
0.0000000001
 40
0.0
 40
0.0
 40
0.0
 40
0.0
 40
1.0
 40
1.0
 40
1.0
 40
1.0
 10
32.213000000000001
 20
-67.878
 30
0.0
 10
32.213000000000001
 20
-67.878
 30
0.0
 10
36.528800000000004
 20
-66.795400000000001
 30
0.0
 10
36.528800000000004
 20
-66.795400000000001
 30
0.0
  0
SPLINE
  5
22E
100
AcDbEntity
  8
Layer 1
370
    20
100
AcDbSpline
210
0.0
220
0.0
230
1.0
 70
     0
 71
     3
 72
     8
 73
     4
 74
     0
 42
0.0000000001
 43
0.0000000001
 40
0.0
 40
0.0
 40
0.0
 40
0.0
 40
1.0
 40
1.0
 40
1.0
 40
1.0
 10
36.528800000000004
 20
-66.795400000000001
 30
0.0
 10
36.528800000000004
 20
-66.795400000000001
 30
0.0
 10
40.977800000000002
 20
-66.866700000000009
 30
0.0
 10
40.977800000000002
 20
-66.866700000000009
 30
0.0
  0
SPLINE
  5
22F
100
AcDbEntity
  8
Layer 1
370
    20
100
AcDbSpline
210
0.0
220
0.0
230
1.0
 70
     0
 71
     3
 72
     8
 73
     4
 74
     0
 42
0.0000000001
 43
0.0000000001
 40
0.0
 40
0.0
 40
0.0
 40
0.0
 40
1.0
 40
1.0
 40
1.0
 40
1.0
 10
40.977800000000002
 20
-66.866700000000009
 30
0.0
 10
40.977800000000002
 20
-66.866700000000009
 30
0.0
 10
43.706299999999999
 20
-67.644800000000004
 30
0.0
 10
43.706299999999999
 20
-67.644800000000004
 30
0.0
  0
SPLINE
  5
230
100
AcDbEntity
  8
Layer 1
370
    20
100
AcDbSpline
210
0.0
220
0.0
230
1.0
 70
     0
 71
     3
 72
     8
 73
     4
 74
     0
 42
0.0000000001
 43
0.0000000001
 40
0.0
 40
0.0
 40
0.0
 40
0.0
 40
1.0
 40
1.0
 40
1.0
 40
1.0
 10
43.706299999999999
 20
-67.644800000000004
 30
0.0
 10
43.706299999999999
 20
-67.644800000000004
 30
0.0
 10
44.263500000000001
 20
-64.497500000000002
 30
0.0
 10
44.263500000000001
 20
-64.497500000000002
 30
0.0
  0
SPLINE
  5
231
100
AcDbEntity
  8
Layer 1
370
    20
100
AcDbSpline
210
0.0
220
0.0
230
1.0
 70
     0
 71
     3
 72
     8
 73
     4
 74
     0
 42
0.0000000001
 43
0.0000000001
 40
0.0
 40
0.0
 40
0.0
 40
0.0
 40
1.0
 40
1.0
 40
1.0
 40
1.0
 10
44.263500000000001
 20
-64.497500000000002
 30
0.0
 10
44.263500000000001
 20
-64.497500000000002
 30
0.0
 10
44.5212
 20
-60.089300000000001
 30
0.0
 10
44.5212
 20
-60.089300000000001
 30
0.0
  0
SPLINE
  5
232
100
AcDbEntity
  8
Layer 1
370
    20
100
AcDbSpline
210
0.0
220
0.0
230
1.0
 70
     0
 71
     3
 72
     8
 73
     4
 74
     0
 42
0.0000000001
 43
0.0000000001
 40
0.0
 40
0.0
 40
0.0
 40
0.0
 40
1.0
 40
1.0
 40
1.0
 40
1.0
 10
44.5212
 20
-60.089300000000001
 30
0.0
 10
44.5212
 20
-60.089300000000001
 30
0.0
 10
44.263500000000001
 20
-60.123200000000004
 30
0.0
 10
44.263500000000001
 20
-60.123200000000004
 30
0.0
  0
SPLINE
  5
233
100
AcDbEntity
  8
Layer 1
370
    20
100
AcDbSpline
210
0.0
220
0.0
230
1.0
 70
     0
 71
     3
 72
     8
 73
     4
 74
     0
 42
0.0000000001
 43
0.0000000001
 40
0.0
 40
0.0
 40
0.0
 40
0.0
 40
1.0
 40
1.0
 40
1.0
 40
1.0
 10
44.263500000000001
 20
-60.123200000000004
 30
0.0
 10
44.263500000000001
 20
-60.123200000000004
 30
0.0
 10
41.920900000000003
 20
-59.814800000000005
 30
0.0
 10
41.920900000000003
 20
-59.814800000000005
 30
0.0
  0
SPLINE
  5
234
100
AcDbEntity
  8
Layer 1
370
    20
100
AcDbSpline
210
0.0
220
0.0
230
1.0
 70
     0
 71
     3
 72
     8
 73
     4
 74
     0
 42
0.0000000001
 43
0.0000000001
 40
0.0
 40
0.0
 40
0.0
 40
0.0
 40
1.0
 40
1.0
 40
1.0
 40
1.0
 10
41.920900000000003
 20
-59.814800000000005
 30
0.0
 10
41.920900000000003
 20
-59.814800000000005
 30
0.0
 10
39.738100000000003
 20
-58.910600000000002
 30
0.0
 10
39.738100000000003
 20
-58.910600000000002
 30
0.0
  0
SPLINE
  5
235
100
AcDbEntity
  8
Layer 1
370
    20
100
AcDbSpline
210
0.0
220
0.0
230
1.0
 70
     0
 71
     3
 72
     8
 73
     4
 74
     0
 42
0.0000000001
 43
0.0000000001
 40
0.0
 40
0.0
 40
0.0
 40
0.0
 40
1.0
 40
1.0
 40
1.0
 40
1.0
 10
39.738100000000003
 20
-58.910600000000002
 30
0.0
 10
39.738100000000003
 20
-58.910600000000002
 30
0.0
 10
37.863600000000005
 20
-57.472300000000004
 30
0.0
 10
37.863600000000005
 20
-57.472300000000004
 30
0.0
  0
SPLINE
  5
236
100
AcDbEntity
  8
Layer 1
370
    20
100
AcDbSpline
210
0.0
220
0.0
230
1.0
 70
     0
 71
     3
 72
     8
 73
     4
 74
     0
 42
0.0000000001
 43
0.0000000001
 40
0.0
 40
0.0
 40
0.0
 40
0.0
 40
1.0
 40
1.0
 40
1.0
 40
1.0
 10
37.863600000000005
 20
-57.472300000000004
 30
0.0
 10
37.863600000000005
 20
-57.472300000000004
 30
0.0
 10
36.4253
 20
-55.597799999999999
 30
0.0
 10
36.4253
 20
-55.597799999999999
 30
0.0
  0
SPLINE
  5
237
100
AcDbEntity
  8
Layer 1
370
    20
100
AcDbSpline
210
0.0
220
0.0
230
1.0
 70
     0
 71
     3
 72
     8
 73
     4
 74
     0
 42
0.0000000001
 43
0.0000000001
 40
0.0
 40
0.0
 40
0.0
 40
0.0
 40
1.0
 40
1.0
 40
1.0
 40
1.0
 10
36.4253
 20
-55.597799999999999
 30
0.0
 10
36.4253
 20
-55.597799999999999
 30
0.0
 10
35.521100000000004
 20
-53.414999999999999
 30
0.0
 10
35.521100000000004
 20
-53.414999999999999
 30
0.0
  0
SPLINE
  5
238
100
AcDbEntity
  8
Layer 1
370
    20
100
AcDbSpline
210
0.0
220
0.0
230
1.0
 70
     0
 71
     3
 72
     8
 73
     4
 74
     0
 42
0.0000000001
 43
0.0000000001
 40
0.0
 40
0.0
 40
0.0
 40
0.0
 40
1.0
 40
1.0
 40
1.0
 40
1.0
 10
35.521100000000004
 20
-53.414999999999999
 30
0.0
 10
35.521100000000004
 20
-53.414999999999999
 30
0.0
 10
35.212700000000005
 20
-51.072500000000005
 30
0.0
 10
35.212700000000005
 20
-51.072500000000005
 30
0.0
  0
SPLINE
  5
239
100
AcDbEntity
  8
Layer 1
370
    20
100
AcDbSpline
210
0.0
220
0.0
230
1.0
 70
     0
 71
     3
 72
     8
 73
     4
 74
     0
 42
0.0000000001
 43
0.0000000001
 40
0.0
 40
0.0
 40
0.0
 40
0.0
 40
1.0
 40
1.0
 40
1.0
 40
1.0
 10
35.212700000000005
 20
-51.072500000000005
 30
0.0
 10
35.212700000000005
 20
-51.072500000000005
 30
0.0
 10
35.521100000000004
 20
-48.729900000000001
 30
0.0
 10
35.521100000000004
 20
-48.729900000000001
 30
0.0
  0
SPLINE
  5
23A
100
AcDbEntity
  8
Layer 1
370
    20
100
AcDbSpline
210
0.0
220
0.0
230
1.0
 70
     0
 71
     3
 72
     8
 73
     4
 74
     0
 42
0.0000000001
 43
0.0000000001
 40
0.0
 40
0.0
 40
0.0
 40
0.0
 40
1.0
 40
1.0
 40
1.0
 40
1.0
 10
35.521100000000004
 20
-48.729900000000001
 30
0.0
 10
35.521100000000004
 20
-48.729900000000001
 30
0.0
 10
36.4253
 20
-46.5471
 30
0.0
 10
36.4253
 20
-46.5471
 30
0.0
  0
SPLINE
  5
23B
100
AcDbEntity
  8
Layer 1
370
    20
100
AcDbSpline
210
0.0
220
0.0
230
1.0
 70
     0
 71
     3
 72
     8
 73
     4
 74
     0
 42
0.0000000001
 43
0.0000000001
 40
0.0
 40
0.0
 40
0.0
 40
0.0
 40
1.0
 40
1.0
 40
1.0
 40
1.0
 10
36.4253
 20
-46.5471
 30
0.0
 10
36.4253
 20
-46.5471
 30
0.0
 10
37.863600000000005
 20
-44.672600000000003
 30
0.0
 10
37.863600000000005
 20
-44.672600000000003
 30
0.0
  0
SPLINE
  5
23C
100
AcDbEntity
  8
Layer 1
370
    20
100
AcDbSpline
210
0.0
220
0.0
230
1.0
 70
     0
 71
     3
 72
     8
 73
     4
 74
     0
 42
0.0000000001
 43
0.0000000001
 40
0.0
 40
0.0
 40
0.0
 40
0.0
 40
1.0
 40
1.0
 40
1.0
 40
1.0
 10
37.863600000000005
 20
-44.672600000000003
 30
0.0
 10
37.863600000000005
 20
-44.672600000000003
 30
0.0
 10
39.738100000000003
 20
-43.234300000000005
 30
0.0
 10
39.738100000000003
 20
-43.234300000000005
 30
0.0
  0
SPLINE
  5
23D
100
AcDbEntity
  8
Layer 1
370
    20
100
AcDbSpline
210
0.0
220
0.0
230
1.0
 70
     0
 71
     3
 72
     8
 73
     4
 74
     0
 42
0.0000000001
 43
0.0000000001
 40
0.0
 40
0.0
 40
0.0
 40
0.0
 40
1.0
 40
1.0
 40
1.0
 40
1.0
 10
39.738100000000003
 20
-43.234300000000005
 30
0.0
 10
39.738100000000003
 20
-43.234300000000005
 30
0.0
 10
41.920900000000003
 20
-42.330100000000002
 30
0.0
 10
41.920900000000003
 20
-42.330100000000002
 30
0.0
  0
SPLINE
  5
23E
100
AcDbEntity
  8
Layer 1
370
    20
100
AcDbSpline
210
0.0
220
0.0
230
1.0
 70
     0
 71
     3
 72
     8
 73
     4
 74
     0
 42
0.0000000001
 43
0.0000000001
 40
0.0
 40
0.0
 40
0.0
 40
0.0
 40
1.0
 40
1.0
 40
1.0
 40
1.0
 10
41.920900000000003
 20
-42.330100000000002
 30
0.0
 10
41.920900000000003
 20
-42.330100000000002
 30
0.0
 10
42.433300000000003
 20
-42.262599999999999
 30
0.0
 10
42.433300000000003
 20
-42.262599999999999
 30
0.0
  0
SPLINE
  5
23F
100
AcDbEntity
  8
Layer 1
370
    20
100
AcDbSpline
210
0.0
220
0.0
230
1.0
 70
     0
 71
     3
 72
     8
 73
     4
 74
     0
 42
0.0000000001
 43
0.0000000001
 40
0.0
 40
0.0
 40
0.0
 40
0.0
 40
1.0
 40
1.0
 40
1.0
 40
1.0
 10
42.433300000000003
 20
-42.262599999999999
 30
0.0
 10
42.433300000000003
 20
-42.262599999999999
 30
0.0
 10
41.1556
 20
-38.0122
 30
0.0
 10
41.1556
 20
-38.0122
 30
0.0
  0
SPLINE
  5
240
100
AcDbEntity
  8
Layer 1
370
    20
100
AcDbSpline
210
0.0
220
0.0
230
1.0
 70
     0
 71
     3
 72
     8
 73
     4
 74
     0
 42
0.0000000001
 43
0.0000000001
 40
0.0
 40
0.0
 40
0.0
 40
0.0
 40
1.0
 40
1.0
 40
1.0
 40
1.0
 10
41.1556
 20
-38.0122
 30
0.0
 10
41.1556
 20
-38.0122
 30
0.0
 10
38.482500000000002
 20
-31.842400000000001
 30
0.0
 10
38.482500000000002
 20
-31.842400000000001
 30
0.0
  0
SPLINE
  5
241
100
AcDbEntity
  8
Layer 1
370
    20
100
AcDbSpline
210
0.0
220
0.0
230
1.0
 70
     0
 71
     3
 72
     8
 73
     4
 74
     0
 42
0.0000000001
 43
0.0000000001
 40
0.0
 40
0.0
 40
0.0
 40
0.0
 40
1.0
 40
1.0
 40
1.0
 40
1.0
 10
38.482500000000002
 20
-31.842400000000001
 30
0.0
 10
38.482500000000002
 20
-31.842400000000001
 30
0.0
 10
35.108600000000003
 20
-26.0261
 30
0.0
 10
35.108600000000003
 20
-26.0261
 30
0.0
  0
SPLINE
  5
242
100
AcDbEntity
  8
Layer 1
370
    20
100
AcDbSpline
210
0.0
220
0.0
230
1.0
 70
     0
 71
     3
 72
     8
 73
     4
 74
     0
 42
0.0000000001
 43
0.0000000001
 40
0.0
 40
0.0
 40
0.0
 40
0.0
 40
1.0
 40
1.0
 40
1.0
 40
1.0
 10
35.108600000000003
 20
-26.0261
 30
0.0
 10
35.108600000000003
 20
-26.0261
 30
0.0
 10
31.079800000000002
 20
-20.642800000000001
 30
0.0
 10
31.079800000000002
 20
-20.642800000000001
 30
0.0
  0
SPLINE
  5
243
100
AcDbEntity
  8
Layer 1
370
    20
100
AcDbSpline
210
0.0
220
0.0
230
1.0
 70
     0
 71
     3
 72
     8
 73
     4
 74
     0
 42
0.0000000001
 43
0.0000000001
 40
0.0
 40
0.0
 40
0.0
 40
0.0
 40
1.0
 40
1.0
 40
1.0
 40
1.0
 10
31.079800000000002
 20
-20.642800000000001
 30
0.0
 10
31.079800000000002
 20
-20.642800000000001
 30
0.0
 10
28.580300000000001
 20
-17.667400000000001
 30
0.0
 10
28.580300000000001
 20
-17.667400000000001
 30
0.0
  0
SPLINE
  5
244
100
AcDbEntity
  8
Layer 1
370
    20
100
AcDbSpline
210
0.0
220
0.0
230
1.0
 70
     0
 71
     3
 72
     8
 73
     4
 74
     0
 42
0.0000000001
 43
0.0000000001
 40
0.0
 40
0.0
 40
0.0
 40
0.0
 40
1.0
 40
1.0
 40
1.0
 40
1.0
 10
28.580300000000001
 20
-17.667400000000001
 30
0.0
 10
28.580300000000001
 20
-17.667400000000001
 30
0.0
 10
22.938600000000001
 20
-11.475000000000001
 30
0.0
 10
22.938600000000001
 20
-11.475000000000001
 30
0.0
  0
SPLINE
  5
245
100
AcDbEntity
  8
Layer 1
370
    20
100
AcDbSpline
210
0.0
220
0.0
230
1.0
 70
     0
 71
     3
 72
     8
 73
     4
 74
     0
 42
0.0000000001
 43
0.0000000001
 40
0.0
 40
0.0
 40
0.0
 40
0.0
 40
1.0
 40
1.0
 40
1.0
 40
1.0
 10
22.938600000000001
 20
-11.475000000000001
 30
0.0
 10
22.938600000000001
 20
-11.475000000000001
 30
0.0
 10
17.052600000000002
 20
-5.5145
 30
0.0
 10
17.052600000000002
 20
-5.5145
 30
0.0
  0
SPLINE
  5
246
100
AcDbEntity
  8
Layer 1
370
    20
100
AcDbSpline
210
0.0
220
0.0
230
1.0
 70
     0
 71
     3
 72
     8
 73
     4
 74
     0
 42
0.0000000001
 43
0.0000000001
 40
0.0
 40
0.0
 40
0.0
 40
0.0
 40
1.0
 40
1.0
 40
1.0
 40
1.0
 10
17.052600000000002
 20
-5.5145
 30
0.0
 10
17.052600000000002
 20
-5.5145
 30
0.0
 10
10.931600000000001
 20
0.2047
 30
0.0
 10
10.931600000000001
 20
0.2047
 30
0.0
  0
SPLINE
  5
247
100
AcDbEntity
  8
Layer 1
370
    20
100
AcDbSpline
210
0.0
220
0.0
230
1.0
 70
     0
 71
     3
 72
     8
 73
     4
 74
     0
 42
0.0000000001
 43
0.0000000001
 40
0.0
 40
0.0
 40
0.0
 40
0.0
 40
1.0
 40
1.0
 40
1.0
 40
1.0
 10
10.931600000000001
 20
0.2047
 30
0.0
 10
10.931600000000001
 20
0.2047
 30
0.0
 10
4.5857999999999999
 20
5.6731000000000007
 30
0.0
 10
4.5857999999999999
 20
5.6731000000000007
 30
0.0
  0
SPLINE
  5
248
100
AcDbEntity
  8
Layer 1
370
    20
100
AcDbSpline
210
0.0
220
0.0
230
1.0
 70
     0
 71
     3
 72
     8
 73
     4
 74
     0
 42
0.0000000001
 43
0.0000000001
 40
0.0
 40
0.0
 40
0.0
 40
0.0
 40
1.0
 40
1.0
 40
1.0
 40
1.0
 10
4.5857999999999999
 20
5.6731000000000007
 30
0.0
 10
4.5857999999999999
 20
5.6731000000000007
 30
0.0
 10
-1.9747000000000001
 20
10.882100000000001
 30
0.0
 10
-1.9747000000000001
 20
10.882100000000001
 30
0.0
  0
SPLINE
  5
249
100
AcDbEntity
  8
Layer 1
370
    20
100
AcDbSpline
210
0.0
220
0.0
230
1.0
 70
     0
 71
     3
 72
     8
 73
     4
 74
     0
 42
0.0000000001
 43
0.0000000001
 40
0.0
 40
0.0
 40
0.0
 40
0.0
 40
1.0
 40
1.0
 40
1.0
 40
1.0
 10
-1.9747000000000001
 20
10.882100000000001
 30
0.0
 10
-1.9747000000000001
 20
10.882100000000001
 30
0.0
 10
-8.7393999999999998
 20
15.8231
 30
0.0
 10
-8.7393999999999998
 20
15.8231
 30
0.0
  0
SPLINE
  5
24A
100
AcDbEntity
  8
Layer 1
370
    20
100
AcDbSpline
210
0.0
220
0.0
230
1.0
 70
     0
 71
     3
 72
     8
 73
     4
 74
     0
 42
0.0000000001
 43
0.0000000001
 40
0.0
 40
0.0
 40
0.0
 40
0.0
 40
1.0
 40
1.0
 40
1.0
 40
1.0
 10
-8.7393999999999998
 20
15.8231
 30
0.0
 10
-8.7393999999999998
 20
15.8231
 30
0.0
 10
-15.697100000000001
 20
20.488300000000002
 30
0.0
 10
-15.697100000000001
 20
20.488300000000002
 30
0.0
  0
SPLINE
  5
24B
100
AcDbEntity
  8
Layer 1
370
    20
100
AcDbSpline
210
0.0
220
0.0
230
1.0
 70
     0
 71
     3
 72
     8
 73
     4
 74
     0
 42
0.0000000001
 43
0.0000000001
 40
0.0
 40
0.0
 40
0.0
 40
0.0
 40
1.0
 40
1.0
 40
1.0
 40
1.0
 10
-15.697100000000001
 20
20.488300000000002
 30
0.0
 10
-15.697100000000001
 20
20.488300000000002
 30
0.0
 10
-16.470800000000001
 20
21.034000000000002
 30
0.0
 10
-16.470800000000001
 20
21.034000000000002
 30
0.0
  0
SPLINE
  5
24C
100
AcDbEntity
  8
Layer 1
370
    20
100
AcDbSpline
210
0.0
220
0.0
230
1.0
 70
     0
 71
     3
 72
     8
 73
     4
 74
     0
 42
0.0000000001
 43
0.0000000001
 40
0.0
 40
0.0
 40
0.0
 40
0.0
 40
1.0
 40
1.0
 40
1.0
 40
1.0
 10
-16.470800000000001
 20
21.034000000000002
 30
0.0
 10
-16.470800000000001
 20
21.034000000000002
 30
0.0
 10
-17.1937
 20
21.645300000000002
 30
0.0
 10
-17.1937
 20
21.645300000000002
 30
0.0
  0
SPLINE
  5
24D
100
AcDbEntity
  8
Layer 1
370
    20
100
AcDbSpline
210
0.0
220
0.0
230
1.0
 70
     0
 71
     3
 72
     8
 73
     4
 74
     0
 42
0.0000000001
 43
0.0000000001
 40
0.0
 40
0.0
 40
0.0
 40
0.0
 40
1.0
 40
1.0
 40
1.0
 40
1.0
 10
-17.1937
 20
21.645300000000002
 30
0.0
 10
-17.1937
 20
21.645300000000002
 30
0.0
 10
-17.860400000000002
 20
22.317600000000002
 30
0.0
 10
-17.860400000000002
 20
22.317600000000002
 30
0.0
  0
SPLINE
  5
24E
100
AcDbEntity
  8
Layer 1
370
    20
100
AcDbSpline
210
0.0
220
0.0
230
1.0
 70
     0
 71
     3
 72
     8
 73
     4
 74
     0
 42
0.0000000001
 43
0.0000000001
 40
0.0
 40
0.0
 40
0.0
 40
0.0
 40
1.0
 40
1.0
 40
1.0
 40
1.0
 10
-17.860400000000002
 20
22.317600000000002
 30
0.0
 10
-17.860400000000002
 20
22.317600000000002
 30
0.0
 10
-18.465600000000002
 20
23.0456
 30
0.0
 10
-18.465600000000002
 20
23.0456
 30
0.0
  0
SPLINE
  5
24F
100
AcDbEntity
  8
Layer 1
370
    20
100
AcDbSpline
210
0.0
220
0.0
230
1.0
 70
     0
 71
     3
 72
     8
 73
     4
 74
     0
 42
0.0000000001
 43
0.0000000001
 40
0.0
 40
0.0
 40
0.0
 40
0.0
 40
1.0
 40
1.0
 40
1.0
 40
1.0
 10
-18.465600000000002
 20
23.0456
 30
0.0
 10
-18.465600000000002
 20
23.0456
 30
0.0
 10
-19.004899999999999
 20
23.823700000000002
 30
0.0
 10
-19.004899999999999
 20
23.823700000000002
 30
0.0
  0
SPLINE
  5
250
100
AcDbEntity
  8
Layer 1
370
    20
100
AcDbSpline
210
0.0
220
0.0
230
1.0
 70
     0
 71
     3
 72
     8
 73
     4
 74
     0
 42
0.0000000001
 43
0.0000000001
 40
0.0
 40
0.0
 40
0.0
 40
0.0
 40
1.0
 40
1.0
 40
1.0
 40
1.0
 10
-19.004899999999999
 20
23.823700000000002
 30
0.0
 10
-19.004899999999999
 20
23.823700000000002
 30
0.0
 10
-19.474
 20
24.646100000000001
 30
0.0
 10
-19.474
 20
24.646100000000001
 30
0.0
  0
SPLINE
  5
251
100
AcDbEntity
  8
Layer 1
370
    20
100
AcDbSpline
210
0.0
220
0.0
230
1.0
 70
     0
 71
     3
 72
     8
 73
     4
 74
     0
 42
0.0000000001
 43
0.0000000001
 40
0.0
 40
0.0
 40
0.0
 40
0.0
 40
1.0
 40
1.0
 40
1.0
 40
1.0
 10
-19.474
 20
24.646100000000001
 30
0.0
 10
-19.474
 20
24.646100000000001
 30
0.0
 10
-19.869400000000002
 20
25.5063
 30
0.0
 10
-19.869400000000002
 20
25.5063
 30
0.0
  0
SPLINE
  5
252
100
AcDbEntity
  8
Layer 1
370
    20
100
AcDbSpline
210
0.0
220
0.0
230
1.0
 70
     0
 71
     3
 72
     8
 73
     4
 74
     0
 42
0.0000000001
 43
0.0000000001
 40
0.0
 40
0.0
 40
0.0
 40
0.0
 40
1.0
 40
1.0
 40
1.0
 40
1.0
 10
-19.869400000000002
 20
25.5063
 30
0.0
 10
-19.869400000000002
 20
25.5063
 30
0.0
 10
-20.188000000000002
 20
26.3979
 30
0.0
 10
-20.188000000000002
 20
26.3979
 30
0.0
  0
SPLINE
  5
253
100
AcDbEntity
  8
Layer 1
370
    20
100
AcDbSpline
210
0.0
220
0.0
230
1.0
 70
     0
 71
     3
 72
     8
 73
     4
 74
     0
 42
0.0000000001
 43
0.0000000001
 40
0.0
 40
0.0
 40
0.0
 40
0.0
 40
1.0
 40
1.0
 40
1.0
 40
1.0
 10
-20.188000000000002
 20
26.3979
 30
0.0
 10
-20.188000000000002
 20
26.3979
 30
0.0
 10
-20.427400000000002
 20
27.3139
 30
0.0
 10
-20.427400000000002
 20
27.3139
 30
0.0
  0
SPLINE
  5
254
100
AcDbEntity
  8
Layer 1
370
    20
100
AcDbSpline
210
0.0
220
0.0
230
1.0
 70
     0
 71
     3
 72
     8
 73
     4
 74
     0
 42
0.0000000001
 43
0.0000000001
 40
0.0
 40
0.0
 40
0.0
 40
0.0
 40
1.0
 40
1.0
 40
1.0
 40
1.0
 10
-20.427400000000002
 20
27.3139
 30
0.0
 10
-20.427400000000002
 20
27.3139
 30
0.0
 10
-20.585599999999999
 20
28.247300000000003
 30
0.0
 10
-20.585599999999999
 20
28.247300000000003
 30
0.0
  0
SPLINE
  5
255
100
AcDbEntity
  8
Layer 1
370
    20
100
AcDbSpline
210
0.0
220
0.0
230
1.0
 70
     0
 71
     3
 72
     8
 73
     4
 74
     0
 42
0.0000000001
 43
0.0000000001
 40
0.0
 40
0.0
 40
0.0
 40
0.0
 40
1.0
 40
1.0
 40
1.0
 40
1.0
 10
-20.585599999999999
 20
28.247300000000003
 30
0.0
 10
-20.585599999999999
 20
28.247300000000003
 30
0.0
 10
-20.6617
 20
29.191000000000003
 30
0.0
 10
-20.6617
 20
29.191000000000003
 30
0.0
  0
SPLINE
  5
256
100
AcDbEntity
  8
Layer 1
370
    20
100
AcDbSpline
210
0.0
220
0.0
230
1.0
 70
     0
 71
     3
 72
     8
 73
     4
 74
     0
 42
0.0000000001
 43
0.0000000001
 40
0.0
 40
0.0
 40
0.0
 40
0.0
 40
1.0
 40
1.0
 40
1.0
 40
1.0
 10
-20.6617
 20
29.191000000000003
 30
0.0
 10
-20.6617
 20
29.191000000000003
 30
0.0
 10
-20.654800000000002
 20
30.137700000000002
 30
0.0
 10
-20.654800000000002
 20
30.137700000000002
 30
0.0
  0
SPLINE
  5
257
100
AcDbEntity
  8
Layer 1
370
    20
100
AcDbSpline
210
0.0
220
0.0
230
1.0
 70
     0
 71
     3
 72
     8
 73
     4
 74
     0
 42
0.0000000001
 43
0.0000000001
 40
0.0
 40
0.0
 40
0.0
 40
0.0
 40
1.0
 40
1.0
 40
1.0
 40
1.0
 10
-20.654800000000002
 20
30.137700000000002
 30
0.0
 10
-20.654800000000002
 20
30.137700000000002
 30
0.0
 10
-19.961300000000001
 20
29.8505
 30
0.0
 10
-19.961300000000001
 20
29.8505
 30
0.0
  0
SPLINE
  5
258
100
AcDbEntity
  8
Layer 1
370
    20
100
AcDbSpline
210
0.0
220
0.0
230
1.0
 70
     0
 71
     3
 72
     8
 73
     4
 74
     0
 42
0.0000000001
 43
0.0000000001
 40
0.0
 40
0.0
 40
0.0
 40
0.0
 40
1.0
 40
1.0
 40
1.0
 40
1.0
 10
-19.961300000000001
 20
29.8505
 30
0.0
 10
-19.961300000000001
 20
29.8505
 30
0.0
 10
-17.254300000000001
 20
28.505300000000002
 30
0.0
 10
-17.254300000000001
 20
28.505300000000002
 30
0.0
  0
SPLINE
  5
259
100
AcDbEntity
  8
Layer 1
370
    20
100
AcDbSpline
210
0.0
220
0.0
230
1.0
 70
     0
 71
     3
 72
     8
 73
     4
 74
     0
 42
0.0000000001
 43
0.0000000001
 40
0.0
 40
0.0
 40
0.0
 40
0.0
 40
1.0
 40
1.0
 40
1.0
 40
1.0
 10
-17.254300000000001
 20
28.505300000000002
 30
0.0
 10
-17.254300000000001
 20
28.505300000000002
 30
0.0
 10
-14.2256
 20
33.751200000000004
 30
0.0
 10
-14.2256
 20
33.751200000000004
 30
0.0
  0
SPLINE
  5
25A
100
AcDbEntity
  8
Layer 1
370
    20
100
AcDbSpline
210
0.0
220
0.0
230
1.0
 70
     0
 71
     3
 72
     8
 73
     4
 74
     0
 42
0.0000000001
 43
0.0000000001
 40
0.0
 40
0.0
 40
0.0
 40
0.0
 40
1.0
 40
1.0
 40
1.0
 40
1.0
 10
-14.2256
 20
33.751200000000004
 30
0.0
 10
-14.2256
 20
33.751200000000004
 30
0.0
 10
1.7890000000000001
 20
19.252500000000001
 30
0.0
 10
1.7890000000000001
 20
19.252500000000001
 30
0.0
  0
SPLINE
  5
25B
100
AcDbEntity
  8
Layer 1
370
    20
100
AcDbSpline
210
0.0
220
0.0
230
1.0
 70
     0
 71
     3
 72
     8
 73
     4
 74
     0
 42
0.0000000001
 43
0.0000000001
 40
0.0
 40
0.0
 40
0.0
 40
0.0
 40
1.0
 40
1.0
 40
1.0
 40
1.0
 10
1.7890000000000001
 20
19.252500000000001
 30
0.0
 10
1.7890000000000001
 20
19.252500000000001
 30
0.0
 10
-0.4736
 20
15.333400000000001
 30
0.0
 10
-0.4736
 20
15.333400000000001
 30
0.0
  0
SPLINE
  5
25C
100
AcDbEntity
  8
Layer 1
370
    20
100
AcDbSpline
210
0.0
220
0.0
230
1.0
 70
     0
 71
     3
 72
     8
 73
     4
 74
     0
 42
0.0000000001
 43
0.0000000001
 40
0.0
 40
0.0
 40
0.0
 40
0.0
 40
1.0
 40
1.0
 40
1.0
 40
1.0
 10
-0.4736
 20
15.333400000000001
 30
0.0
 10
-0.4736
 20
15.333400000000001
 30
0.0
 10
2.1391
 20
13.824900000000001
 30
0.0
 10
2.1391
 20
13.824900000000001
 30
0.0
  0
SPLINE
  5
25D
100
AcDbEntity
  8
Layer 1
370
    20
100
AcDbSpline
210
0.0
220
0.0
230
1.0
 70
     0
 71
     3
 72
     8
 73
     4
 74
     0
 42
0.0000000001
 43
0.0000000001
 40
0.0
 40
0.0
 40
0.0
 40
0.0
 40
1.0
 40
1.0
 40
1.0
 40
1.0
 10
2.1391
 20
13.824900000000001
 30
0.0
 10
2.1391
 20
13.824900000000001
 30
0.0
 10
7.4305000000000003
 20
22.989900000000002
 30
0.0
 10
7.4305000000000003
 20
22.989900000000002
 30
0.0
  0
SPLINE
  5
25E
100
AcDbEntity
  8
Layer 1
370
    20
100
AcDbSpline
210
0.0
220
0.0
230
1.0
 70
     0
 71
     3
 72
     8
 73
     4
 74
     0
 42
0.0000000001
 43
0.0000000001
 40
0.0
 40
0.0
 40
0.0
 40
0.0
 40
1.0
 40
1.0
 40
1.0
 40
1.0
 10
7.4305000000000003
 20
22.989900000000002
 30
0.0
 10
7.4305000000000003
 20
22.989900000000002
 30
0.0
 10
23.456900000000001
 20
8.5114999999999998
 30
0.0
 10
23.456900000000001
 20
8.5114999999999998
 30
0.0
  0
SPLINE
  5
25F
100
AcDbEntity
  8
Layer 1
370
    20
100
AcDbSpline
210
0.0
220
0.0
230
1.0
 70
     0
 71
     3
 72
     8
 73
     4
 74
     0
 42
0.0000000001
 43
0.0000000001
 40
0.0
 40
0.0
 40
0.0
 40
0.0
 40
1.0
 40
1.0
 40
1.0
 40
1.0
 10
23.456900000000001
 20
8.5114999999999998
 30
0.0
 10
23.456900000000001
 20
8.5114999999999998
 30
0.0
 10
21.194200000000002
 20
4.5924000000000005
 30
0.0
 10
21.194200000000002
 20
4.5924000000000005
 30
0.0
  0
SPLINE
  5
260
100
AcDbEntity
  8
Layer 1
370
    20
100
AcDbSpline
210
0.0
220
0.0
230
1.0
 70
     0
 71
     3
 72
     8
 73
     4
 74
     0
 42
0.0000000001
 43
0.0000000001
 40
0.0
 40
0.0
 40
0.0
 40
0.0
 40
1.0
 40
1.0
 40
1.0
 40
1.0
 10
21.194200000000002
 20
4.5924000000000005
 30
0.0
 10
21.194200000000002
 20
4.5924000000000005
 30
0.0
 10
23.806900000000002
 20
3.0840000000000001
 30
0.0
 10
23.806900000000002
 20
3.0840000000000001
 30
0.0
  0
SPLINE
  5
261
100
AcDbEntity
  8
Layer 1
370
    20
100
AcDbSpline
210
0.0
220
0.0
230
1.0
 70
     0
 71
     3
 72
     8
 73
     4
 74
     0
 42
0.0000000001
 43
0.0000000001
 40
0.0
 40
0.0
 40
0.0
 40
0.0
 40
1.0
 40
1.0
 40
1.0
 40
1.0
 10
23.806900000000002
 20
3.0840000000000001
 30
0.0
 10
23.806900000000002
 20
3.0840000000000001
 30
0.0
 10
29.086500000000001
 20
12.2285
 30
0.0
 10
29.086500000000001
 20
12.2285
 30
0.0
  0
SPLINE
  5
262
100
AcDbEntity
  8
Layer 1
370
    20
100
AcDbSpline
210
0.0
220
0.0
230
1.0
 70
     0
 71
     3
 72
     8
 73
     4
 74
     0
 42
0.0000000001
 43
0.0000000001
 40
0.0
 40
0.0
 40
0.0
 40
0.0
 40
1.0
 40
1.0
 40
1.0
 40
1.0
 10
29.086500000000001
 20
12.2285
 30
0.0
 10
29.086500000000001
 20
12.2285
 30
0.0
 10
45.325099999999999
 20
-1.8824000000000001
 30
0.0
 10
45.325099999999999
 20
-1.8824000000000001
 30
0.0
  0
SPLINE
  5
263
100
AcDbEntity
  8
Layer 1
370
    20
100
AcDbSpline
210
0.0
220
0.0
230
1.0
 70
     0
 71
     3
 72
     8
 73
     4
 74
     0
 42
0.0000000001
 43
0.0000000001
 40
0.0
 40
0.0
 40
0.0
 40
0.0
 40
1.0
 40
1.0
 40
1.0
 40
1.0
 10
45.325099999999999
 20
-1.8824000000000001
 30
0.0
 10
45.325099999999999
 20
-1.8824000000000001
 30
0.0
 10
43.062400000000004
 20
-5.8014000000000001
 30
0.0
 10
43.062400000000004
 20
-5.8014000000000001
 30
0.0
  0
SPLINE
  5
264
100
AcDbEntity
  8
Layer 1
370
    20
100
AcDbSpline
210
0.0
220
0.0
230
1.0
 70
     0
 71
     3
 72
     8
 73
     4
 74
     0
 42
0.0000000001
 43
0.0000000001
 40
0.0
 40
0.0
 40
0.0
 40
0.0
 40
1.0
 40
1.0
 40
1.0
 40
1.0
 10
43.062400000000004
 20
-5.8014000000000001
 30
0.0
 10
43.062400000000004
 20
-5.8014000000000001
 30
0.0
 10
45.6751
 20
-7.3099000000000007
 30
0.0
 10
45.6751
 20
-7.3099000000000007
 30
0.0
  0
SPLINE
  5
265
100
AcDbEntity
  8
Layer 1
370
    20
100
AcDbSpline
210
0.0
220
0.0
230
1.0
 70
     0
 71
     3
 72
     8
 73
     4
 74
     0
 42
0.0000000001
 43
0.0000000001
 40
0.0
 40
0.0
 40
0.0
 40
0.0
 40
1.0
 40
1.0
 40
1.0
 40
1.0
 10
45.6751
 20
-7.3099000000000007
 30
0.0
 10
45.6751
 20
-7.3099000000000007
 30
0.0
 10
50.931100000000001
 20
1.7938000000000001
 30
0.0
 10
50.931100000000001
 20
1.7938000000000001
 30
0.0
  0
SPLINE
  5
266
100
AcDbEntity
  8
Layer 1
370
    20
100
AcDbSpline
210
0.0
220
0.0
230
1.0
 70
     0
 71
     3
 72
     8
 73
     4
 74
     0
 42
0.0000000001
 43
0.0000000001
 40
0.0
 40
0.0
 40
0.0
 40
0.0
 40
1.0
 40
1.0
 40
1.0
 40
1.0
 10
50.931100000000001
 20
1.7938000000000001
 30
0.0
 10
50.931100000000001
 20
1.7938000000000001
 30
0.0
 10
66.157899999999998
 20
-11.0525
 30
0.0
 10
66.157899999999998
 20
-11.0525
 30
0.0
  0
SPLINE
  5
267
100
AcDbEntity
  8
Layer 1
370
    20
100
AcDbSpline
210
0.0
220
0.0
230
1.0
 70
     0
 71
     3
 72
     8
 73
     4
 74
     0
 42
0.0000000001
 43
0.0000000001
 40
0.0
 40
0.0
 40
0.0
 40
0.0
 40
1.0
 40
1.0
 40
1.0
 40
1.0
 10
66.157899999999998
 20
-11.0525
 30
0.0
 10
66.157899999999998
 20
-11.0525
 30
0.0
 10
63.895300000000006
 20
-14.9716
 30
0.0
 10
63.895300000000006
 20
-14.9716
 30
0.0
  0
SPLINE
  5
268
100
AcDbEntity
  8
Layer 1
370
    20
100
AcDbSpline
210
0.0
220
0.0
230
1.0
 70
     0
 71
     3
 72
     8
 73
     4
 74
     0
 42
0.0000000001
 43
0.0000000001
 40
0.0
 40
0.0
 40
0.0
 40
0.0
 40
1.0
 40
1.0
 40
1.0
 40
1.0
 10
63.895300000000006
 20
-14.9716
 30
0.0
 10
63.895300000000006
 20
-14.9716
 30
0.0
 10
66.50800000000001
 20
-16.4801
 30
0.0
 10
66.50800000000001
 20
-16.4801
 30
0.0
  0
SPLINE
  5
269
100
AcDbEntity
  8
Layer 1
370
    20
100
AcDbSpline
210
0.0
220
0.0
230
1.0
 70
     0
 71
     3
 72
     8
 73
     4
 74
     0
 42
0.0000000001
 43
0.0000000001
 40
0.0
 40
0.0
 40
0.0
 40
0.0
 40
1.0
 40
1.0
 40
1.0
 40
1.0
 10
66.50800000000001
 20
-16.4801
 30
0.0
 10
66.50800000000001
 20
-16.4801
 30
0.0
 10
71.622600000000006
 20
-7.6191000000000004
 30
0.0
 10
71.622600000000006
 20
-7.6191000000000004
 30
0.0
  0
ENDSEC
  0
SECTION
  2
OBJECTS
  0
DICTIONARY
  5
19
100
AcDbDictionary
280
     0
281
     1
  3
ACAD_GROUP
350
1A
  3
ACAD_MLINESTYLE
350
1B
  3
ACAD_LAYOUT
350
1E
  3
ACAD_PLOTSETTINGS
350
22
  3
ACAD_PLOTSTYLENAME
350
1F
  3
ACAD_WIPEOUT_VARS
350
23
  0
DICTIONARY
  5
1A
102
{ACAD_REACTORS
330
19
102
}
100
AcDbDictionary
280
     0
281
     1
  0
DICTIONARY
  5
1B
102
{ACAD_REACTORS
330
19
102
}
100
AcDbDictionary
280
     0
281
     1
  3
Standard
350
1C
  0
MLINESTYLE
  5
1C
102
{ACAD_REACTORS
330
1B
102
}
100
AcDbMlineStyle
  2
Standard
 70
     0
  3

 62
     0
 51
90.0
 52
90.0
 71
     2
 49
0.5
 62
   256
  6
BYLAYER
 49
-0.5
 62
   256
  6
BYLAYER
  0
ACDBDICTIONARYWDFLT
  5
1F
102
{ACAD_REACTORS
330
19
102
}
100
AcDbDictionary
281
     1
  3
Normal
350
1D
100
AcDbDictionaryWithDefault
340
1D
  0
ACDBPLACEHOLDER
  5
1D
102
{ACAD_REACTORS
330
1F
102
}
  0
LAYOUT
  5
20
102
{ACAD_REACTORS
330
1E
102
}
100
AcDbPlotSettings
  1

  2

  4

  6

 40
0.0
 41
0.0
 42
0.0
 43
0.0
 44
0.0
 45
0.0
 46
0.0
 47
0.0
 48
0.0
 49
0.0
140
0.0
141
0.0
142
1.0
143
1.0
 70
  1024
 72
     0
 73
     0
 74
     0
  7

 75
     0
147
1.0
148
0.0
149
0.0
100
AcDbLayout
  1
Model
 70
     0
 71
     0
 10
0.0
 20
0.0
 11
0.0
 21
0.0
 12
0.0
 22
0.0
 32
0.0
 14
0.0
 24
0.0
 34
0.0
 15
0.0
 25
0.0
 35
0.0
146
0.0
 13
0.0
 23
0.0
 33
0.0
 16
0.0
 26
0.0
 36
0.0
 17
0.0
 27
0.0
 37
0.0
 76
     0
330
A
331
0
345
0
346
0
  0
LAYOUT
  5
21
102
{ACAD_REACTORS
330
1E
102
}
100
AcDbPlotSettings
  1

  2

  4

  6

 40
0.0
 41
0.0
 42
0.0
 43
0.0
 44
0.0
 45
0.0
 46
0.0
 47
0.0
 48
0.0
 49
0.0
140
0.0
141
0.0
142
1.0
143
1.0
 70
     0
 72
     0
 73
     0
 74
     0
  7

 75
     0
147
1.0
148
0.0
149
0.0
100
AcDbLayout
  1
Layout1
 70
     0
 71
     0
 10
0.0
 20
0.0
 11
0.0
 21
0.0
 12
0.0
 22
0.0
 32
0.0
 14
0.0
 24
0.0
 34
0.0
 15
0.0
 25
0.0
 35
0.0
146
0.0
 13
0.0
 23
0.0
 33
0.0
 16
0.0
 26
0.0
 36
0.0
 17
0.0
 27
0.0
 37
0.0
 76
     0
330
B
331
0
345
0
346
0
  0
DICTIONARY
  5
1E
102
{ACAD_REACTORS
330
19
102
}
100
AcDbDictionary
280
     0
281
     1
  3
Layout1
350
21
  3
Model
350
20
  0
DICTIONARY
  5
22
102
{ACAD_REACTORS
330
19
102
}
100
AcDbDictionary
280
     0
281
     1
  0
WIPEOUTVARIABLES
  5
23
100
AcDbWipeoutVariables
 70
     1
  0
ENDSEC
  0
EOF
