  0
SECTION
  2
HEADER
  9
$ACADVER
  1
AC1015
  9
$ACADMAINTVER
 70
     6
  9
$DWGCODEPAGE
  3
DOS850
  9
$INSBASE
 10
0.0
 20
0.0
 30
0.0
  9
$EXTMIN
 10
-198.8107
 20
-296.3576
 30
1.000000E+20
  9
$EXTMAX
 10
198.8107
 20
297.7715
 30
-1.000000E+20
  9
$LIMMIN
 10
0.0
 20
0.0
  9
$LIMMAX
 10
0.0
 20
0.0
  9
$ORTHOMODE
 70
     0
  9
$REGENMODE
 70
     1
  9
$FILLMODE
 70
     1
  9
$QTEXTMODE
 70
     0
  9
$MIRRTEXT
 70
     1
  9
$LTSCALE
 40
1.0
  9
$ATTMODE
 70
     1
  9
$TEXTSIZE
 40
0.2
  9
$TRACEWID
 40
0.05
  9
$TEXTSTYLE
  7
Standard
  9
$CLAYER
  8
0
  9
$CELTYPE
  6
Continuous
  9
$CECOLOR
 62
   256
  9
$CELTSCALE
 40
1.0
  9
$DISPSILH
 70
     0
  9
$DIMSCALE
 40
1.0
  9
$DIMASZ
 40
0.18
  9
$DIMEXO
 40
0.0625
  9
$DIMDLI
 40
0.38
  9
$DIMRND
 40
0.0
  9
$DIMDLE
 40
0.0
  9
$DIMEXE
 40
0.18
  9
$DIMTP
 40
0.0
  9
$DIMTM
 40
0.0
  9
$DIMTXT
 40
0.18
  9
$DIMCEN
 40
0.09
  9
$DIMTSZ
 40
0.0
  9
$DIMTOL
 70
     0
  9
$DIMLIM
 70
     0
  9
$DIMTIH
 70
     1
  9
$DIMTOH
 70
     1
  9
$DIMSE1
 70
     0
  9
$DIMSE2
 70
     0
  9
$DIMTAD
 70
     0
  9
$DIMZIN
 70
     0
  9
$DIMBLK
  1

  9
$DIMASO
 70
     1
  9
$DIMSHO
 70
     1
  9
$DIMPOST
  1

  9
$DIMAPOST
  1

  9
$DIMALT
 70
     0
  9
$DIMALTD
 70
     2
  9
$DIMALTF
 40
25.4
  9
$DIMLFAC
 40
1.0
  9
$DIMTOFL
 70
     0
  9
$DIMTVP
 40
0.0
  9
$DIMTIX
 70
     0
  9
$DIMSOXD
 70
     0
  9
$DIMSAH
 70
     0
  9
$DIMBLK1
  1

  9
$DIMBLK2
  1

  9
$DIMSTYLE
  2
Standard
  9
$DIMCLRD
 70
     0
  9
$DIMCLRE
 70
     0
  9
$DIMCLRT
 70
     0
  9
$DIMTFAC
 40
1.0
  9
$DIMGAP
 40
0.09
  9
$DIMJUST
 70
     0
  9
$DIMSD1
 70
     0
  9
$DIMSD2
 70
     0
  9
$DIMTOLJ
 70
     1
  9
$DIMTZIN
 70
     0
  9
$DIMALTZ
 70
     0
  9
$DIMALTTZ
 70
     0
  9
$DIMUPT
 70
     0
  9
$DIMDEC
 70
     4
  9
$DIMTDEC
 70
     4
  9
$DIMALTU
 70
     2
  9
$DIMALTTD
 70
     2
  9
$DIMTXSTY
  7
Standard
  9
$DIMAUNIT
 70
     0
  9
$DIMADEC
 70
     0
  9
$DIMALTRND
 40
0.0
  9
$DIMAZIN
 70
     0
  9
$DIMDSEP
 70
     0
  9
$DIMATFIT
 70
     3
  9
$DIMFRAC
 70
     0
  9
$DIMLDRBLK
  1

  9
$DIMLUNIT
 70
     2
  9
$DIMLWD
 70
     0
  9
$DIMLWE
 70
     0
  9
$DIMTMOVE
 70
     0
  9
$LUNITS
 70
     2
  9
$LUPREC
 70
     4
  9
$SKETCHINC
 40
0.1
  9
$FILLETRAD
 40
0.0
  9
$AUNITS
 70
     0
  9
$AUPREC
 70
     0
  9
$MENU
  1
acad
  9
$ELEVATION
 40
0.0
  9
$PELEVATION
 40
0.0
  9
$THICKNESS
 40
0.0
  9
$LIMCHECK
 70
     0
  9
$CHAMFERA
 40
0.0
  9
$CHAMFERB
 40
0.0
  9
$CHAMFERC
 40
0.0
  9
$CHAMFERD
 40
0.0
  9
$SKPOLY
 70
     0
  9
$TDCREATE
 40
0.000000000
  9
$TDUCREATE
 40
0.000000000
  9
$TDUPDATE
 40
0.000000000
  9
$TDUUPDATE
 40
0.000000000
  9
$TDINDWG
 40
0.0000000000
  9
$TDUSRTIMER
 40
0.0000000000
  9
$USRTIMER
 70
     1
  9
$ANGBASE
 50
0.0
  9
$ANGDIR
 70
     0
  9
$PDMODE
 70
     0
  9
$PDSIZE
 40
0.0
  9
$PLINEWID
 40
0.0
  9
$SPLFRAME
 70
     0
  9
$SPLINETYPE
 70
     6
  9
$SPLINESEGS
 70
     8
  9
$HANDSEED
  5
298
  9
$SURFTAB1
 70
     6
  9
$SURFTAB2
 70
     6
  9
$SURFTYPE
 70
     6
  9
$SURFU
 70
     6
  9
$SURFV
 70
     6
  9
$UCSBASE
  2

  9
$UCSNAME
  2

  9
$UCSORG
 10
0.0
 20
0.0
 30
0.0
  9
$UCSXDIR
 10
1.0
 20
0.0
 30
0.0
  9
$UCSYDIR
 10
0.0
 20
1.0
 30
0.0
  9
$UCSORTHOREF
  2

  9
$UCSORTHOVIEW
 70
     0
  9
$UCSORGTOP
 10
0.0
 20
0.0
 30
0.0
  9
$UCSORGBOTTOM
 10
0.0
 20
0.0
 30
0.0
  9
$UCSORGLEFT
 10
0.0
 20
0.0
 30
0.0
  9
$UCSORGRIGHT
 10
0.0
 20
0.0
 30
0.0
  9
$UCSORGFRONT
 10
0.0
 20
0.0
 30
0.0
  9
$UCSORGBACK
 10
0.0
 20
0.0
 30
0.0
  9
$PUCSBASE
  2

  9
$PUCSNAME
  2

  9
$PUCSORG
 10
0.0
 20
0.0
 30
0.0
  9
$PUCSXDIR
 10
1.0
 20
0.0
 30
0.0
  9
$PUCSYDIR
 10
0.0
 20
1.0
 30
0.0
  9
$PUCSORTHOREF
  2

  9
$PUCSORTHOVIEW
 70
     0
  9
$PUCSORGTOP
 10
0.0
 20
0.0
 30
0.0
  9
$PUCSORGBOTTOM
 10
0.0
 20
0.0
 30
0.0
  9
$PUCSORGLEFT
 10
0.0
 20
0.0
 30
0.0
  9
$PUCSORGRIGHT
 10
0.0
 20
0.0
 30
0.0
  9
$PUCSORGFRONT
 10
0.0
 20
0.0
 30
0.0
  9
$PUCSORGBACK
 10
0.0
 20
0.0
 30
0.0
  9
$USERI1
 70
     0
  9
$USERI2
 70
     0
  9
$USERI3
 70
     0
  9
$USERI4
 70
     0
  9
$USERI5
 70
     0
  9
$USERR1
 40
0.0
  9
$USERR2
 40
0.0
  9
$USERR3
 40
0.0
  9
$USERR4
 40
0.0
  9
$USERR5
 40
0.0
  9
$WORLDVIEW
 70
     1
  9
$SHADEDGE
 70
     3
  9
$SHADEDIF
 70
    70
  9
$TILEMODE
 70
     1
  9
$MAXACTVP
 70
    16
  9
$PINSBASE
 10
0.0
 20
0.0
 30
0.0
  9
$PLIMCHECK
 70
     0
  9
$PEXTMIN
 10
1.000000E+20
 20
1.000000E+20
 30
1.000000E+20
  9
$PEXTMAX
 10
-1.000000E+20
 20
-1.000000E+20
 30
-1.000000E+20
  9
$PLIMMIN
 10
0.0
 20
0.0
  9
$PLIMMAX
 10
12.0
 20
9.0
  9
$UNITMODE
 70
     0
  9
$VISRETAIN
 70
     0
  9
$PLINEGEN
 70
     1
  9
$PSLTSCALE
 70
     0
  9
$TREEDEPTH
 70
  3020
  9
$CMLSTYLE
  2
Standard
  9
$CMLJUST
 70
     0
  9
$CMLSCALE
 40
1.0
  9
$PROXYGRAPHICS
 70
     0
  9
$MEASUREMENT
 70
     0
  9
$CELWEIGHT
370
     0
  9
$ENDCAPS
280
     0
  9
$JOINSTYLE
280
     0
  9
$LWDISPLAY
290
     0
  9
$INSUNITS
 70
     4
  9
$HYPERLINKBASE
  1

  9
$XEDIT
290
     1
  9
$CEPSNTYPE
380
     0
  9
$PSTYLEMODE
290
     1
  9
$FINGERPRINTGUID
  2

  9
$VERSIONGUID
  2

  9
$EXTNAMES
290
     1
  9
$PSVPSCALE
 40
0.0
  0
ENDSEC
  0
SECTION
  2
CLASSES
  0
CLASS
  1
LWPOLYLINE
  2
AcDbPolyline
  3
AutoCAD 2000
 90
    32768
280
     0
281
     1
  0
CLASS
  1
IMAGE
  2
AcDbRasterImage
  3
ISM
 90
    32895
280
     0
281
     1
  0
CLASS
  1
OLE2FRAME
  2
AcDbOle2Frame
  3
AutoCAD 2000
 90
    32768
280
     0
281
     1
  0
CLASS
  1
HATCH
  2
AcDbHatch
  3
AutoCAD 2000
 90
    32768
280
     0
281
     1
  0
CLASS
  1
DICTIONARYVAR
  2
AcDbDictionaryVar
  3
AutoCAD 2000
 90
    32768
280
     0
281
     0
  0
CLASS
  1
RASTERVARIABLES
  2
AcDbRasterVariables
  3
ISM
 90
    32768
280
     0
281
     0
  0
CLASS
  1
IMAGEDEF
  2
AcDbRasterImageDef
  3
ISM
 90
    32768
280
     0
281
     0
  0
CLASS
  1
IMAGEDEF_REACTOR
  2
AcDbRasterImageDefReactor
  3
ISM
 90
    32769
280
     0
281
     0
  0
CLASS
  1
IDBUFFER
  2
AcDbIdBuffer
  3
AutoCAD 2000
 90
    32768
280
     0
281
     0
  0
CLASS
  1
SPATIAL_FILTER
  2
AcDbSpatialFilter
  3
AutoCAD 2000
 90
    32768
280
     0
281
     0
  0
CLASS
  1
XRECORD
  2
AcDbXrecord
  3
AutoCAD 2000
 90
    32768
280
     0
281
     0
  0
CLASS
  1
SORTENTSTABLE
  2
AcDbSortentsTable
  3
AutoCAD 2000
 90
    32768
280
     0
281
     0
  0
CLASS
  1
LAYER_INDEX
  2
AcDbLayerIndex
  3
AutoCAD 2000
 90
    32768
280
     0
281
     0
  0
CLASS
  1
SPATIAL_INDEX
  2
AcDbSpatialIndex
  3
AutoCAD 2000
 90
    32768
280
     0
281
     0
  0
CLASS
  1
OBJECT_PTR
  2
CAseDLPNTableRecord
  3
"ASE-LPNTableRecord"
 90
    32769
280
     0
281
     0
  0
CLASS
  1
LAYOUT
  2
AcDbLayout
  3
AutoCAD 2000
 90
        0
280
     0
281
     0
  0
CLASS
  1
PLOTSETTINGS
  2
AcDbPlotSettings
  3
AutoCAD 2000
 90
    32768
280
     0
281
     0
  0
CLASS
  1
ACDBDICTIONARYWDFLT
  2
AcDbDictionaryWithDefault
  3
AutoCAD 2000
 90
        0
280
     0
281
     0
  0
CLASS
  1
ACDBPLACEHOLDER
  2
AcDbPlaceHolder
  3
AutoCAD 2000
 90
        0
280
     0
281
     0
  0
CLASS
  1
VBA_PROJECT
  2
AcDbVbaProject
  3
acadvba
 90
    32768
280
     0
281
     0
  0
CLASS
  1
WIPEOUT
  2
AcDbWipeout
  3
WipeOut|AutoCAD Express Tool|expresstools@autodesk.com
 90
    32895
280
     0
281
     1
  0
CLASS
  1
WIPEOUTVARIABLES
  2
AcDbWipeoutVariables
  3
WipeOut|AutoCAD Express Tool|expresstools@autodesk.com
 90
        0
280
     0
281
     0
  0
CLASS
  1
RTEXT
  2
RText
  3
RText|AutoCAD Express Tool|expresstools@autodesk.com
 90
    32768
280
     0
281
     1
  0
CLASS
  1
ARCALIGNEDTEXT
  2
AcDbArcAlignedText
  3
ATEXT|AutoCAD Express Tool|expresstools@autodesk.com
 90
    32768
280
     0
281
     1
  0
ENDSEC
  0
SECTION
  2
TABLES
  0
TABLE
  2
VPORT
  5
7
100
AcDbSymbolTable
 70
     1
  0
VPORT
  5
15
100
AcDbSymbolTableRecord
100
AcDbViewportTableRecord
  2
*ACTIVE
 70
     0
 10
0.0
 20
0.0
 11
1.0
 21
1.0
 12
6.591288
 22
4.579184
 13
0.0
 23
0.0
 14
1.0
 24
1.0
 15
0.0
 25
0.0
 16
0.0
 26
0.0
 36
1.0
 17
0.0
 27
0.0
 37
0.0
 40
9.158369
 41
0.688564
 42
50.0
 43
0.0
 44
0.0
 50
0.0
 51
0.0
 71
     0
 72
   100
 73
     1
 74
     1
 75
     0
 76
     0
 77
     0
 78
     0
281
     0
 65
     0
110
0.0
120
0.0
130
0.0
111
1.0
121
0.0
131
0.0
112
0.0
122
1.0
132
0.0
345
0
346
0
 79
     0
146
0.0
  0
ENDTAB
  0
TABLE
  2
LTYPE
  5
4
100
AcDbSymbolTable
 70
     3
  0
LTYPE
  5
11
100
AcDbSymbolTableRecord
100
AcDbLinetypeTableRecord
  2
ByBlock
 70
    64
  3

 72
    65
 73
     0
 40
0.0
  0
LTYPE
  5
12
100
AcDbSymbolTableRecord
100
AcDbLinetypeTableRecord
  2
ByLayer
 70
    64
  3

 72
    65
 73
     0
 40
0.0
  0
LTYPE
  5
13
100
AcDbSymbolTableRecord
100
AcDbLinetypeTableRecord
  2
Continuous
 70
    64
  3
Solid line
 72
    65
 73
     0
 40
0.0
  0
ENDTAB
  0
TABLE
  2
LAYER
  5
2
100
AcDbSymbolTable
 70
     2
  0
LAYER
  5
14
100
AcDbSymbolTableRecord
100
AcDbLayerTableRecord
  2
0
 70
     0
 62
     7
  6
Continuous
290
     1
370
    -3
390
1D
  0
LAYER
  5
24
100
AcDbSymbolTableRecord
100
AcDbLayerTableRecord
  2
0
 70
     0
 62
     7
  6
Continuous
290
     1
370
    -3
390
1F
  0
ENDTAB
  0
TABLE
  2
STYLE
  5
3
100
AcDbSymbolTable
 70
     1
  0
STYLE
  5
17
100
AcDbSymbolTableRecord
100
AcDbTextStyleTableRecord
  2
Standard
 70
     0
 40
0.0
 41
1.0
 50
0.0
 71
     0
 42
0.0
  3
txt
  4

  0
ENDTAB
  0
TABLE
  2
VIEW
  5
5
100
AcDbSymbolTable
 70
     0
  0
ENDTAB
  0
TABLE
  2
UCS
  5
6
100
AcDbSymbolTable
 70
     0
  0
ENDTAB
  0
TABLE
  2
APPID
  5
8
100
AcDbSymbolTable
 70
     1
  0
APPID
  5
16
100
AcDbSymbolTableRecord
100
AcDbRegAppTableRecord
  2
ACAD
 70
     0
  0
ENDTAB
  0
TABLE
  2
DIMSTYLE
  5
9
100
AcDbSymbolTable
 70
     1
100
AcDbDimStyleTable
 71
     0
  0
DIMSTYLE
105
18
100
AcDbSymbolTableRecord
100
AcDbDimStyleTableRecord
  2
Standard
 70
     0
  3

  4

 40
1.0
 41
0.18
 42
0.0625
 43
0.38
 44
0.18
 45
0.0
 46
0.0
 47
0.0
 48
0.0
 71
     0
 72
     0
 73
     1
 74
     1
 75
     0
 76
     0
 77
     0
 78
     0
 79
     0
140
0.18
141
0.09
142
0.0
143
25.4
144
1.0
145
0.0
146
1.0
147
0.09
148
0.0
170
     0
171
     2
172
     0
173
     0
174
     0
175
     0
176
     0
177
     0
178
     0
179
     0
271
     4
272
     4
273
     2
274
     2
275
     0
276
     0
277
     2
278
    46
279
     0
280
     0
281
     0
282
     0
283
     1
284
     0
285
     0
286
     0
288
     0
340
17
341
0
342
0
343
0
344
0
371
    -2
372
    -2
  0
ENDTAB
  0
TABLE
  2
BLOCK_RECORD
  5
1
100
AcDbSymbolTable
 70
     0
  0
BLOCK_RECORD
  5
A
100
AcDbSymbolTableRecord
100
AcDbBlockTableRecord
  2
*MODEL_SPACE
340
20
  0
BLOCK_RECORD
  5
B
100
AcDbSymbolTableRecord
100
AcDbBlockTableRecord
  2
*PAPER_SPACE
340
21
  0
ENDTAB
  0
ENDSEC
  0
SECTION
  2
BLOCKS
  0
BLOCK
  5
D
100
AcDbEntity
  8
0
100
AcDbBlockBegin
  2
*MODEL_SPACE
 70
     0
 10
0.0
 20
0.0
 30
0.0
  3
*MODEL_SPACE
  1

  0
ENDBLK
  5
E
100
AcDbEntity
  8
0
100
AcDbBlockEnd
  0
BLOCK
  5
F
100
AcDbEntity
 67
     1
  8
0
100
AcDbBlockBegin
  2
*PAPER_SPACE
 70
     0
 10
0.0
 20
0.0
 30
0.0
  3
*PAPER_SPACE
  1

  0
ENDBLK
  5
10
100
AcDbEntity
 67
     1
  8
0
100
AcDbBlockEnd
  0
ENDSEC
  0
SECTION
  2
ENTITIES
  0
SPLINE
  5
25
100
AcDbEntity
  8
0
370
     5
 62
     1
100
AcDbSpline
210
0.0
220
0.0
230
1.0
 70
     0
 71
     3
 72
     8
 73
     4
 74
     0
 42
0.0000000001
 43
0.0000000001
 40
0.0
 40
0.0
 40
0.0
 40
0.0
 40
1.0
 40
1.0
 40
1.0
 40
1.0
 10
-130.71190000000001
 20
134.46010000000001
 30
0.0
 10
-126.3326
 20
134.06540000000001
 30
0.0
 10
-121.95280000000001
 20
133.67080000000001
 30
0.0
 10
-117.57300000000001
 20
133.27590000000001
 30
0.0
  0
SPLINE
  5
26
100
AcDbEntity
  8
0
370
     5
 62
     1
100
AcDbSpline
210
0.0
220
0.0
230
1.0
 70
     0
 71
     3
 72
     8
 73
     4
 74
     0
 42
0.0000000001
 43
0.0000000001
 40
0.0
 40
0.0
 40
0.0
 40
0.0
 40
1.0
 40
1.0
 40
1.0
 40
1.0
 10
-117.57300000000001
 20
133.27590000000001
 30
0.0
 10
-110.9812
 20
132.28220000000002
 30
0.0
 10
-110.4546
 20
124.4876
 30
0.0
 10
-111.98100000000001
 20
115.92970000000001
 30
0.0
  0
SPLINE
  5
27
100
AcDbEntity
  8
0
370
     5
 62
     1
100
AcDbSpline
210
0.0
220
0.0
230
1.0
 70
     0
 71
     3
 72
     8
 73
     4
 74
     0
 42
0.0000000001
 43
0.0000000001
 40
0.0
 40
0.0
 40
0.0
 40
0.0
 40
1.0
 40
1.0
 40
1.0
 40
1.0
 10
-111.98100000000001
 20
115.92970000000001
 30
0.0
 10
-113.39720000000001
 20
105.36750000000001
 30
0.0
 10
-109.461
 20
101.40230000000001
 30
0.0
 10
-98.551200000000009
 20
101.20960000000001
 30
0.0
  0
SPLINE
  5
28
100
AcDbEntity
  8
0
370
     5
 62
     1
100
AcDbSpline
210
0.0
220
0.0
230
1.0
 70
     0
 71
     3
 72
     8
 73
     4
 74
     0
 42
0.0000000001
 43
0.0000000001
 40
0.0
 40
0.0
 40
0.0
 40
0.0
 40
1.0
 40
1.0
 40
1.0
 40
1.0
 10
-98.551200000000009
 20
101.20960000000001
 30
0.0
 10
-83.291700000000006
 20
101.03410000000001
 30
0.0
 10
-68.032200000000003
 20
100.8587
 30
0.0
 10
-52.772600000000004
 20
100.68310000000001
 30
0.0
  0
SPLINE
  5
29
100
AcDbEntity
  8
0
370
     5
 62
     1
100
AcDbSpline
210
0.0
220
0.0
230
1.0
 70
     0
 71
     3
 72
     8
 73
     4
 74
     0
 42
0.0000000001
 43
0.0000000001
 40
0.0
 40
0.0
 40
0.0
 40
0.0
 40
1.0
 40
1.0
 40
1.0
 40
1.0
 10
-52.772600000000004
 20
100.68310000000001
 30
0.0
 10
-40.938800000000001
 20
99.26870000000001
 30
0.0
 10
-38.266000000000005
 20
103.5616
 30
0.0
 10
-37.411300000000004
 20
110.3485
 30
0.0
  0
SPLINE
  5
2A
100
AcDbEntity
  8
0
370
     5
 62
     1
100
AcDbSpline
210
0.0
220
0.0
230
1.0
 70
     0
 71
     3
 72
     8
 73
     4
 74
     0
 42
0.0000000001
 43
0.0000000001
 40
0.0
 40
0.0
 40
0.0
 40
0.0
 40
1.0
 40
1.0
 40
1.0
 40
1.0
 10
-37.411300000000004
 20
110.3485
 30
0.0
 10
-37.411300000000004
 20
110.3485
 30
0.0
 10
-67.420900000000003
 20
110.423
 30
0.0
 10
-67.420900000000003
 20
110.423
 30
0.0
  0
SPLINE
  5
2B
100
AcDbEntity
  8
0
370
     5
 62
     1
100
AcDbSpline
210
0.0
220
0.0
230
1.0
 70
     0
 71
     3
 72
     8
 73
     4
 74
     0
 42
0.0000000001
 43
0.0000000001
 40
0.0
 40
0.0
 40
0.0
 40
0.0
 40
1.0
 40
1.0
 40
1.0
 40
1.0
 10
-67.420900000000003
 20
110.423
 30
0.0
 10
-70.302199999999999
 20
110.4302
 30
0.0
 10
-70.292000000000002
 20
114.426
 30
0.0
 10
-67.410300000000007
 20
114.6537
 30
0.0
  0
SPLINE
  5
2C
100
AcDbEntity
  8
0
370
     5
 62
     1
100
AcDbSpline
210
0.0
220
0.0
230
1.0
 70
     0
 71
     3
 72
     8
 73
     4
 74
     0
 42
0.0000000001
 43
0.0000000001
 40
0.0
 40
0.0
 40
0.0
 40
0.0
 40
1.0
 40
1.0
 40
1.0
 40
1.0
 10
-67.410300000000007
 20
114.6537
 30
0.0
 10
-67.410300000000007
 20
114.6537
 30
0.0
 10
-37.064399999999999
 20
114.5784
 30
0.0
 10
-37.064399999999999
 20
114.5784
 30
0.0
  0
SPLINE
  5
2D
100
AcDbEntity
  8
0
370
     5
 62
     1
100
AcDbSpline
210
0.0
220
0.0
230
1.0
 70
     0
 71
     3
 72
     8
 73
     4
 74
     0
 42
0.0000000001
 43
0.0000000001
 40
0.0
 40
0.0
 40
0.0
 40
0.0
 40
1.0
 40
1.0
 40
1.0
 40
1.0
 10
-37.064399999999999
 20
114.5784
 30
0.0
 10
-36.993500000000004
 20
115.85040000000001
 30
0.0
 10
-36.933399999999999
 20
117.1738
 30
0.0
 10
-36.8504
 20
118.53440000000001
 30
0.0
  0
SPLINE
  5
2E
100
AcDbEntity
  8
0
370
     5
 62
     1
100
AcDbSpline
210
0.0
220
0.0
230
1.0
 70
     0
 71
     3
 72
     8
 73
     4
 74
     0
 42
0.0000000001
 43
0.0000000001
 40
0.0
 40
0.0
 40
0.0
 40
0.0
 40
1.0
 40
1.0
 40
1.0
 40
1.0
 10
-36.8504
 20
118.53440000000001
 30
0.0
 10
-35.973700000000001
 20
128.58750000000001
 30
0.0
 10
-35.096800000000002
 20
138.6404
 30
0.0
 10
-34.219700000000003
 20
148.69329999999999
 30
0.0
  0
SPLINE
  5
2F
100
AcDbEntity
  8
0
370
     5
 62
     1
100
AcDbSpline
210
0.0
220
0.0
230
1.0
 70
     0
 71
     3
 72
     8
 73
     4
 74
     0
 42
0.0000000001
 43
0.0000000001
 40
0.0
 40
0.0
 40
0.0
 40
0.0
 40
1.0
 40
1.0
 40
1.0
 40
1.0
 10
-34.219700000000003
 20
148.69329999999999
 30
0.0
 10
-32.490099999999998
 20
155.80870000000002
 30
0.0
 10
-26.037500000000001
 20
158.67789999999999
 30
0.0
 10
-17.145700000000001
 20
159.10850000000002
 30
0.0
  0
SPLINE
  5
30
100
AcDbEntity
  8
0
370
     5
 62
     1
100
AcDbSpline
210
0.0
220
0.0
230
1.0
 70
     0
 71
     3
 72
     8
 73
     4
 74
     0
 42
0.0000000001
 43
0.0000000001
 40
0.0
 40
0.0
 40
0.0
 40
0.0
 40
1.0
 40
1.0
 40
1.0
 40
1.0
 10
-17.145700000000001
 20
159.10850000000002
 30
0.0
 10
24.004000000000001
 20
155.9333
 30
0.0
 10
50.256100000000004
 20
143.25290000000001
 30
0.0
 10
61.1325
 20
113.34620000000001
 30
0.0
  0
SPLINE
  5
31
100
AcDbEntity
  8
0
370
     5
 62
     1
100
AcDbSpline
210
0.0
220
0.0
230
1.0
 70
     0
 71
     3
 72
     8
 73
     4
 74
     0
 42
0.0000000001
 43
0.0000000001
 40
0.0
 40
0.0
 40
0.0
 40
0.0
 40
1.0
 40
1.0
 40
1.0
 40
1.0
 10
61.1325
 20
113.34620000000001
 30
0.0
 10
64.219000000000008
 20
101.60310000000001
 30
0.0
 10
63.116100000000003
 20
96.66040000000001
 30
0.0
 10
44.584800000000001
 20
97.671000000000006
 30
0.0
  0
SPLINE
  5
32
100
AcDbEntity
  8
0
370
     5
 62
     1
100
AcDbSpline
210
0.0
220
0.0
230
1.0
 70
     0
 71
     3
 72
     8
 73
     4
 74
     0
 42
0.0000000001
 43
0.0000000001
 40
0.0
 40
0.0
 40
0.0
 40
0.0
 40
1.0
 40
1.0
 40
1.0
 40
1.0
 10
44.584800000000001
 20
97.671000000000006
 30
0.0
 10
30.204700000000003
 20
98.611400000000003
 30
0.0
 10
17.599299999999999
 20
104.90700000000001
 30
0.0
 10
16.108000000000001
 20
96.4054
 30
0.0
  0
SPLINE
  5
33
100
AcDbEntity
  8
0
370
     5
 62
     1
100
AcDbSpline
210
0.0
220
0.0
230
1.0
 70
     0
 71
     3
 72
     8
 73
     4
 74
     0
 42
0.0000000001
 43
0.0000000001
 40
0.0
 40
0.0
 40
0.0
 40
0.0
 40
1.0
 40
1.0
 40
1.0
 40
1.0
 10
16.108000000000001
 20
96.4054
 30
0.0
 10
15.4961
 20
92.91810000000001
 30
0.0
 10
24.100300000000001
 20
87.951800000000006
 30
0.0
 10
39.813900000000004
 20
85.894400000000005
 30
0.0
  0
SPLINE
  5
34
100
AcDbEntity
  8
0
370
     5
 62
     1
100
AcDbSpline
210
0.0
220
0.0
230
1.0
 70
     0
 71
     3
 72
     8
 73
     4
 74
     0
 42
0.0000000001
 43
0.0000000001
 40
0.0
 40
0.0
 40
0.0
 40
0.0
 40
1.0
 40
1.0
 40
1.0
 40
1.0
 10
39.813900000000004
 20
85.894400000000005
 30
0.0
 10
68.294899999999998
 20
82.74430000000001
 30
0.0
 10
85.985500000000002
 20
88.630200000000002
 30
0.0
 10
82.907000000000011
 20
111.83420000000001
 30
0.0
  0
SPLINE
  5
35
100
AcDbEntity
  8
0
370
     5
 62
     1
100
AcDbSpline
210
0.0
220
0.0
230
1.0
 70
     0
 71
     3
 72
     8
 73
     4
 74
     0
 42
0.0000000001
 43
0.0000000001
 40
0.0
 40
0.0
 40
0.0
 40
0.0
 40
1.0
 40
1.0
 40
1.0
 40
1.0
 10
82.907000000000011
 20
111.83420000000001
 30
0.0
 10
82.907000000000011
 20
111.83420000000001
 30
0.0
 10
79.204900000000009
 20
107.77640000000001
 30
0.0
 10
79.204900000000009
 20
107.77640000000001
 30
0.0
  0
SPLINE
  5
36
100
AcDbEntity
  8
0
370
     5
 62
     1
100
AcDbSpline
210
0.0
220
0.0
230
1.0
 70
     0
 71
     3
 72
     8
 73
     4
 74
     0
 42
0.0000000001
 43
0.0000000001
 40
0.0
 40
0.0
 40
0.0
 40
0.0
 40
1.0
 40
1.0
 40
1.0
 40
1.0
 10
79.204900000000009
 20
107.77640000000001
 30
0.0
 10
77.263800000000003
 20
105.6472
 30
0.0
 10
74.3108
 20
108.3399
 30
0.0
 10
76.078299999999999
 20
110.62660000000001
 30
0.0
  0
SPLINE
  5
37
100
AcDbEntity
  8
0
370
     5
 62
     1
100
AcDbSpline
210
0.0
220
0.0
230
1.0
 70
     0
 71
     3
 72
     8
 73
     4
 74
     0
 42
0.0000000001
 43
0.0000000001
 40
0.0
 40
0.0
 40
0.0
 40
0.0
 40
1.0
 40
1.0
 40
1.0
 40
1.0
 10
76.078299999999999
 20
110.62660000000001
 30
0.0
 10
76.078299999999999
 20
110.62660000000001
 30
0.0
 10
81.93310000000001
 20
117.0445
 30
0.0
 10
81.93310000000001
 20
117.0445
 30
0.0
  0
SPLINE
  5
38
100
AcDbEntity
  8
0
370
     5
 62
     1
100
AcDbSpline
210
0.0
220
0.0
230
1.0
 70
     0
 71
     3
 72
     8
 73
     4
 74
     0
 42
0.0000000001
 43
0.0000000001
 40
0.0
 40
0.0
 40
0.0
 40
0.0
 40
1.0
 40
1.0
 40
1.0
 40
1.0
 10
81.93310000000001
 20
117.0445
 30
0.0
 10
81.499900000000011
 20
118.8768
 30
0.0
 10
80.957800000000006
 20
120.80030000000001
 30
0.0
 10
80.302300000000002
 20
122.81760000000001
 30
0.0
  0
SPLINE
  5
39
100
AcDbEntity
  8
0
370
     5
 62
     1
100
AcDbSpline
210
0.0
220
0.0
230
1.0
 70
     0
 71
     3
 72
     8
 73
     4
 74
     0
 42
0.0000000001
 43
0.0000000001
 40
0.0
 40
0.0
 40
0.0
 40
0.0
 40
1.0
 40
1.0
 40
1.0
 40
1.0
 10
80.302300000000002
 20
122.81760000000001
 30
0.0
 10
79.443700000000007
 20
124.89880000000001
 30
0.0
 10
78.500100000000003
 20
126.89280000000001
 30
0.0
 10
77.481400000000008
 20
128.8296
 30
0.0
  0
SPLINE
  5
3A
100
AcDbEntity
  8
0
370
     5
 62
     1
100
AcDbSpline
210
0.0
220
0.0
230
1.0
 70
     0
 71
     3
 72
     8
 73
     4
 74
     0
 42
0.0000000001
 43
0.0000000001
 40
0.0
 40
0.0
 40
0.0
 40
0.0
 40
1.0
 40
1.0
 40
1.0
 40
1.0
 10
77.481400000000008
 20
128.8296
 30
0.0
 10
77.481400000000008
 20
128.8296
 30
0.0
 10
71.183599999999998
 20
123.74950000000001
 30
0.0
 10
71.183599999999998
 20
123.74950000000001
 30
0.0
  0
SPLINE
  5
3B
100
AcDbEntity
  8
0
370
     5
 62
     1
100
AcDbSpline
210
0.0
220
0.0
230
1.0
 70
     0
 71
     3
 72
     8
 73
     4
 74
     0
 42
0.0000000001
 43
0.0000000001
 40
0.0
 40
0.0
 40
0.0
 40
0.0
 40
1.0
 40
1.0
 40
1.0
 40
1.0
 10
71.183599999999998
 20
123.74950000000001
 30
0.0
 10
68.941500000000005
 20
121.94030000000001
 30
0.0
 10
66.431700000000006
 20
125.0501
 30
0.0
 10
68.526200000000003
 20
127.04170000000001
 30
0.0
  0
SPLINE
  5
3C
100
AcDbEntity
  8
0
370
     5
 62
     1
100
AcDbSpline
210
0.0
220
0.0
230
1.0
 70
     0
 71
     3
 72
     8
 73
     4
 74
     0
 42
0.0000000001
 43
0.0000000001
 40
0.0
 40
0.0
 40
0.0
 40
0.0
 40
1.0
 40
1.0
 40
1.0
 40
1.0
 10
68.526200000000003
 20
127.04170000000001
 30
0.0
 10
68.526200000000003
 20
127.04170000000001
 30
0.0
 10
75.382400000000004
 20
132.57210000000001
 30
0.0
 10
75.382400000000004
 20
132.57210000000001
 30
0.0
  0
SPLINE
  5
3D
100
AcDbEntity
  8
0
370
     5
 62
     1
100
AcDbSpline
210
0.0
220
0.0
230
1.0
 70
     0
 71
     3
 72
     8
 73
     4
 74
     0
 42
0.0000000001
 43
0.0000000001
 40
0.0
 40
0.0
 40
0.0
 40
0.0
 40
1.0
 40
1.0
 40
1.0
 40
1.0
 10
75.382400000000004
 20
132.57210000000001
 30
0.0
 10
74.056200000000004
 20
134.80180000000001
 30
0.0
 10
72.63000000000001
 20
136.97740000000002
 30
0.0
 10
71.117699999999999
 20
139.14750000000001
 30
0.0
  0
SPLINE
  5
3E
100
AcDbEntity
  8
0
370
     5
 62
     1
100
AcDbSpline
210
0.0
220
0.0
230
1.0
 70
     0
 71
     3
 72
     8
 73
     4
 74
     0
 42
0.0000000001
 43
0.0000000001
 40
0.0
 40
0.0
 40
0.0
 40
0.0
 40
1.0
 40
1.0
 40
1.0
 40
1.0
 10
71.117699999999999
 20
139.14750000000001
 30
0.0
 10
69.91940000000001
 20
140.8672
 30
0.0
 10
68.656800000000004
 20
142.53870000000001
 30
0.0
 10
67.330399999999997
 20
144.16130000000001
 30
0.0
  0
SPLINE
  5
3F
100
AcDbEntity
  8
0
370
     5
 62
     1
100
AcDbSpline
210
0.0
220
0.0
230
1.0
 70
     0
 71
     3
 72
     8
 73
     4
 74
     0
 42
0.0000000001
 43
0.0000000001
 40
0.0
 40
0.0
 40
0.0
 40
0.0
 40
1.0
 40
1.0
 40
1.0
 40
1.0
 10
67.330399999999997
 20
144.16130000000001
 30
0.0
 10
67.330399999999997
 20
144.16130000000001
 30
0.0
 10
61.839400000000005
 20
138.36410000000001
 30
0.0
 10
61.839400000000005
 20
138.36410000000001
 30
0.0
  0
SPLINE
  5
40
100
AcDbEntity
  8
0
370
     5
 62
     1
100
AcDbSpline
210
0.0
220
0.0
230
1.0
 70
     0
 71
     3
 72
     8
 73
     4
 74
     0
 42
0.0000000001
 43
0.0000000001
 40
0.0
 40
0.0
 40
0.0
 40
0.0
 40
1.0
 40
1.0
 40
1.0
 40
1.0
 10
61.839400000000005
 20
138.36410000000001
 30
0.0
 10
59.858700000000006
 20
136.27250000000001
 30
0.0
 10
56.956500000000005
 20
139.02030000000002
 30
0.0
 10
58.767000000000003
 20
141.2731
 30
0.0
  0
SPLINE
  5
41
100
AcDbEntity
  8
0
370
     5
 62
     1
100
AcDbSpline
210
0.0
220
0.0
230
1.0
 70
     0
 71
     3
 72
     8
 73
     4
 74
     0
 42
0.0000000001
 43
0.0000000001
 40
0.0
 40
0.0
 40
0.0
 40
0.0
 40
1.0
 40
1.0
 40
1.0
 40
1.0
 10
58.767000000000003
 20
141.2731
 30
0.0
 10
58.767000000000003
 20
141.2731
 30
0.0
 10
64.553899999999999
 20
147.3826
 30
0.0
 10
64.553899999999999
 20
147.3826
 30
0.0
  0
SPLINE
  5
42
100
AcDbEntity
  8
0
370
     5
 62
     1
100
AcDbSpline
210
0.0
220
0.0
230
1.0
 70
     0
 71
     3
 72
     8
 73
     4
 74
     0
 42
0.0000000001
 43
0.0000000001
 40
0.0
 40
0.0
 40
0.0
 40
0.0
 40
1.0
 40
1.0
 40
1.0
 40
1.0
 10
64.553899999999999
 20
147.3826
 30
0.0
 10
61.4148
 20
150.83799999999999
 30
0.0
 10
57.958100000000002
 20
154.04770000000002
 30
0.0
 10
54.1768
 20
156.99880000000002
 30
0.0
  0
SPLINE
  5
43
100
AcDbEntity
  8
0
370
     5
 62
     1
100
AcDbSpline
210
0.0
220
0.0
230
1.0
 70
     0
 71
     3
 72
     8
 73
     4
 74
     0
 42
0.0000000001
 43
0.0000000001
 40
0.0
 40
0.0
 40
0.0
 40
0.0
 40
1.0
 40
1.0
 40
1.0
 40
1.0
 10
54.1768
 20
156.99880000000002
 30
0.0
 10
54.1768
 20
156.99880000000002
 30
0.0
 10
49.829599999999999
 20
150.91570000000002
 30
0.0
 10
49.829599999999999
 20
150.91570000000002
 30
0.0
  0
SPLINE
  5
44
100
AcDbEntity
  8
0
370
     5
 62
     1
100
AcDbSpline
210
0.0
220
0.0
230
1.0
 70
     0
 71
     3
 72
     8
 73
     4
 74
     0
 42
0.0000000001
 43
0.0000000001
 40
0.0
 40
0.0
 40
0.0
 40
0.0
 40
1.0
 40
1.0
 40
1.0
 40
1.0
 10
49.829599999999999
 20
150.91570000000002
 30
0.0
 10
48.155000000000001
 20
148.57210000000001
 30
0.0
 10
44.902900000000002
 20
150.89490000000001
 30
0.0
 10
46.386600000000001
 20
153.375
 30
0.0
  0
SPLINE
  5
45
100
AcDbEntity
  8
0
370
     5
 62
     1
100
AcDbSpline
210
0.0
220
0.0
230
1.0
 70
     0
 71
     3
 72
     8
 73
     4
 74
     0
 42
0.0000000001
 43
0.0000000001
 40
0.0
 40
0.0
 40
0.0
 40
0.0
 40
1.0
 40
1.0
 40
1.0
 40
1.0
 10
46.386600000000001
 20
153.375
 30
0.0
 10
46.386600000000001
 20
153.375
 30
0.0
 10
50.778100000000002
 20
159.52010000000001
 30
0.0
 10
50.778100000000002
 20
159.52010000000001
 30
0.0
  0
SPLINE
  5
46
100
AcDbEntity
  8
0
370
     5
 62
     1
100
AcDbSpline
210
0.0
220
0.0
230
1.0
 70
     0
 71
     3
 72
     8
 73
     4
 74
     0
 42
0.0000000001
 43
0.0000000001
 40
0.0
 40
0.0
 40
0.0
 40
0.0
 40
1.0
 40
1.0
 40
1.0
 40
1.0
 10
50.778100000000002
 20
159.52010000000001
 30
0.0
 10
46.969700000000003
 20
162.20500000000001
 30
0.0
 10
42.862100000000005
 20
164.6491
 30
0.0
 10
38.449100000000001
 20
166.8407
 30
0.0
  0
SPLINE
  5
47
100
AcDbEntity
  8
0
370
     5
 62
     1
100
AcDbSpline
210
0.0
220
0.0
230
1.0
 70
     0
 71
     3
 72
     8
 73
     4
 74
     0
 42
0.0000000001
 43
0.0000000001
 40
0.0
 40
0.0
 40
0.0
 40
0.0
 40
1.0
 40
1.0
 40
1.0
 40
1.0
 10
38.449100000000001
 20
166.8407
 30
0.0
 10
38.449100000000001
 20
166.8407
 30
0.0
 10
35.557200000000002
 20
162.68900000000002
 30
0.0
 10
35.557200000000002
 20
162.68900000000002
 30
0.0
  0
SPLINE
  5
48
100
AcDbEntity
  8
0
370
     5
 62
     1
100
AcDbSpline
210
0.0
220
0.0
230
1.0
 70
     0
 71
     3
 72
     8
 73
     4
 74
     0
 42
0.0000000001
 43
0.0000000001
 40
0.0
 40
0.0
 40
0.0
 40
0.0
 40
1.0
 40
1.0
 40
1.0
 40
1.0
 10
35.557200000000002
 20
162.68900000000002
 30
0.0
 10
33.911200000000001
 20
160.32510000000002
 30
0.0
 10
30.631400000000003
 20
162.6088
 30
0.0
 10
32.084600000000002
 20
165.10680000000002
 30
0.0
  0
SPLINE
  5
49
100
AcDbEntity
  8
0
370
     5
 62
     1
100
AcDbSpline
210
0.0
220
0.0
230
1.0
 70
     0
 71
     3
 72
     8
 73
     4
 74
     0
 42
0.0000000001
 43
0.0000000001
 40
0.0
 40
0.0
 40
0.0
 40
0.0
 40
1.0
 40
1.0
 40
1.0
 40
1.0
 10
32.084600000000002
 20
165.10680000000002
 30
0.0
 10
32.084600000000002
 20
165.10680000000002
 30
0.0
 10
34.565400000000004
 20
168.66820000000001
 30
0.0
 10
34.565400000000004
 20
168.66820000000001
 30
0.0
  0
SPLINE
  5
4A
100
AcDbEntity
  8
0
370
     5
 62
     1
100
AcDbSpline
210
0.0
220
0.0
230
1.0
 70
     0
 71
     3
 72
     8
 73
     4
 74
     0
 42
0.0000000001
 43
0.0000000001
 40
0.0
 40
0.0
 40
0.0
 40
0.0
 40
1.0
 40
1.0
 40
1.0
 40
1.0
 10
34.565400000000004
 20
168.66820000000001
 30
0.0
 10
30.263300000000001
 20
170.58600000000001
 30
0.0
 10
25.693000000000001
 20
172.2801
 30
0.0
 10
20.848700000000001
 20
173.74040000000002
 30
0.0
  0
SPLINE
  5
4B
100
AcDbEntity
  8
0
370
     5
 62
     1
100
AcDbSpline
210
0.0
220
0.0
230
1.0
 70
     0
 71
     3
 72
     8
 73
     4
 74
     0
 42
0.0000000001
 43
0.0000000001
 40
0.0
 40
0.0
 40
0.0
 40
0.0
 40
1.0
 40
1.0
 40
1.0
 40
1.0
 10
20.848700000000001
 20
173.74040000000002
 30
0.0
 10
20.848700000000001
 20
173.74040000000002
 30
0.0
 10
18.3187
 20
167.0735
 30
0.0
 10
18.3187
 20
167.0735
 30
0.0
  0
SPLINE
  5
4C
100
AcDbEntity
  8
0
370
     5
 62
     1
100
AcDbSpline
210
0.0
220
0.0
230
1.0
 70
     0
 71
     3
 72
     8
 73
     4
 74
     0
 42
0.0000000001
 43
0.0000000001
 40
0.0
 40
0.0
 40
0.0
 40
0.0
 40
1.0
 40
1.0
 40
1.0
 40
1.0
 10
18.3187
 20
167.0735
 30
0.0
 10
17.2971
 20
164.38030000000001
 30
0.0
 10
13.560500000000001
 20
165.79770000000002
 30
0.0
 10
14.362
 20
168.57400000000001
 30
0.0
  0
SPLINE
  5
4D
100
AcDbEntity
  8
0
370
     5
 62
     1
100
AcDbSpline
210
0.0
220
0.0
230
1.0
 70
     0
 71
     3
 72
     8
 73
     4
 74
     0
 42
0.0000000001
 43
0.0000000001
 40
0.0
 40
0.0
 40
0.0
 40
0.0
 40
1.0
 40
1.0
 40
1.0
 40
1.0
 10
14.362
 20
168.57400000000001
 30
0.0
 10
14.362
 20
168.57400000000001
 30
0.0
 10
16.7622
 20
174.89940000000001
 30
0.0
 10
16.7622
 20
174.89940000000001
 30
0.0
  0
SPLINE
  5
4E
100
AcDbEntity
  8
0
370
     5
 62
     1
100
AcDbSpline
210
0.0
220
0.0
230
1.0
 70
     0
 71
     3
 72
     8
 73
     4
 74
     0
 42
0.0000000001
 43
0.0000000001
 40
0.0
 40
0.0
 40
0.0
 40
0.0
 40
1.0
 40
1.0
 40
1.0
 40
1.0
 10
16.7622
 20
174.89940000000001
 30
0.0
 10
12.6713
 20
175.9888
 30
0.0
 10
8.3967000000000009
 20
176.92010000000002
 30
0.0
 10
3.9348000000000001
 20
177.68780000000001
 30
0.0
  0
SPLINE
  5
4F
100
AcDbEntity
  8
0
370
     5
 62
     1
100
AcDbSpline
210
0.0
220
0.0
230
1.0
 70
     0
 71
     3
 72
     8
 73
     4
 74
     0
 42
0.0000000001
 43
0.0000000001
 40
0.0
 40
0.0
 40
0.0
 40
0.0
 40
1.0
 40
1.0
 40
1.0
 40
1.0
 10
3.9348000000000001
 20
177.68780000000001
 30
0.0
 10
3.9348000000000001
 20
177.68780000000001
 30
0.0
 10
2.2299000000000002
 20
170.84030000000001
 30
0.0
 10
2.2299000000000002
 20
170.84030000000001
 30
0.0
  0
SPLINE
  5
50
100
AcDbEntity
  8
0
370
     5
 62
     1
100
AcDbSpline
210
0.0
220
0.0
230
1.0
 70
     0
 71
     3
 72
     8
 73
     4
 74
     0
 42
0.0000000001
 43
0.0000000001
 40
0.0
 40
0.0
 40
0.0
 40
0.0
 40
1.0
 40
1.0
 40
1.0
 40
1.0
 10
2.2299000000000002
 20
170.84030000000001
 30
0.0
 10
1.534
 20
168.0454
 30
0.0
 10
-2.3442000000000003
 20
169.01080000000002
 30
0.0
 10
-1.8766
 20
171.86260000000001
 30
0.0
  0
SPLINE
  5
51
100
AcDbEntity
  8
0
370
     5
 62
     1
100
AcDbSpline
210
0.0
220
0.0
230
1.0
 70
     0
 71
     3
 72
     8
 73
     4
 74
     0
 42
0.0000000001
 43
0.0000000001
 40
0.0
 40
0.0
 40
0.0
 40
0.0
 40
1.0
 40
1.0
 40
1.0
 40
1.0
 10
-1.8766
 20
171.86260000000001
 30
0.0
 10
-1.8766
 20
171.86260000000001
 30
0.0
 10
-0.2604
 20
178.3537
 30
0.0
 10
-0.2604
 20
178.3537
 30
0.0
  0
SPLINE
  5
52
100
AcDbEntity
  8
0
370
     5
 62
     1
100
AcDbSpline
210
0.0
220
0.0
230
1.0
 70
     0
 71
     3
 72
     8
 73
     4
 74
     0
 42
0.0000000001
 43
0.0000000001
 40
0.0
 40
0.0
 40
0.0
 40
0.0
 40
1.0
 40
1.0
 40
1.0
 40
1.0
 10
-0.2604
 20
178.3537
 30
0.0
 10
-4.5086000000000004
 20
178.9725
 30
0.0
 10
-8.9176000000000002
 20
179.44920000000002
 30
0.0
 10
-13.491000000000001
 20
179.77930000000001
 30
0.0
  0
SPLINE
  5
53
100
AcDbEntity
  8
0
370
     5
 62
     1
100
AcDbSpline
210
0.0
220
0.0
230
1.0
 70
     0
 71
     3
 72
     8
 73
     4
 74
     0
 42
0.0000000001
 43
0.0000000001
 40
0.0
 40
0.0
 40
0.0
 40
0.0
 40
1.0
 40
1.0
 40
1.0
 40
1.0
 10
-13.491000000000001
 20
179.77930000000001
 30
0.0
 10
-13.491000000000001
 20
179.77930000000001
 30
0.0
 10
-14.199
 20
174.65820000000002
 30
0.0
 10
-14.199
 20
174.65820000000002
 30
0.0
  0
SPLINE
  5
54
100
AcDbEntity
  8
0
370
     5
 62
     1
100
AcDbSpline
210
0.0
220
0.0
230
1.0
 70
     0
 71
     3
 72
     8
 73
     4
 74
     0
 42
0.0000000001
 43
0.0000000001
 40
0.0
 40
0.0
 40
0.0
 40
0.0
 40
1.0
 40
1.0
 40
1.0
 40
1.0
 10
-14.199
 20
174.65820000000002
 30
0.0
 10
-14.593300000000001
 20
171.80460000000002
 30
0.0
 10
-18.552300000000002
 20
172.3519
 30
0.0
 10
-18.391100000000002
 20
175.2372
 30
0.0
  0
SPLINE
  5
55
100
AcDbEntity
  8
0
370
     5
 62
     1
100
AcDbSpline
210
0.0
220
0.0
230
1.0
 70
     0
 71
     3
 72
     8
 73
     4
 74
     0
 42
0.0000000001
 43
0.0000000001
 40
0.0
 40
0.0
 40
0.0
 40
0.0
 40
1.0
 40
1.0
 40
1.0
 40
1.0
 10
-18.391100000000002
 20
175.2372
 30
0.0
 10
-18.391100000000002
 20
175.2372
 30
0.0
 10
-17.726900000000001
 20
180.04130000000001
 30
0.0
 10
-17.726900000000001
 20
180.04130000000001
 30
0.0
  0
SPLINE
  5
56
100
AcDbEntity
  8
0
370
     5
 62
     1
100
AcDbSpline
210
0.0
220
0.0
230
1.0
 70
     0
 71
     3
 72
     8
 73
     4
 74
     0
 42
0.0000000001
 43
0.0000000001
 40
0.0
 40
0.0
 40
0.0
 40
0.0
 40
1.0
 40
1.0
 40
1.0
 40
1.0
 10
-17.726900000000001
 20
180.04130000000001
 30
0.0
 10
-22.072400000000002
 20
180.2654
 30
0.0
 10
-26.558900000000001
 20
180.36190000000002
 30
0.0
 10
-31.189500000000002
 20
180.32740000000001
 30
0.0
  0
SPLINE
  5
57
100
AcDbEntity
  8
0
370
     5
 62
     1
100
AcDbSpline
210
0.0
220
0.0
230
1.0
 70
     0
 71
     3
 72
     8
 73
     4
 74
     0
 42
0.0000000001
 43
0.0000000001
 40
0.0
 40
0.0
 40
0.0
 40
0.0
 40
1.0
 40
1.0
 40
1.0
 40
1.0
 10
-31.189500000000002
 20
180.32740000000001
 30
0.0
 10
-41.857600000000005
 20
179.72050000000002
 30
0.0
 10
-40.670200000000001
 20
191.72740000000002
 30
0.0
 10
-39.593900000000005
 20
196.0607
 30
0.0
  0
SPLINE
  5
58
100
AcDbEntity
  8
0
370
     5
 62
     1
100
AcDbSpline
210
0.0
220
0.0
230
1.0
 70
     0
 71
     3
 72
     8
 73
     4
 74
     0
 42
0.0000000001
 43
0.0000000001
 40
0.0
 40
0.0
 40
0.0
 40
0.0
 40
1.0
 40
1.0
 40
1.0
 40
1.0
 10
-39.593900000000005
 20
196.0607
 30
0.0
 10
-39.560500000000005
 20
198.1936
 30
0.0
 10
-39.795400000000001
 20
200.08090000000001
 30
0.0
 10
-40.279000000000003
 20
201.74180000000001
 30
0.0
  0
SPLINE
  5
59
100
AcDbEntity
  8
0
370
     5
 62
     1
100
AcDbSpline
210
0.0
220
0.0
230
1.0
 70
     0
 71
     3
 72
     8
 73
     4
 74
     0
 42
0.0000000001
 43
0.0000000001
 40
0.0
 40
0.0
 40
0.0
 40
0.0
 40
1.0
 40
1.0
 40
1.0
 40
1.0
 10
-40.279000000000003
 20
201.74180000000001
 30
0.0
 10
-40.279000000000003
 20
201.74180000000001
 30
0.0
 10
-58.963800000000006
 20
198.83770000000001
 30
0.0
 10
-58.963800000000006
 20
198.83770000000001
 30
0.0
  0
SPLINE
  5
5A
100
AcDbEntity
  8
0
370
     5
 62
     1
100
AcDbSpline
210
0.0
220
0.0
230
1.0
 70
     0
 71
     3
 72
     8
 73
     4
 74
     0
 42
0.0000000001
 43
0.0000000001
 40
0.0
 40
0.0
 40
0.0
 40
0.0
 40
1.0
 40
1.0
 40
1.0
 40
1.0
 10
-58.963800000000006
 20
198.83770000000001
 30
0.0
 10
-61.8108
 20
198.39540000000002
 30
0.0
 10
-62.424600000000005
 20
202.34380000000002
 30
0.0
 10
-59.614000000000004
 20
203.01850000000002
 30
0.0
  0
SPLINE
  5
5B
100
AcDbEntity
  8
0
370
     5
 62
     1
100
AcDbSpline
210
0.0
220
0.0
230
1.0
 70
     0
 71
     3
 72
     8
 73
     4
 74
     0
 42
0.0000000001
 43
0.0000000001
 40
0.0
 40
0.0
 40
0.0
 40
0.0
 40
1.0
 40
1.0
 40
1.0
 40
1.0
 10
-59.614000000000004
 20
203.01850000000002
 30
0.0
 10
-59.614000000000004
 20
203.01850000000002
 30
0.0
 10
-42.206099999999999
 20
205.72390000000001
 30
0.0
 10
-42.206099999999999
 20
205.72390000000001
 30
0.0
  0
SPLINE
  5
5C
100
AcDbEntity
  8
0
370
     5
 62
     1
100
AcDbSpline
210
0.0
220
0.0
230
1.0
 70
     0
 71
     3
 72
     8
 73
     4
 74
     0
 42
0.0000000001
 43
0.0000000001
 40
0.0
 40
0.0
 40
0.0
 40
0.0
 40
1.0
 40
1.0
 40
1.0
 40
1.0
 10
-42.206099999999999
 20
205.72390000000001
 30
0.0
 10
-44.749600000000001
 20
209.19760000000002
 30
0.0
 10
-49.062899999999999
 20
211.05770000000001
 30
0.0
 10
-54.767500000000005
 20
211.6489
 30
0.0
  0
SPLINE
  5
5D
100
AcDbEntity
  8
0
370
     5
 62
     1
100
AcDbSpline
210
0.0
220
0.0
230
1.0
 70
     0
 71
     3
 72
     8
 73
     4
 74
     0
 42
0.0000000001
 43
0.0000000001
 40
0.0
 40
0.0
 40
0.0
 40
0.0
 40
1.0
 40
1.0
 40
1.0
 40
1.0
 10
-54.767500000000005
 20
211.6489
 30
0.0
 10
-75.818100000000001
 20
214.31710000000001
 30
0.0
 10
-95.409400000000005
 20
212.6318
 30
0.0
 10
-111.7886
 20
201.36790000000002
 30
0.0
  0
SPLINE
  5
5E
100
AcDbEntity
  8
0
370
     5
 62
     1
100
AcDbSpline
210
0.0
220
0.0
230
1.0
 70
     0
 71
     3
 72
     8
 73
     4
 74
     0
 42
0.0000000001
 43
0.0000000001
 40
0.0
 40
0.0
 40
0.0
 40
0.0
 40
1.0
 40
1.0
 40
1.0
 40
1.0
 10
-111.7886
 20
201.36790000000002
 30
0.0
 10
-116.7437
 20
198.8134
 30
0.0
 10
-119.59830000000001
 20
195.02530000000002
 30
0.0
 10
-120.98570000000001
 20
190.37740000000002
 30
0.0
  0
SPLINE
  5
5F
100
AcDbEntity
  8
0
370
     5
 62
     1
100
AcDbSpline
210
0.0
220
0.0
230
1.0
 70
     0
 71
     3
 72
     8
 73
     4
 74
     0
 42
0.0000000001
 43
0.0000000001
 40
0.0
 40
0.0
 40
0.0
 40
0.0
 40
1.0
 40
1.0
 40
1.0
 40
1.0
 10
-120.98570000000001
 20
190.37740000000002
 30
0.0
 10
-120.98570000000001
 20
190.37740000000002
 30
0.0
 10
-100.0532
 20
191.82330000000002
 30
0.0
 10
-100.0532
 20
191.82330000000002
 30
0.0
  0
SPLINE
  5
60
100
AcDbEntity
  8
0
370
     5
 62
     1
100
AcDbSpline
210
0.0
220
0.0
230
1.0
 70
     0
 71
     3
 72
     8
 73
     4
 74
     0
 42
0.0000000001
 43
0.0000000001
 40
0.0
 40
0.0
 40
0.0
 40
0.0
 40
1.0
 40
1.0
 40
1.0
 40
1.0
 10
-100.0532
 20
191.82330000000002
 30
0.0
 10
-97.178899999999999
 20
192.02180000000001
 30
0.0
 10
-96.903300000000002
 20
188.03530000000001
 30
0.0
 10
-99.761499999999998
 20
187.60230000000001
 30
0.0
  0
SPLINE
  5
61
100
AcDbEntity
  8
0
370
     5
 62
     1
100
AcDbSpline
210
0.0
220
0.0
230
1.0
 70
     0
 71
     3
 72
     8
 73
     4
 74
     0
 42
0.0000000001
 43
0.0000000001
 40
0.0
 40
0.0
 40
0.0
 40
0.0
 40
1.0
 40
1.0
 40
1.0
 40
1.0
 10
-99.761499999999998
 20
187.60230000000001
 30
0.0
 10
-99.761499999999998
 20
187.60230000000001
 30
0.0
 10
-121.84350000000001
 20
186.077
 30
0.0
 10
-121.84350000000001
 20
186.077
 30
0.0
  0
SPLINE
  5
62
100
AcDbEntity
  8
0
370
     5
 62
     1
100
AcDbSpline
210
0.0
220
0.0
230
1.0
 70
     0
 71
     3
 72
     8
 73
     4
 74
     0
 42
0.0000000001
 43
0.0000000001
 40
0.0
 40
0.0
 40
0.0
 40
0.0
 40
1.0
 40
1.0
 40
1.0
 40
1.0
 10
-121.84350000000001
 20
186.077
 30
0.0
 10
-122.1447
 20
183.4239
 30
0.0
 10
-122.10220000000001
 20
180.5686
 30
0.0
 10
-121.8027
 20
177.56270000000001
 30
0.0
  0
SPLINE
  5
63
100
AcDbEntity
  8
0
370
     5
 62
     1
100
AcDbSpline
210
0.0
220
0.0
230
1.0
 70
     0
 71
     3
 72
     8
 73
     4
 74
     0
 42
0.0000000001
 43
0.0000000001
 40
0.0
 40
0.0
 40
0.0
 40
0.0
 40
1.0
 40
1.0
 40
1.0
 40
1.0
 10
-121.8027
 20
177.56270000000001
 30
0.0
 10
-122.13730000000001
 20
174.2089
 30
0.0
 10
-122.47200000000001
 20
170.8552
 30
0.0
 10
-122.8066
 20
167.5018
 30
0.0
  0
SPLINE
  5
64
100
AcDbEntity
  8
0
370
     5
 62
     1
100
AcDbSpline
210
0.0
220
0.0
230
1.0
 70
     0
 71
     3
 72
     8
 73
     4
 74
     0
 42
0.0000000001
 43
0.0000000001
 40
0.0
 40
0.0
 40
0.0
 40
0.0
 40
1.0
 40
1.0
 40
1.0
 40
1.0
 10
-122.8066
 20
167.5018
 30
0.0
 10
-122.8066
 20
167.5018
 30
0.0
 10
-102.5693
 20
166.6336
 30
0.0
 10
-102.5693
 20
166.6336
 30
0.0
  0
SPLINE
  5
65
100
AcDbEntity
  8
0
370
     5
 62
     1
100
AcDbSpline
210
0.0
220
0.0
230
1.0
 70
     0
 71
     3
 72
     8
 73
     4
 74
     0
 42
0.0000000001
 43
0.0000000001
 40
0.0
 40
0.0
 40
0.0
 40
0.0
 40
1.0
 40
1.0
 40
1.0
 40
1.0
 10
-102.5693
 20
166.6336
 30
0.0
 10
-99.691000000000003
 20
166.51000000000002
 30
0.0
 10
-99.862500000000011
 20
162.51779999999999
 30
0.0
 10
-102.75110000000001
 20
162.4067
 30
0.0
  0
SPLINE
  5
66
100
AcDbEntity
  8
0
370
     5
 62
     1
100
AcDbSpline
210
0.0
220
0.0
230
1.0
 70
     0
 71
     3
 72
     8
 73
     4
 74
     0
 42
0.0000000001
 43
0.0000000001
 40
0.0
 40
0.0
 40
0.0
 40
0.0
 40
1.0
 40
1.0
 40
1.0
 40
1.0
 10
-102.75110000000001
 20
162.4067
 30
0.0
 10
-118.0886
 20
163.1585
 30
0.0
 10
-133.42430000000002
 20
163.9408
 30
0.0
 10
-148.76150000000001
 20
164.6747
 30
0.0
  0
SPLINE
  5
67
100
AcDbEntity
  8
0
370
     5
 62
     1
100
AcDbSpline
210
0.0
220
0.0
230
1.0
 70
     0
 71
     3
 72
     8
 73
     4
 74
     0
 42
0.0000000001
 43
0.0000000001
 40
0.0
 40
0.0
 40
0.0
 40
0.0
 40
1.0
 40
1.0
 40
1.0
 40
1.0
 10
-148.76150000000001
 20
164.6747
 30
0.0
 10
-148.76150000000001
 20
164.6747
 30
0.0
 10
-148.95959999999999
 20
145.9513
 30
0.0
 10
-148.95959999999999
 20
145.9513
 30
0.0
  0
SPLINE
  5
68
100
AcDbEntity
  8
0
370
     5
 62
     1
100
AcDbSpline
210
0.0
220
0.0
230
1.0
 70
     0
 71
     3
 72
     8
 73
     4
 74
     0
 42
0.0000000001
 43
0.0000000001
 40
0.0
 40
0.0
 40
0.0
 40
0.0
 40
1.0
 40
1.0
 40
1.0
 40
1.0
 10
-148.95959999999999
 20
145.9513
 30
0.0
 10
-149.22499999999999
 20
143.0736
 30
0.0
 10
-153.22130000000001
 20
143.1155
 30
0.0
 10
-153.19060000000002
 20
145.99620000000002
 30
0.0
  0
SPLINE
  5
69
100
AcDbEntity
  8
0
370
     5
 62
     1
100
AcDbSpline
210
0.0
220
0.0
230
1.0
 70
     0
 71
     3
 72
     8
 73
     4
 74
     0
 42
0.0000000001
 43
0.0000000001
 40
0.0
 40
0.0
 40
0.0
 40
0.0
 40
1.0
 40
1.0
 40
1.0
 40
1.0
 10
-153.19060000000002
 20
145.99620000000002
 30
0.0
 10
-153.19060000000002
 20
145.99620000000002
 30
0.0
 10
-152.99100000000001
 20
164.87569999999999
 30
0.0
 10
-152.99100000000001
 20
164.87569999999999
 30
0.0
  0
SPLINE
  5
6A
100
AcDbEntity
  8
0
370
     5
 62
     1
100
AcDbSpline
210
0.0
220
0.0
230
1.0
 70
     0
 71
     3
 72
     8
 73
     4
 74
     0
 42
0.0000000001
 43
0.0000000001
 40
0.0
 40
0.0
 40
0.0
 40
0.0
 40
1.0
 40
1.0
 40
1.0
 40
1.0
 10
-152.99100000000001
 20
164.87569999999999
 30
0.0
 10
-160.93000000000001
 20
165.25069999999999
 30
0.0
 10
-168.87010000000001
 20
165.61080000000001
 30
0.0
 10
-176.8108
 20
165.94500000000002
 30
0.0
  0
SPLINE
  5
6B
100
AcDbEntity
  8
0
370
     5
 62
     1
100
AcDbSpline
210
0.0
220
0.0
230
1.0
 70
     0
 71
     3
 72
     8
 73
     4
 74
     0
 42
0.0000000001
 43
0.0000000001
 40
0.0
 40
0.0
 40
0.0
 40
0.0
 40
1.0
 40
1.0
 40
1.0
 40
1.0
 10
-176.8108
 20
165.94500000000002
 30
0.0
 10
-179.48990000000001
 20
164.8237
 30
0.0
 10
-184.08090000000001
 20
165.41130000000001
 30
0.0
 10
-185.48510000000002
 20
163.15300000000002
 30
0.0
  0
SPLINE
  5
6C
100
AcDbEntity
  8
0
370
     5
 62
     1
100
AcDbSpline
210
0.0
220
0.0
230
1.0
 70
     0
 71
     3
 72
     8
 73
     4
 74
     0
 42
0.0000000001
 43
0.0000000001
 40
0.0
 40
0.0
 40
0.0
 40
0.0
 40
1.0
 40
1.0
 40
1.0
 40
1.0
 10
-185.48510000000002
 20
163.15300000000002
 30
0.0
 10
-185.78730000000002
 20
162.202
 30
0.0
 10
-186.0385
 20
161.17400000000001
 30
0.0
 10
-186.26230000000001
 20
160.10060000000001
 30
0.0
  0
SPLINE
  5
6D
100
AcDbEntity
  8
0
370
     5
 62
     1
100
AcDbSpline
210
0.0
220
0.0
230
1.0
 70
     0
 71
     3
 72
     8
 73
     4
 74
     0
 42
0.0000000001
 43
0.0000000001
 40
0.0
 40
0.0
 40
0.0
 40
0.0
 40
1.0
 40
1.0
 40
1.0
 40
1.0
 10
-186.26230000000001
 20
160.10060000000001
 30
0.0
 10
-186.26230000000001
 20
160.10060000000001
 30
0.0
 10
-172.9169
 20
158.1876
 30
0.0
 10
-172.9169
 20
158.1876
 30
0.0
  0
SPLINE
  5
6E
100
AcDbEntity
  8
0
370
     5
 62
     1
100
AcDbSpline
210
0.0
220
0.0
230
1.0
 70
     0
 71
     3
 72
     8
 73
     4
 74
     0
 42
0.0000000001
 43
0.0000000001
 40
0.0
 40
0.0
 40
0.0
 40
0.0
 40
1.0
 40
1.0
 40
1.0
 40
1.0
 10
-172.9169
 20
158.1876
 30
0.0
 10
-170.06470000000002
 20
157.779
 30
0.0
 10
-170.63210000000001
 20
153.82340000000002
 30
0.0
 10
-173.51760000000002
 20
153.99970000000002
 30
0.0
  0
SPLINE
  5
6F
100
AcDbEntity
  8
0
370
     5
 62
     1
100
AcDbSpline
210
0.0
220
0.0
230
1.0
 70
     0
 71
     3
 72
     8
 73
     4
 74
     0
 42
0.0000000001
 43
0.0000000001
 40
0.0
 40
0.0
 40
0.0
 40
0.0
 40
1.0
 40
1.0
 40
1.0
 40
1.0
 10
-173.51760000000002
 20
153.99970000000002
 30
0.0
 10
-173.51760000000002
 20
153.99970000000002
 30
0.0
 10
-187.01220000000001
 20
155.9342
 30
0.0
 10
-187.01220000000001
 20
155.9342
 30
0.0
  0
SPLINE
  5
70
100
AcDbEntity
  8
0
370
     5
 62
     1
100
AcDbSpline
210
0.0
220
0.0
230
1.0
 70
     0
 71
     3
 72
     8
 73
     4
 74
     0
 42
0.0000000001
 43
0.0000000001
 40
0.0
 40
0.0
 40
0.0
 40
0.0
 40
1.0
 40
1.0
 40
1.0
 40
1.0
 10
-187.01220000000001
 20
155.9342
 30
0.0
 10
-188.09390000000002
 20
149.42740000000001
 30
0.0
 10
-189.1909
 20
142.68200000000002
 30
0.0
 10
-194.5316
 20
141.45650000000001
 30
0.0
  0
SPLINE
  5
71
100
AcDbEntity
  8
0
370
     5
 62
     1
100
AcDbSpline
210
0.0
220
0.0
230
1.0
 70
     0
 71
     3
 72
     8
 73
     4
 74
     0
 42
0.0000000001
 43
0.0000000001
 40
0.0
 40
0.0
 40
0.0
 40
0.0
 40
1.0
 40
1.0
 40
1.0
 40
1.0
 10
-194.5316
 20
141.45650000000001
 30
0.0
 10
-197.58440000000002
 20
137.54390000000001
 30
0.0
 10
-198.37910000000002
 20
134.5932
 30
0.0
 10
-194.72930000000002
 20
132.01689999999999
 30
0.0
  0
SPLINE
  5
72
100
AcDbEntity
  8
0
370
     5
 62
     1
100
AcDbSpline
210
0.0
220
0.0
230
1.0
 70
     0
 71
     3
 72
     8
 73
     4
 74
     0
 42
0.0000000001
 43
0.0000000001
 40
0.0
 40
0.0
 40
0.0
 40
0.0
 40
1.0
 40
1.0
 40
1.0
 40
1.0
 10
-194.72930000000002
 20
132.01689999999999
 30
0.0
 10
-194.72930000000002
 20
132.01689999999999
 30
0.0
 10
-189.25720000000001
 20
135.02950000000001
 30
0.0
 10
-189.25720000000001
 20
135.02950000000001
 30
0.0
  0
SPLINE
  5
73
100
AcDbEntity
  8
0
370
     5
 62
     1
100
AcDbSpline
210
0.0
220
0.0
230
1.0
 70
     0
 71
     3
 72
     8
 73
     4
 74
     0
 42
0.0000000001
 43
0.0000000001
 40
0.0
 40
0.0
 40
0.0
 40
0.0
 40
1.0
 40
1.0
 40
1.0
 40
1.0
 10
-189.25720000000001
 20
135.02950000000001
 30
0.0
 10
-186.62020000000001
 20
136.2131
 30
0.0
 10
-184.69220000000001
 20
132.7131
 30
0.0
 10
-187.21620000000001
 20
131.3236
 30
0.0
  0
SPLINE
  5
74
100
AcDbEntity
  8
0
370
     5
 62
     1
100
AcDbSpline
210
0.0
220
0.0
230
1.0
 70
     0
 71
     3
 72
     8
 73
     4
 74
     0
 42
0.0000000001
 43
0.0000000001
 40
0.0
 40
0.0
 40
0.0
 40
0.0
 40
1.0
 40
1.0
 40
1.0
 40
1.0
 10
-187.21620000000001
 20
131.3236
 30
0.0
 10
-187.21620000000001
 20
131.3236
 30
0.0
 10
-195.548
 20
126.73660000000001
 30
0.0
 10
-195.548
 20
126.73660000000001
 30
0.0
  0
SPLINE
  5
75
100
AcDbEntity
  8
0
370
     5
 62
     1
100
AcDbSpline
210
0.0
220
0.0
230
1.0
 70
     0
 71
     3
 72
     8
 73
     4
 74
     0
 42
0.0000000001
 43
0.0000000001
 40
0.0
 40
0.0
 40
0.0
 40
0.0
 40
1.0
 40
1.0
 40
1.0
 40
1.0
 10
-195.548
 20
126.73660000000001
 30
0.0
 10
-192.3416
 20
119.5455
 30
0.0
 10
-188.25630000000001
 20
115.60000000000001
 30
0.0
 10
-183.29250000000002
 20
114.90020000000001
 30
0.0
  0
SPLINE
  5
76
100
AcDbEntity
  8
0
370
     5
 62
     1
100
AcDbSpline
210
0.0
220
0.0
230
1.0
 70
     0
 71
     3
 72
     8
 73
     4
 74
     0
 42
0.0000000001
 43
0.0000000001
 40
0.0
 40
0.0
 40
0.0
 40
0.0
 40
1.0
 40
1.0
 40
1.0
 40
1.0
 10
-183.29250000000002
 20
114.90020000000001
 30
0.0
 10
-183.29250000000002
 20
114.90020000000001
 30
0.0
 10
-177.04420000000002
 20
129.6369
 30
0.0
 10
-177.04420000000002
 20
129.6369
 30
0.0
  0
SPLINE
  5
77
100
AcDbEntity
  8
0
370
     5
 62
     1
100
AcDbSpline
210
0.0
220
0.0
230
1.0
 70
     0
 71
     3
 72
     8
 73
     4
 74
     0
 42
0.0000000001
 43
0.0000000001
 40
0.0
 40
0.0
 40
0.0
 40
0.0
 40
1.0
 40
1.0
 40
1.0
 40
1.0
 10
-177.04420000000002
 20
129.6369
 30
0.0
 10
-175.70400000000001
 20
132.19720000000001
 30
0.0
 10
-172.02370000000002
 20
130.6387
 30
0.0
 10
-173.14850000000001
 20
127.9859
 30
0.0
  0
SPLINE
  5
78
100
AcDbEntity
  8
0
370
     5
 62
     1
100
AcDbSpline
210
0.0
220
0.0
230
1.0
 70
     0
 71
     3
 72
     8
 73
     4
 74
     0
 42
0.0000000001
 43
0.0000000001
 40
0.0
 40
0.0
 40
0.0
 40
0.0
 40
1.0
 40
1.0
 40
1.0
 40
1.0
 10
-173.14850000000001
 20
127.9859
 30
0.0
 10
-174.15550000000002
 20
125.66940000000001
 30
0.0
 10
-182.38130000000001
 20
104.31910000000001
 30
0.0
 10
-183.63290000000001
 20
101.458
 30
0.0
  0
SPLINE
  5
79
100
AcDbEntity
  8
0
370
     5
 62
     1
100
AcDbSpline
210
0.0
220
0.0
230
1.0
 70
     0
 71
     3
 72
     8
 73
     4
 74
     0
 42
0.0000000001
 43
0.0000000001
 40
0.0
 40
0.0
 40
0.0
 40
0.0
 40
1.0
 40
1.0
 40
1.0
 40
1.0
 10
-183.63290000000001
 20
101.458
 30
0.0
 10
-189.9008
 20
85.1965
 30
0.0
 10
-178.16160000000002
 20
85.855000000000004
 30
0.0
 10
-167.62870000000001
 20
85.882900000000006
 30
0.0
  0
SPLINE
  5
7A
100
AcDbEntity
  8
0
370
     5
 62
     1
100
AcDbSpline
210
0.0
220
0.0
230
1.0
 70
     0
 71
     3
 72
     8
 73
     4
 74
     0
 42
0.0000000001
 43
0.0000000001
 40
0.0
 40
0.0
 40
0.0
 40
0.0
 40
1.0
 40
1.0
 40
1.0
 40
1.0
 10
-167.62870000000001
 20
85.882900000000006
 30
0.0
 10
-161.71860000000001
 20
86.779700000000005
 30
0.0
 10
-162.5856
 20
94.798900000000003
 30
0.0
 10
-170.86260000000001
 20
95.862200000000001
 30
0.0
  0
SPLINE
  5
7B
100
AcDbEntity
  8
0
370
     5
 62
     1
100
AcDbSpline
210
0.0
220
0.0
230
1.0
 70
     0
 71
     3
 72
     8
 73
     4
 74
     0
 42
0.0000000001
 43
0.0000000001
 40
0.0
 40
0.0
 40
0.0
 40
0.0
 40
1.0
 40
1.0
 40
1.0
 40
1.0
 10
-170.86260000000001
 20
95.862200000000001
 30
0.0
 10
-175.22380000000001
 20
96.779700000000005
 30
0.0
 10
-175.85070000000002
 20
99.325800000000001
 30
0.0
 10
-172.01439999999999
 20
103.29830000000001
 30
0.0
  0
SPLINE
  5
7C
100
AcDbEntity
  8
0
370
     5
 62
     1
100
AcDbSpline
210
0.0
220
0.0
230
1.0
 70
     0
 71
     3
 72
     8
 73
     4
 74
     0
 42
0.0000000001
 43
0.0000000001
 40
0.0
 40
0.0
 40
0.0
 40
0.0
 40
1.0
 40
1.0
 40
1.0
 40
1.0
 10
-172.01439999999999
 20
103.29830000000001
 30
0.0
 10
-166.00450000000001
 20
116.711
 30
0.0
 10
-150.7371
 20
105.85080000000001
 30
0.0
 10
-141.98410000000001
 20
122.08120000000001
 30
0.0
  0
SPLINE
  5
7D
100
AcDbEntity
  8
0
370
     5
 62
     1
100
AcDbSpline
210
0.0
220
0.0
230
1.0
 70
     0
 71
     3
 72
     8
 73
     4
 74
     0
 42
0.0000000001
 43
0.0000000001
 40
0.0
 40
0.0
 40
0.0
 40
0.0
 40
1.0
 40
1.0
 40
1.0
 40
1.0
 10
-141.98410000000001
 20
122.08120000000001
 30
0.0
 10
-139.02979999999999
 20
127.1611
 30
0.0
 10
-137.4855
 20
133.71209999999999
 30
0.0
 10
-130.71190000000001
 20
134.46010000000001
 30
0.0
  0
SPLINE
  5
7E
100
AcDbEntity
  8
0
370
     5
 62
     1
100
AcDbSpline
210
0.0
220
0.0
230
1.0
 70
     0
 71
     3
 72
     8
 73
     4
 74
     0
 42
0.0000000001
 43
0.0000000001
 40
0.0
 40
0.0
 40
0.0
 40
0.0
 40
1.0
 40
1.0
 40
1.0
 40
1.0
 10
-66.876100000000008
 20
-193.81530000000001
 30
0.0
 10
-71.866600000000005
 20
-191.92520000000002
 30
0.0
 10
-75.397800000000004
 20
-189.88320000000002
 30
0.0
 10
-77.74730000000001
 20
-187.7183
 30
0.0
  0
SPLINE
  5
7F
100
AcDbEntity
  8
0
370
     5
 62
     1
100
AcDbSpline
210
0.0
220
0.0
230
1.0
 70
     0
 71
     3
 72
     8
 73
     4
 74
     0
 42
0.0000000001
 43
0.0000000001
 40
0.0
 40
0.0
 40
0.0
 40
0.0
 40
1.0
 40
1.0
 40
1.0
 40
1.0
 10
-77.74730000000001
 20
-187.7183
 30
0.0
 10
-77.74730000000001
 20
-187.7183
 30
0.0
 10
-68.211700000000008
 20
-176.7089
 30
0.0
 10
-68.211700000000008
 20
-176.7089
 30
0.0
  0
SPLINE
  5
80
100
AcDbEntity
  8
0
370
     5
 62
     1
100
AcDbSpline
210
0.0
220
0.0
230
1.0
 70
     0
 71
     3
 72
     8
 73
     4
 74
     0
 42
0.0000000001
 43
0.0000000001
 40
0.0
 40
0.0
 40
0.0
 40
0.0
 40
1.0
 40
1.0
 40
1.0
 40
1.0
 10
-68.211700000000008
 20
-176.7089
 30
0.0
 10
-66.752300000000005
 20
-174.8458
 30
0.0
 10
-69.881399999999999
 20
-172.1729
 30
0.0
 10
-71.409100000000009
 20
-173.9374
 30
0.0
  0
SPLINE
  5
81
100
AcDbEntity
  8
0
370
     5
 62
     1
100
AcDbSpline
210
0.0
220
0.0
230
1.0
 70
     0
 71
     3
 72
     8
 73
     4
 74
     0
 42
0.0000000001
 43
0.0000000001
 40
0.0
 40
0.0
 40
0.0
 40
0.0
 40
1.0
 40
1.0
 40
1.0
 40
1.0
 10
-71.409100000000009
 20
-173.9374
 30
0.0
 10
-71.409100000000009
 20
-173.9374
 30
0.0
 10
-80.43180000000001
 20
-184.35550000000001
 30
0.0
 10
-80.43180000000001
 20
-184.35550000000001
 30
0.0
  0
SPLINE
  5
82
100
AcDbEntity
  8
0
370
     5
 62
     1
100
AcDbSpline
210
0.0
220
0.0
230
1.0
 70
     0
 71
     3
 72
     8
 73
     4
 74
     0
 42
0.0000000001
 43
0.0000000001
 40
0.0
 40
0.0
 40
0.0
 40
0.0
 40
1.0
 40
1.0
 40
1.0
 40
1.0
 10
-80.43180000000001
 20
-184.35550000000001
 30
0.0
 10
-83.334900000000005
 20
-178.9418
 30
0.0
 10
-80.334400000000002
 20
-172.91380000000001
 30
0.0
 10
-75.038899999999998
 20
-166.64690000000002
 30
0.0
  0
SPLINE
  5
83
100
AcDbEntity
  8
0
370
     5
 62
     1
100
AcDbSpline
210
0.0
220
0.0
230
1.0
 70
     0
 71
     3
 72
     8
 73
     4
 74
     0
 42
0.0000000001
 43
0.0000000001
 40
0.0
 40
0.0
 40
0.0
 40
0.0
 40
1.0
 40
1.0
 40
1.0
 40
1.0
 10
-75.038899999999998
 20
-166.64690000000002
 30
0.0
 10
-66.531900000000007
 20
-155.05500000000001
 30
0.0
 10
-57.3354
 20
-144.8929
 30
0.0
 10
-47.449600000000004
 20
-136.16
 30
0.0
  0
SPLINE
  5
84
100
AcDbEntity
  8
0
370
     5
 62
     1
100
AcDbSpline
210
0.0
220
0.0
230
1.0
 70
     0
 71
     3
 72
     8
 73
     4
 74
     0
 42
0.0000000001
 43
0.0000000001
 40
0.0
 40
0.0
 40
0.0
 40
0.0
 40
1.0
 40
1.0
 40
1.0
 40
1.0
 10
-47.449600000000004
 20
-136.16
 30
0.0
 10
-38.380600000000001
 20
-129.52510000000001
 30
0.0
 10
-31.1431
 20
-132.20330000000001
 30
0.0
 10
-24.933600000000002
 20
-140.10580000000002
 30
0.0
  0
SPLINE
  5
85
100
AcDbEntity
  8
0
370
     5
 62
     1
100
AcDbSpline
210
0.0
220
0.0
230
1.0
 70
     0
 71
     3
 72
     8
 73
     4
 74
     0
 42
0.0000000001
 43
0.0000000001
 40
0.0
 40
0.0
 40
0.0
 40
0.0
 40
1.0
 40
1.0
 40
1.0
 40
1.0
 10
-24.933600000000002
 20
-140.10580000000002
 30
0.0
 10
-12.956200000000001
 20
-156.24160000000001
 30
0.0
 10
-13.369
 20
-171.77250000000001
 30
0.0
 10
-26.171000000000003
 20
-186.69890000000001
 30
0.0
  0
SPLINE
  5
86
100
AcDbEntity
  8
0
370
     5
 62
     1
100
AcDbSpline
210
0.0
220
0.0
230
1.0
 70
     0
 71
     3
 72
     8
 73
     4
 74
     0
 42
0.0000000001
 43
0.0000000001
 40
0.0
 40
0.0
 40
0.0
 40
0.0
 40
1.0
 40
1.0
 40
1.0
 40
1.0
 10
-26.171000000000003
 20
-186.69890000000001
 30
0.0
 10
-37.765000000000001
 20
-197.69050000000001
 30
0.0
 10
-51.453200000000002
 20
-199.5401
 30
0.0
 10
-66.876100000000008
 20
-193.81530000000001
 30
0.0
  0
SPLINE
  5
87
100
AcDbEntity
  8
0
370
     5
 62
     1
100
AcDbSpline
210
0.0
220
0.0
230
1.0
 70
     0
 71
     3
 72
     8
 73
     4
 74
     0
 42
0.0000000001
 43
0.0000000001
 40
0.0
 40
0.0
 40
0.0
 40
0.0
 40
1.0
 40
1.0
 40
1.0
 40
1.0
 10
-53.786500000000004
 20
-189.3537
 30
0.0
 10
-65.804100000000005
 20
-187.13060000000002
 30
0.0
 10
-67.37830000000001
 20
-183.89500000000001
 30
0.0
 10
-61.055700000000002
 20
-174.09030000000001
 30
0.0
  0
SPLINE
  5
88
100
AcDbEntity
  8
0
370
     5
 62
     1
100
AcDbSpline
210
0.0
220
0.0
230
1.0
 70
     0
 71
     3
 72
     8
 73
     4
 74
     0
 42
0.0000000001
 43
0.0000000001
 40
0.0
 40
0.0
 40
0.0
 40
0.0
 40
1.0
 40
1.0
 40
1.0
 40
1.0
 10
-61.055700000000002
 20
-174.09030000000001
 30
0.0
 10
-55.407500000000006
 20
-165.52209999999999
 30
0.0
 10
-48.449000000000005
 20
-157.96640000000002
 30
0.0
 10
-40.180199999999999
 20
-151.42310000000001
 30
0.0
  0
SPLINE
  5
89
100
AcDbEntity
  8
0
370
     5
 62
     1
100
AcDbSpline
210
0.0
220
0.0
230
1.0
 70
     0
 71
     3
 72
     8
 73
     4
 74
     0
 42
0.0000000001
 43
0.0000000001
 40
0.0
 40
0.0
 40
0.0
 40
0.0
 40
1.0
 40
1.0
 40
1.0
 40
1.0
 10
-40.180199999999999
 20
-151.42310000000001
 30
0.0
 10
-31.126000000000001
 20
-145.4127
 30
0.0
 10
-25.841700000000003
 20
-148.1515
 30
0.0
 10
-24.326800000000002
 20
-159.63930000000002
 30
0.0
  0
SPLINE
  5
8A
100
AcDbEntity
  8
0
370
     5
 62
     1
100
AcDbSpline
210
0.0
220
0.0
230
1.0
 70
     0
 71
     3
 72
     8
 73
     4
 74
     0
 42
0.0000000001
 43
0.0000000001
 40
0.0
 40
0.0
 40
0.0
 40
0.0
 40
1.0
 40
1.0
 40
1.0
 40
1.0
 10
-24.326800000000002
 20
-159.63930000000002
 30
0.0
 10
-21.7074
 20
-178.03290000000001
 30
0.0
 10
-37.433199999999999
 20
-191.3827
 30
0.0
 10
-53.786500000000004
 20
-189.3537
 30
0.0
  0
SPLINE
  5
8B
100
AcDbEntity
  8
0
370
     5
 62
     1
100
AcDbSpline
210
0.0
220
0.0
230
1.0
 70
     0
 71
     3
 72
     8
 73
     4
 74
     0
 42
0.0000000001
 43
0.0000000001
 40
0.0
 40
0.0
 40
0.0
 40
0.0
 40
1.0
 40
1.0
 40
1.0
 40
1.0
 10
149.4727
 20
180.42350000000002
 30
0.0
 10
150.93100000000001
 20
181.25470000000001
 30
0.0
 10
152.3817
 20
181.76070000000001
 30
0.0
 10
153.82689999999999
 20
182.00320000000002
 30
0.0
  0
SPLINE
  5
8C
100
AcDbEntity
  8
0
370
     5
 62
     1
100
AcDbSpline
210
0.0
220
0.0
230
1.0
 70
     0
 71
     3
 72
     8
 73
     4
 74
     0
 42
0.0000000001
 43
0.0000000001
 40
0.0
 40
0.0
 40
0.0
 40
0.0
 40
1.0
 40
1.0
 40
1.0
 40
1.0
 10
153.82689999999999
 20
182.00320000000002
 30
0.0
 10
153.82689999999999
 20
182.00320000000002
 30
0.0
 10
153.08629999999999
 20
144.83790000000002
 30
0.0
 10
153.08629999999999
 20
144.83790000000002
 30
0.0
  0
SPLINE
  5
8D
100
AcDbEntity
  8
0
370
     5
 62
     1
100
AcDbSpline
210
0.0
220
0.0
230
1.0
 70
     0
 71
     3
 72
     8
 73
     4
 74
     0
 42
0.0000000001
 43
0.0000000001
 40
0.0
 40
0.0
 40
0.0
 40
0.0
 40
1.0
 40
1.0
 40
1.0
 40
1.0
 10
153.08629999999999
 20
144.83790000000002
 30
0.0
 10
153.15600000000001
 20
142.4725
 30
0.0
 10
157.27120000000002
 20
142.41980000000001
 30
0.0
 10
157.31730000000002
 20
144.75280000000001
 30
0.0
  0
SPLINE
  5
8E
100
AcDbEntity
  8
0
370
     5
 62
     1
100
AcDbSpline
210
0.0
220
0.0
230
1.0
 70
     0
 71
     3
 72
     8
 73
     4
 74
     0
 42
0.0000000001
 43
0.0000000001
 40
0.0
 40
0.0
 40
0.0
 40
0.0
 40
1.0
 40
1.0
 40
1.0
 40
1.0
 10
157.31730000000002
 20
144.75280000000001
 30
0.0
 10
157.31730000000002
 20
144.75280000000001
 30
0.0
 10
158.0598
 20
182.0112
 30
0.0
 10
158.0598
 20
182.0112
 30
0.0
  0
SPLINE
  5
8F
100
AcDbEntity
  8
0
370
     5
 62
     1
100
AcDbSpline
210
0.0
220
0.0
230
1.0
 70
     0
 71
     3
 72
     8
 73
     4
 74
     0
 42
0.0000000001
 43
0.0000000001
 40
0.0
 40
0.0
 40
0.0
 40
0.0
 40
1.0
 40
1.0
 40
1.0
 40
1.0
 10
158.0598
 20
182.0112
 30
0.0
 10
159.41500000000002
 20
181.80620000000002
 30
0.0
 10
160.76600000000002
 20
181.4187
 30
0.0
 10
162.11410000000001
 20
180.89920000000001
 30
0.0
  0
SPLINE
  5
90
100
AcDbEntity
  8
0
370
     5
 62
     1
100
AcDbSpline
210
0.0
220
0.0
230
1.0
 70
     0
 71
     3
 72
     8
 73
     4
 74
     0
 42
0.0000000001
 43
0.0000000001
 40
0.0
 40
0.0
 40
0.0
 40
0.0
 40
1.0
 40
1.0
 40
1.0
 40
1.0
 10
162.11410000000001
 20
180.89920000000001
 30
0.0
 10
167.91750000000002
 20
178.3451
 30
0.0
 10
173.709
 20
180.28130000000002
 30
0.0
 10
178.36350000000002
 20
184.5778
 30
0.0
  0
SPLINE
  5
91
100
AcDbEntity
  8
0
370
     5
 62
     1
100
AcDbSpline
210
0.0
220
0.0
230
1.0
 70
     0
 71
     3
 72
     8
 73
     4
 74
     0
 42
0.0000000001
 43
0.0000000001
 40
0.0
 40
0.0
 40
0.0
 40
0.0
 40
1.0
 40
1.0
 40
1.0
 40
1.0
 10
178.36350000000002
 20
184.5778
 30
0.0
 10
182.0557
 20
185.99940000000001
 30
0.0
 10
185.0521
 20
185.85760000000002
 30
0.0
 10
187.28100000000001
 20
184.76570000000001
 30
0.0
  0
SPLINE
  5
92
100
AcDbEntity
  8
0
370
     5
 62
     1
100
AcDbSpline
210
0.0
220
0.0
230
1.0
 70
     0
 71
     3
 72
     8
 73
     4
 74
     0
 42
0.0000000001
 43
0.0000000001
 40
0.0
 40
0.0
 40
0.0
 40
0.0
 40
1.0
 40
1.0
 40
1.0
 40
1.0
 10
187.28100000000001
 20
184.76570000000001
 30
0.0
 10
187.28100000000001
 20
184.76570000000001
 30
0.0
 10
177.66820000000001
 20
175.20310000000001
 30
0.0
 10
177.66820000000001
 20
175.20310000000001
 30
0.0
  0
SPLINE
  5
93
100
AcDbEntity
  8
0
370
     5
 62
     1
100
AcDbSpline
210
0.0
220
0.0
230
1.0
 70
     0
 71
     3
 72
     8
 73
     4
 74
     0
 42
0.0000000001
 43
0.0000000001
 40
0.0
 40
0.0
 40
0.0
 40
0.0
 40
1.0
 40
1.0
 40
1.0
 40
1.0
 10
177.66820000000001
 20
175.20310000000001
 30
0.0
 10
176.01330000000002
 20
173.5564
 30
0.0
 10
178.89580000000001
 20
170.61920000000001
 30
0.0
 10
180.6532
 20
172.20400000000001
 30
0.0
  0
SPLINE
  5
94
100
AcDbEntity
  8
0
370
     5
 62
     1
100
AcDbSpline
210
0.0
220
0.0
230
1.0
 70
     0
 71
     3
 72
     8
 73
     4
 74
     0
 42
0.0000000001
 43
0.0000000001
 40
0.0
 40
0.0
 40
0.0
 40
0.0
 40
1.0
 40
1.0
 40
1.0
 40
1.0
 10
180.6532
 20
172.20400000000001
 30
0.0
 10
180.6532
 20
172.20400000000001
 30
0.0
 10
190.43260000000001
 20
181.9323
 30
0.0
 10
190.43260000000001
 20
181.9323
 30
0.0
  0
SPLINE
  5
95
100
AcDbEntity
  8
0
370
     5
 62
     1
100
AcDbSpline
210
0.0
220
0.0
230
1.0
 70
     0
 71
     3
 72
     8
 73
     4
 74
     0
 42
0.0000000001
 43
0.0000000001
 40
0.0
 40
0.0
 40
0.0
 40
0.0
 40
1.0
 40
1.0
 40
1.0
 40
1.0
 10
190.43260000000001
 20
181.9323
 30
0.0
 10
192.20070000000001
 20
179.1763
 30
0.0
 10
192.44220000000001
 20
175.31440000000001
 30
0.0
 10
190.96450000000002
 20
171.92150000000001
 30
0.0
  0
SPLINE
  5
96
100
AcDbEntity
  8
0
370
     5
 62
     1
100
AcDbSpline
210
0.0
220
0.0
230
1.0
 70
     0
 71
     3
 72
     8
 73
     4
 74
     0
 42
0.0000000001
 43
0.0000000001
 40
0.0
 40
0.0
 40
0.0
 40
0.0
 40
1.0
 40
1.0
 40
1.0
 40
1.0
 10
190.96450000000002
 20
171.92150000000001
 30
0.0
 10
175.7259
 20
158.82330000000002
 30
0.0
 10
177.71690000000001
 20
146.1721
 30
0.0
 10
192.6729
 20
135.26230000000001
 30
0.0
  0
SPLINE
  5
97
100
AcDbEntity
  8
0
370
     5
 62
     1
100
AcDbSpline
210
0.0
220
0.0
230
1.0
 70
     0
 71
     3
 72
     8
 73
     4
 74
     0
 42
0.0000000001
 43
0.0000000001
 40
0.0
 40
0.0
 40
0.0
 40
0.0
 40
1.0
 40
1.0
 40
1.0
 40
1.0
 10
192.6729
 20
135.26230000000001
 30
0.0
 10
198.89750000000001
 20
130.9633
 30
0.0
 10
199.12800000000001
 20
127.0485
 30
0.0
 10
196.7063
 20
123.3028
 30
0.0
  0
SPLINE
  5
98
100
AcDbEntity
  8
0
370
     5
 62
     1
100
AcDbSpline
210
0.0
220
0.0
230
1.0
 70
     0
 71
     3
 72
     8
 73
     4
 74
     0
 42
0.0000000001
 43
0.0000000001
 40
0.0
 40
0.0
 40
0.0
 40
0.0
 40
1.0
 40
1.0
 40
1.0
 40
1.0
 10
196.7063
 20
123.3028
 30
0.0
 10
196.7063
 20
123.3028
 30
0.0
 10
185.21210000000002
 20
131.74120000000002
 30
0.0
 10
185.21210000000002
 20
131.74120000000002
 30
0.0
  0
SPLINE
  5
99
100
AcDbEntity
  8
0
370
     5
 62
     1
100
AcDbSpline
210
0.0
220
0.0
230
1.0
 70
     0
 71
     3
 72
     8
 73
     4
 74
     0
 42
0.0000000001
 43
0.0000000001
 40
0.0
 40
0.0
 40
0.0
 40
0.0
 40
1.0
 40
1.0
 40
1.0
 40
1.0
 10
185.21210000000002
 20
131.74120000000002
 30
0.0
 10
183.23770000000002
 20
133.04640000000001
 30
0.0
 10
180.82510000000002
 20
129.71270000000001
 30
0.0
 10
182.70690000000002
 20
128.33090000000001
 30
0.0
  0
SPLINE
  5
9A
100
AcDbEntity
  8
0
370
     5
 62
     1
100
AcDbSpline
210
0.0
220
0.0
230
1.0
 70
     0
 71
     3
 72
     8
 73
     4
 74
     0
 42
0.0000000001
 43
0.0000000001
 40
0.0
 40
0.0
 40
0.0
 40
0.0
 40
1.0
 40
1.0
 40
1.0
 40
1.0
 10
182.70690000000002
 20
128.33090000000001
 30
0.0
 10
182.70690000000002
 20
128.33090000000001
 30
0.0
 10
193.98270000000002
 20
120.0527
 30
0.0
 10
193.98270000000002
 20
120.0527
 30
0.0
  0
SPLINE
  5
9B
100
AcDbEntity
  8
0
370
     5
 62
     1
100
AcDbSpline
210
0.0
220
0.0
230
1.0
 70
     0
 71
     3
 72
     8
 73
     4
 74
     0
 42
0.0000000001
 43
0.0000000001
 40
0.0
 40
0.0
 40
0.0
 40
0.0
 40
1.0
 40
1.0
 40
1.0
 40
1.0
 10
193.98270000000002
 20
120.0527
 30
0.0
 10
193.07680000000002
 20
119.15230000000001
 30
0.0
 10
192.06970000000001
 20
118.25830000000001
 30
0.0
 10
191.01060000000001
 20
117.36760000000001
 30
0.0
  0
SPLINE
  5
9C
100
AcDbEntity
  8
0
370
     5
 62
     1
100
AcDbSpline
210
0.0
220
0.0
230
1.0
 70
     0
 71
     3
 72
     8
 73
     4
 74
     0
 42
0.0000000001
 43
0.0000000001
 40
0.0
 40
0.0
 40
0.0
 40
0.0
 40
1.0
 40
1.0
 40
1.0
 40
1.0
 10
191.01060000000001
 20
117.36760000000001
 30
0.0
 10
186.2697
 20
109.72370000000001
 30
0.0
 10
189.84880000000001
 20
103.66850000000001
 30
0.0
 10
194.61680000000001
 20
97.840100000000007
 30
0.0
  0
SPLINE
  5
9D
100
AcDbEntity
  8
0
370
     5
 62
     1
100
AcDbSpline
210
0.0
220
0.0
230
1.0
 70
     0
 71
     3
 72
     8
 73
     4
 74
     0
 42
0.0000000001
 43
0.0000000001
 40
0.0
 40
0.0
 40
0.0
 40
0.0
 40
1.0
 40
1.0
 40
1.0
 40
1.0
 10
194.61680000000001
 20
97.840100000000007
 30
0.0
 10
198.60310000000001
 20
93.053100000000001
 30
0.0
 10
198.23570000000001
 20
88.909000000000006
 30
0.0
 10
193.517
 20
85.4071
 30
0.0
  0
SPLINE
  5
9E
100
AcDbEntity
  8
0
370
     5
 62
     1
100
AcDbSpline
210
0.0
220
0.0
230
1.0
 70
     0
 71
     3
 72
     8
 73
     4
 74
     0
 42
0.0000000001
 43
0.0000000001
 40
0.0
 40
0.0
 40
0.0
 40
0.0
 40
1.0
 40
1.0
 40
1.0
 40
1.0
 10
193.517
 20
85.4071
 30
0.0
 10
193.517
 20
85.4071
 30
0.0
 10
186.5686
 20
97.124499999999998
 30
0.0
 10
186.5686
 20
97.124499999999998
 30
0.0
  0
SPLINE
  5
9F
100
AcDbEntity
  8
0
370
     5
 62
     1
100
AcDbSpline
210
0.0
220
0.0
230
1.0
 70
     0
 71
     3
 72
     8
 73
     4
 74
     0
 42
0.0000000001
 43
0.0000000001
 40
0.0
 40
0.0
 40
0.0
 40
0.0
 40
1.0
 40
1.0
 40
1.0
 40
1.0
 10
186.5686
 20
97.124499999999998
 30
0.0
 10
184.8963
 20
99.481400000000008
 30
0.0
 10
181.45860000000002
 20
97.443400000000011
 30
0.0
 10
182.92850000000001
 20
94.966500000000011
 30
0.0
  0
SPLINE
  5
A0
100
AcDbEntity
  8
0
370
     5
 62
     1
100
AcDbSpline
210
0.0
220
0.0
230
1.0
 70
     0
 71
     3
 72
     8
 73
     4
 74
     0
 42
0.0000000001
 43
0.0000000001
 40
0.0
 40
0.0
 40
0.0
 40
0.0
 40
1.0
 40
1.0
 40
1.0
 40
1.0
 10
182.92850000000001
 20
94.966500000000011
 30
0.0
 10
182.92850000000001
 20
94.966500000000011
 30
0.0
 10
189.9417
 20
83.139700000000005
 30
0.0
 10
189.9417
 20
83.139700000000005
 30
0.0
  0
SPLINE
  5
A1
100
AcDbEntity
  8
0
370
     5
 62
     1
100
AcDbSpline
210
0.0
220
0.0
230
1.0
 70
     0
 71
     3
 72
     8
 73
     4
 74
     0
 42
0.0000000001
 43
0.0000000001
 40
0.0
 40
0.0
 40
0.0
 40
0.0
 40
1.0
 40
1.0
 40
1.0
 40
1.0
 10
189.9417
 20
83.139700000000005
 30
0.0
 10
184.1345
 20
79.973200000000006
 30
0.0
 10
180.61340000000001
 20
81.826599999999999
 30
0.0
 10
178.18720000000002
 20
86.083800000000011
 30
0.0
  0
SPLINE
  5
A2
100
AcDbEntity
  8
0
370
     5
 62
     1
100
AcDbSpline
210
0.0
220
0.0
230
1.0
 70
     0
 71
     3
 72
     8
 73
     4
 74
     0
 42
0.0000000001
 43
0.0000000001
 40
0.0
 40
0.0
 40
0.0
 40
0.0
 40
1.0
 40
1.0
 40
1.0
 40
1.0
 10
178.18720000000002
 20
86.083800000000011
 30
0.0
 10
173.86270000000002
 20
97.19980000000001
 30
0.0
 10
168.17440000000002
 20
105.12010000000001
 30
0.0
 10
153.6908
 20
104.5746
 30
0.0
  0
SPLINE
  5
A3
100
AcDbEntity
  8
0
370
     5
 62
     1
100
AcDbSpline
210
0.0
220
0.0
230
1.0
 70
     0
 71
     3
 72
     8
 73
     4
 74
     0
 42
0.0000000001
 43
0.0000000001
 40
0.0
 40
0.0
 40
0.0
 40
0.0
 40
1.0
 40
1.0
 40
1.0
 40
1.0
 10
153.6908
 20
104.5746
 30
0.0
 10
152.48780000000002
 20
104.26480000000001
 30
0.0
 10
137.28030000000001
 20
107.08750000000001
 30
0.0
 10
126.69070000000001
 20
87.737300000000005
 30
0.0
  0
SPLINE
  5
A4
100
AcDbEntity
  8
0
370
     5
 62
     1
100
AcDbSpline
210
0.0
220
0.0
230
1.0
 70
     0
 71
     3
 72
     8
 73
     4
 74
     0
 42
0.0000000001
 43
0.0000000001
 40
0.0
 40
0.0
 40
0.0
 40
0.0
 40
1.0
 40
1.0
 40
1.0
 40
1.0
 10
126.69070000000001
 20
87.737300000000005
 30
0.0
 10
124.12650000000001
 20
82.456400000000002
 30
0.0
 10
120.2757
 20
82.347999999999999
 30
0.0
 10
116.22460000000001
 20
83.886899999999997
 30
0.0
  0
SPLINE
  5
A5
100
AcDbEntity
  8
0
370
     5
 62
     1
100
AcDbSpline
210
0.0
220
0.0
230
1.0
 70
     0
 71
     3
 72
     8
 73
     4
 74
     0
 42
0.0000000001
 43
0.0000000001
 40
0.0
 40
0.0
 40
0.0
 40
0.0
 40
1.0
 40
1.0
 40
1.0
 40
1.0
 10
116.22460000000001
 20
83.886899999999997
 30
0.0
 10
116.22460000000001
 20
83.886899999999997
 30
0.0
 10
124.0334
 20
95.808500000000009
 30
0.0
 10
124.0334
 20
95.808500000000009
 30
0.0
  0
SPLINE
  5
A6
100
AcDbEntity
  8
0
370
     5
 62
     1
100
AcDbSpline
210
0.0
220
0.0
230
1.0
 70
     0
 71
     3
 72
     8
 73
     4
 74
     0
 42
0.0000000001
 43
0.0000000001
 40
0.0
 40
0.0
 40
0.0
 40
0.0
 40
1.0
 40
1.0
 40
1.0
 40
1.0
 10
124.0334
 20
95.808500000000009
 30
0.0
 10
125.61190000000001
 20
98.218100000000007
 30
0.0
 10
122.2684
 20
100.40740000000001
 30
0.0
 10
120.4932
 20
98.126000000000005
 30
0.0
  0
SPLINE
  5
A7
100
AcDbEntity
  8
0
370
     5
 62
     1
100
AcDbSpline
210
0.0
220
0.0
230
1.0
 70
     0
 71
     3
 72
     8
 73
     4
 74
     0
 42
0.0000000001
 43
0.0000000001
 40
0.0
 40
0.0
 40
0.0
 40
0.0
 40
1.0
 40
1.0
 40
1.0
 40
1.0
 10
120.4932
 20
98.126000000000005
 30
0.0
 10
120.4932
 20
98.126000000000005
 30
0.0
 10
112.5428
 20
85.988100000000003
 30
0.0
 10
112.5428
 20
85.988100000000003
 30
0.0
  0
SPLINE
  5
A8
100
AcDbEntity
  8
0
370
     5
 62
     1
100
AcDbSpline
210
0.0
220
0.0
230
1.0
 70
     0
 71
     3
 72
     8
 73
     4
 74
     0
 42
0.0000000001
 43
0.0000000001
 40
0.0
 40
0.0
 40
0.0
 40
0.0
 40
1.0
 40
1.0
 40
1.0
 40
1.0
 10
112.5428
 20
85.988100000000003
 30
0.0
 10
109.11970000000001
 20
88.828100000000006
 30
0.0
 10
106.0956
 20
91.841200000000001
 30
0.0
 10
110.75660000000001
 20
98.195000000000007
 30
0.0
  0
SPLINE
  5
A9
100
AcDbEntity
  8
0
370
     5
 62
     1
100
AcDbSpline
210
0.0
220
0.0
230
1.0
 70
     0
 71
     3
 72
     8
 73
     4
 74
     0
 42
0.0000000001
 43
0.0000000001
 40
0.0
 40
0.0
 40
0.0
 40
0.0
 40
1.0
 40
1.0
 40
1.0
 40
1.0
 10
110.75660000000001
 20
98.195000000000007
 30
0.0
 10
121.85210000000001
 20
111.13510000000001
 30
0.0
 10
118.3733
 20
116.4791
 30
0.0
 10
115.64590000000001
 20
122.21480000000001
 30
0.0
  0
SPLINE
  5
AA
100
AcDbEntity
  8
0
370
     5
 62
     1
100
AcDbSpline
210
0.0
220
0.0
230
1.0
 70
     0
 71
     3
 72
     8
 73
     4
 74
     0
 42
0.0000000001
 43
0.0000000001
 40
0.0
 40
0.0
 40
0.0
 40
0.0
 40
1.0
 40
1.0
 40
1.0
 40
1.0
 10
115.64590000000001
 20
122.21480000000001
 30
0.0
 10
115.64590000000001
 20
122.21480000000001
 30
0.0
 10
124.76530000000001
 20
128.2141
 30
0.0
 10
124.76530000000001
 20
128.2141
 30
0.0
  0
SPLINE
  5
AB
100
AcDbEntity
  8
0
370
     5
 62
     1
100
AcDbSpline
210
0.0
220
0.0
230
1.0
 70
     0
 71
     3
 72
     8
 73
     4
 74
     0
 42
0.0000000001
 43
0.0000000001
 40
0.0
 40
0.0
 40
0.0
 40
0.0
 40
1.0
 40
1.0
 40
1.0
 40
1.0
 10
124.76530000000001
 20
128.2141
 30
0.0
 10
127.17270000000001
 20
129.7971
 30
0.0
 10
124.97630000000001
 20
133.13500000000002
 30
0.0
 10
122.43940000000001
 20
131.74790000000002
 30
0.0
  0
SPLINE
  5
AC
100
AcDbEntity
  8
0
370
     5
 62
     1
100
AcDbSpline
210
0.0
220
0.0
230
1.0
 70
     0
 71
     3
 72
     8
 73
     4
 74
     0
 42
0.0000000001
 43
0.0000000001
 40
0.0
 40
0.0
 40
0.0
 40
0.0
 40
1.0
 40
1.0
 40
1.0
 40
1.0
 10
122.43940000000001
 20
131.74790000000002
 30
0.0
 10
122.43940000000001
 20
131.74790000000002
 30
0.0
 10
111.51010000000001
 20
124.5583
 30
0.0
 10
111.51010000000001
 20
124.5583
 30
0.0
  0
SPLINE
  5
AD
100
AcDbEntity
  8
0
370
     5
 62
     1
100
AcDbSpline
210
0.0
220
0.0
230
1.0
 70
     0
 71
     3
 72
     8
 73
     4
 74
     0
 42
0.0000000001
 43
0.0000000001
 40
0.0
 40
0.0
 40
0.0
 40
0.0
 40
1.0
 40
1.0
 40
1.0
 40
1.0
 10
111.51010000000001
 20
124.5583
 30
0.0
 10
109.65430000000001
 20
129.59950000000001
 30
0.0
 10
107.78840000000001
 20
134.6404
 30
0.0
 10
120.29300000000001
 20
140.66470000000001
 30
0.0
  0
SPLINE
  5
AE
100
AcDbEntity
  8
0
370
     5
 62
     1
100
AcDbSpline
210
0.0
220
0.0
230
1.0
 70
     0
 71
     3
 72
     8
 73
     4
 74
     0
 42
0.0000000001
 43
0.0000000001
 40
0.0
 40
0.0
 40
0.0
 40
0.0
 40
1.0
 40
1.0
 40
1.0
 40
1.0
 10
120.29300000000001
 20
140.66470000000001
 30
0.0
 10
129.6755
 20
146.44740000000002
 30
0.0
 10
133.95920000000001
 20
155.14660000000001
 30
0.0
 10
120.03200000000001
 20
174.26080000000002
 30
0.0
  0
SPLINE
  5
AF
100
AcDbEntity
  8
0
370
     5
 62
     1
100
AcDbSpline
210
0.0
220
0.0
230
1.0
 70
     0
 71
     3
 72
     8
 73
     4
 74
     0
 42
0.0000000001
 43
0.0000000001
 40
0.0
 40
0.0
 40
0.0
 40
0.0
 40
1.0
 40
1.0
 40
1.0
 40
1.0
 10
120.03200000000001
 20
174.26080000000002
 30
0.0
 10
119.56030000000001
 20
177.80850000000001
 30
0.0
 10
119.8703
 20
180.5797
 30
0.0
 10
120.96210000000001
 20
182.57430000000002
 30
0.0
  0
SPLINE
  5
B0
100
AcDbEntity
  8
0
370
     5
 62
     1
100
AcDbSpline
210
0.0
220
0.0
230
1.0
 70
     0
 71
     3
 72
     8
 73
     4
 74
     0
 42
0.0000000001
 43
0.0000000001
 40
0.0
 40
0.0
 40
0.0
 40
0.0
 40
1.0
 40
1.0
 40
1.0
 40
1.0
 10
120.96210000000001
 20
182.57430000000002
 30
0.0
 10
120.96210000000001
 20
182.57430000000002
 30
0.0
 10
129.3261
 20
173.47660000000002
 30
0.0
 10
129.3261
 20
173.47660000000002
 30
0.0
  0
SPLINE
  5
B1
100
AcDbEntity
  8
0
370
     5
 62
     1
100
AcDbSpline
210
0.0
220
0.0
230
1.0
 70
     0
 71
     3
 72
     8
 73
     4
 74
     0
 42
0.0000000001
 43
0.0000000001
 40
0.0
 40
0.0
 40
0.0
 40
0.0
 40
1.0
 40
1.0
 40
1.0
 40
1.0
 10
129.3261
 20
173.47660000000002
 30
0.0
 10
131.44920000000002
 20
171.51480000000001
 30
0.0
 10
134.39160000000001
 20
174.21870000000001
 30
0.0
 10
132.44210000000001
 20
176.33970000000002
 30
0.0
  0
SPLINE
  5
B2
100
AcDbEntity
  8
0
370
     5
 62
     1
100
AcDbSpline
210
0.0
220
0.0
230
1.0
 70
     0
 71
     3
 72
     8
 73
     4
 74
     0
 42
0.0000000001
 43
0.0000000001
 40
0.0
 40
0.0
 40
0.0
 40
0.0
 40
1.0
 40
1.0
 40
1.0
 40
1.0
 10
132.44210000000001
 20
176.33970000000002
 30
0.0
 10
132.44210000000001
 20
176.33970000000002
 30
0.0
 10
124.05160000000001
 20
185.46620000000001
 30
0.0
 10
124.05160000000001
 20
185.46620000000001
 30
0.0
  0
SPLINE
  5
B3
100
AcDbEntity
  8
0
370
     5
 62
     1
100
AcDbSpline
210
0.0
220
0.0
230
1.0
 70
     0
 71
     3
 72
     8
 73
     4
 74
     0
 42
0.0000000001
 43
0.0000000001
 40
0.0
 40
0.0
 40
0.0
 40
0.0
 40
1.0
 40
1.0
 40
1.0
 40
1.0
 10
124.05160000000001
 20
185.46620000000001
 30
0.0
 10
126.69450000000001
 20
186.71610000000001
 30
0.0
 10
130.57420000000002
 20
186.7381
 30
0.0
 10
135.69290000000001
 20
185.52940000000001
 30
0.0
  0
SPLINE
  5
B4
100
AcDbEntity
  8
0
370
     5
 62
     1
100
AcDbSpline
210
0.0
220
0.0
230
1.0
 70
     0
 71
     3
 72
     8
 73
     4
 74
     0
 42
0.0000000001
 43
0.0000000001
 40
0.0
 40
0.0
 40
0.0
 40
0.0
 40
1.0
 40
1.0
 40
1.0
 40
1.0
 10
135.69290000000001
 20
185.52940000000001
 30
0.0
 10
139.4273
 20
179.29920000000001
 30
0.0
 10
144.2116
 20
178.6035
 30
0.0
 10
149.4727
 20
180.42350000000002
 30
0.0
  0
SPLINE
  5
B5
100
AcDbEntity
  8
0
370
     5
 62
     1
100
AcDbSpline
210
0.0
220
0.0
230
1.0
 70
     0
 71
     3
 72
     8
 73
     4
 74
     0
 42
0.0000000001
 43
0.0000000001
 40
0.0
 40
0.0
 40
0.0
 40
0.0
 40
1.0
 40
1.0
 40
1.0
 40
1.0
 10
74.25030000000001
 20
-273.00130000000001
 30
0.0
 10
76.307100000000005
 20
-278.15039999999999
 30
0.0
 10
82.273499999999999
 20
-281.97880000000004
 30
0.0
 10
92.824100000000001
 20
-286.09820000000002
 30
0.0
  0
SPLINE
  5
B6
100
AcDbEntity
  8
0
370
     5
 62
     1
100
AcDbSpline
210
0.0
220
0.0
230
1.0
 70
     0
 71
     3
 72
     8
 73
     4
 74
     0
 42
0.0000000001
 43
0.0000000001
 40
0.0
 40
0.0
 40
0.0
 40
0.0
 40
1.0
 40
1.0
 40
1.0
 40
1.0
 10
92.824100000000001
 20
-286.09820000000002
 30
0.0
 10
101.7441
 20
-289.58080000000001
 30
0.0
 10
114.07940000000001
 20
-293.07010000000002
 30
0.0
 10
127.7492
 20
-294.64510000000001
 30
0.0
  0
SPLINE
  5
B7
100
AcDbEntity
  8
0
370
     5
 62
     1
100
AcDbSpline
210
0.0
220
0.0
230
1.0
 70
     0
 71
     3
 72
     8
 73
     4
 74
     0
 42
0.0000000001
 43
0.0000000001
 40
0.0
 40
0.0
 40
0.0
 40
0.0
 40
1.0
 40
1.0
 40
1.0
 40
1.0
 10
127.7492
 20
-294.64510000000001
 30
0.0
 10
150.7526
 20
-297.06690000000003
 30
0.0
 10
155.42680000000001
 20
-289.16540000000003
 30
0.0
 10
151.63460000000001
 20
-271.00639999999999
 30
0.0
  0
SPLINE
  5
B8
100
AcDbEntity
  8
0
370
     5
 62
     1
100
AcDbSpline
210
0.0
220
0.0
230
1.0
 70
     0
 71
     3
 72
     8
 73
     4
 74
     0
 42
0.0000000001
 43
0.0000000001
 40
0.0
 40
0.0
 40
0.0
 40
0.0
 40
1.0
 40
1.0
 40
1.0
 40
1.0
 10
151.63460000000001
 20
-271.00639999999999
 30
0.0
 10
141.785
 20
-229.9067
 30
0.0
 10
96.046599999999998
 20
-226.91920000000002
 30
0.0
 10
77.152900000000002
 20
-255.8391
 30
0.0
  0
SPLINE
  5
B9
100
AcDbEntity
  8
0
370
     5
 62
     1
100
AcDbSpline
210
0.0
220
0.0
230
1.0
 70
     0
 71
     3
 72
     8
 73
     4
 74
     0
 42
0.0000000001
 43
0.0000000001
 40
0.0
 40
0.0
 40
0.0
 40
0.0
 40
1.0
 40
1.0
 40
1.0
 40
1.0
 10
77.152900000000002
 20
-255.8391
 30
0.0
 10
74.729399999999998
 20
-260.8562
 30
0.0
 10
73.443399999999997
 20
-264.95210000000003
 30
0.0
 10
73.424599999999998
 20
-268.44850000000002
 30
0.0
  0
SPLINE
  5
BA
100
AcDbEntity
  8
0
370
     5
 62
     1
100
AcDbSpline
210
0.0
220
0.0
230
1.0
 70
     0
 71
     3
 72
     8
 73
     4
 74
     0
 42
0.0000000001
 43
0.0000000001
 40
0.0
 40
0.0
 40
0.0
 40
0.0
 40
1.0
 40
1.0
 40
1.0
 40
1.0
 10
73.424599999999998
 20
-268.44850000000002
 30
0.0
 10
73.424599999999998
 20
-268.44850000000002
 30
0.0
 10
105.04130000000001
 20
-276.03300000000002
 30
0.0
 10
105.04130000000001
 20
-276.03300000000002
 30
0.0
  0
SPLINE
  5
BB
100
AcDbEntity
  8
0
370
     5
 62
     1
100
AcDbSpline
210
0.0
220
0.0
230
1.0
 70
     0
 71
     3
 72
     8
 73
     4
 74
     0
 42
0.0000000001
 43
0.0000000001
 40
0.0
 40
0.0
 40
0.0
 40
0.0
 40
1.0
 40
1.0
 40
1.0
 40
1.0
 10
105.04130000000001
 20
-276.03300000000002
 30
0.0
 10
107.7911
 20
-276.93470000000002
 30
0.0
 10
106.85770000000001
 20
-280.8236
 30
0.0
 10
104.05370000000001
 20
-280.15090000000004
 30
0.0
  0
SPLINE
  5
BC
100
AcDbEntity
  8
0
370
     5
 62
     1
100
AcDbSpline
210
0.0
220
0.0
230
1.0
 70
     0
 71
     3
 72
     8
 73
     4
 74
     0
 42
0.0000000001
 43
0.0000000001
 40
0.0
 40
0.0
 40
0.0
 40
0.0
 40
1.0
 40
1.0
 40
1.0
 40
1.0
 10
104.05370000000001
 20
-280.15090000000004
 30
0.0
 10
104.05370000000001
 20
-280.15090000000004
 30
0.0
 10
74.25030000000001
 20
-273.00130000000001
 30
0.0
 10
74.25030000000001
 20
-273.00130000000001
 30
0.0
  0
SPLINE
  5
BD
100
AcDbEntity
  8
0
370
     5
 62
     1
100
AcDbSpline
210
0.0
220
0.0
230
1.0
 70
     0
 71
     3
 72
     8
 73
     4
 74
     0
 42
0.0000000001
 43
0.0000000001
 40
0.0
 40
0.0
 40
0.0
 40
0.0
 40
1.0
 40
1.0
 40
1.0
 40
1.0
 10
47.875800000000005
 20
-227.81870000000001
 30
0.0
 10
33.295900000000003
 20
-201.6251
 30
0.0
 10
45.4649
 20
-174.75820000000002
 30
0.0
 10
77.61160000000001
 20
-172.88120000000001
 30
0.0
  0
SPLINE
  5
BE
100
AcDbEntity
  8
0
370
     5
 62
     1
100
AcDbSpline
210
0.0
220
0.0
230
1.0
 70
     0
 71
     3
 72
     8
 73
     4
 74
     0
 42
0.0000000001
 43
0.0000000001
 40
0.0
 40
0.0
 40
0.0
 40
0.0
 40
1.0
 40
1.0
 40
1.0
 40
1.0
 10
77.61160000000001
 20
-172.88120000000001
 30
0.0
 10
113.48020000000001
 20
-170.999
 30
0.0
 10
123.5972
 20
-212.19230000000002
 30
0.0
 10
102.8767
 20
-233.45070000000001
 30
0.0
  0
SPLINE
  5
BF
100
AcDbEntity
  8
0
370
     5
 62
     1
100
AcDbSpline
210
0.0
220
0.0
230
1.0
 70
     0
 71
     3
 72
     8
 73
     4
 74
     0
 42
0.0000000001
 43
0.0000000001
 40
0.0
 40
0.0
 40
0.0
 40
0.0
 40
1.0
 40
1.0
 40
1.0
 40
1.0
 10
102.8767
 20
-233.45070000000001
 30
0.0
 10
94.433300000000003
 20
-240.31660000000002
 30
0.0
 10
88.396500000000003
 20
-232.69570000000002
 30
0.0
 10
91.632300000000001
 20
-226.2577
 30
0.0
  0
SPLINE
  5
C0
100
AcDbEntity
  8
0
370
     5
 62
     1
100
AcDbSpline
210
0.0
220
0.0
230
1.0
 70
     0
 71
     3
 72
     8
 73
     4
 74
     0
 42
0.0000000001
 43
0.0000000001
 40
0.0
 40
0.0
 40
0.0
 40
0.0
 40
1.0
 40
1.0
 40
1.0
 40
1.0
 10
91.632300000000001
 20
-226.2577
 30
0.0
 10
100.21300000000001
 20
-209.44980000000001
 30
0.0
 10
90.988399999999999
 20
-199.7945
 30
0.0
 10
80.4422
 20
-198.5513
 30
0.0
  0
SPLINE
  5
C1
100
AcDbEntity
  8
0
370
     5
 62
     1
100
AcDbSpline
210
0.0
220
0.0
230
1.0
 70
     0
 71
     3
 72
     8
 73
     4
 74
     0
 42
0.0000000001
 43
0.0000000001
 40
0.0
 40
0.0
 40
0.0
 40
0.0
 40
1.0
 40
1.0
 40
1.0
 40
1.0
 10
80.4422
 20
-198.5513
 30
0.0
 10
80.4422
 20
-198.5513
 30
0.0
 10
80.2744
 20
-189.57650000000001
 30
0.0
 10
80.2744
 20
-189.57650000000001
 30
0.0
  0
SPLINE
  5
C2
100
AcDbEntity
  8
0
370
     5
 62
     1
100
AcDbSpline
210
0.0
220
0.0
230
1.0
 70
     0
 71
     3
 72
     8
 73
     4
 74
     0
 42
0.0000000001
 43
0.0000000001
 40
0.0
 40
0.0
 40
0.0
 40
0.0
 40
1.0
 40
1.0
 40
1.0
 40
1.0
 10
80.2744
 20
-189.57650000000001
 30
0.0
 10
80.220600000000005
 20
-186.69650000000001
 30
0.0
 10
76.224600000000009
 20
-186.7715
 30
0.0
 10
76.043599999999998
 20
-189.6557
 30
0.0
  0
SPLINE
  5
C3
100
AcDbEntity
  8
0
370
     5
 62
     1
100
AcDbSpline
210
0.0
220
0.0
230
1.0
 70
     0
 71
     3
 72
     8
 73
     4
 74
     0
 42
0.0000000001
 43
0.0000000001
 40
0.0
 40
0.0
 40
0.0
 40
0.0
 40
1.0
 40
1.0
 40
1.0
 40
1.0
 10
76.043599999999998
 20
-189.6557
 30
0.0
 10
76.043599999999998
 20
-189.6557
 30
0.0
 10
76.2089
 20
-198.5069
 30
0.0
 10
76.2089
 20
-198.5069
 30
0.0
  0
SPLINE
  5
C4
100
AcDbEntity
  8
0
370
     5
 62
     1
100
AcDbSpline
210
0.0
220
0.0
230
1.0
 70
     0
 71
     3
 72
     8
 73
     4
 74
     0
 42
0.0000000001
 43
0.0000000001
 40
0.0
 40
0.0
 40
0.0
 40
0.0
 40
1.0
 40
1.0
 40
1.0
 40
1.0
 10
76.2089
 20
-198.5069
 30
0.0
 10
66.3934
 20
-199.44560000000001
 30
0.0
 10
57.319900000000004
 20
-207.73070000000001
 30
0.0
 10
62.051900000000003
 20
-224.37310000000002
 30
0.0
  0
SPLINE
  5
C5
100
AcDbEntity
  8
0
370
     5
 62
     1
100
AcDbSpline
210
0.0
220
0.0
230
1.0
 70
     0
 71
     3
 72
     8
 73
     4
 74
     0
 42
0.0000000001
 43
0.0000000001
 40
0.0
 40
0.0
 40
0.0
 40
0.0
 40
1.0
 40
1.0
 40
1.0
 40
1.0
 10
62.051900000000003
 20
-224.37310000000002
 30
0.0
 10
65.097999999999999
 20
-234.69310000000002
 30
0.0
 10
54.3643
 20
-238.87110000000001
 30
0.0
 10
47.875800000000005
 20
-227.81870000000001
 30
0.0
  0
SPLINE
  5
C6
100
AcDbEntity
  8
0
370
     5
 62
     1
100
AcDbSpline
210
0.0
220
0.0
230
1.0
 70
     0
 71
     3
 72
     8
 73
     4
 74
     0
 42
0.0000000001
 43
0.0000000001
 40
0.0
 40
0.0
 40
0.0
 40
0.0
 40
1.0
 40
1.0
 40
1.0
 40
1.0
 10
-150.96630000000002
 20
-178.91140000000001
 30
0.0
 10
-156.77330000000001
 20
-188.45670000000001
 30
0.0
 10
-162.5735
 20
-197.8553
 30
0.0
 10
-168.3809
 20
-207.4006
 30
0.0
  0
SPLINE
  5
C7
100
AcDbEntity
  8
0
370
     5
 62
     1
100
AcDbSpline
210
0.0
220
0.0
230
1.0
 70
     0
 71
     3
 72
     8
 73
     4
 74
     0
 42
0.0000000001
 43
0.0000000001
 40
0.0
 40
0.0
 40
0.0
 40
0.0
 40
1.0
 40
1.0
 40
1.0
 40
1.0
 10
-168.3809
 20
-207.4006
 30
0.0
 10
-171.77340000000001
 20
-213.0719
 30
0.0
 10
-176.6584
 20
-217.32210000000001
 30
0.0
 10
-182.37630000000001
 20
-220.18260000000001
 30
0.0
  0
SPLINE
  5
C8
100
AcDbEntity
  8
0
370
     5
 62
     1
100
AcDbSpline
210
0.0
220
0.0
230
1.0
 70
     0
 71
     3
 72
     8
 73
     4
 74
     0
 42
0.0000000001
 43
0.0000000001
 40
0.0
 40
0.0
 40
0.0
 40
0.0
 40
1.0
 40
1.0
 40
1.0
 40
1.0
 10
-182.37630000000001
 20
-220.18260000000001
 30
0.0
 10
-191.95180000000002
 20
-226.3366
 30
0.0
 10
-195.79820000000001
 20
-232.173
 30
0.0
 10
-193.97120000000001
 20
-238.8647
 30
0.0
  0
SPLINE
  5
C9
100
AcDbEntity
  8
0
370
     5
 62
     1
100
AcDbSpline
210
0.0
220
0.0
230
1.0
 70
     0
 71
     3
 72
     8
 73
     4
 74
     0
 42
0.0000000001
 43
0.0000000001
 40
0.0
 40
0.0
 40
0.0
 40
0.0
 40
1.0
 40
1.0
 40
1.0
 40
1.0
 10
-193.97120000000001
 20
-238.8647
 30
0.0
 10
-193.8725
 20
-238.92760000000001
 30
0.0
 10
-193.7731
 20
-238.99000000000001
 30
0.0
 10
-193.67440000000002
 20
-239.05280000000002
 30
0.0
  0
SPLINE
  5
CA
100
AcDbEntity
  8
0
370
     5
 62
     1
100
AcDbSpline
210
0.0
220
0.0
230
1.0
 70
     0
 71
     3
 72
     8
 73
     4
 74
     0
 42
0.0000000001
 43
0.0000000001
 40
0.0
 40
0.0
 40
0.0
 40
0.0
 40
1.0
 40
1.0
 40
1.0
 40
1.0
 10
-193.67440000000002
 20
-239.05280000000002
 30
0.0
 10
-193.67440000000002
 20
-239.05280000000002
 30
0.0
 10
-184.3724
 20
-232.3698
 30
0.0
 10
-184.3724
 20
-232.3698
 30
0.0
  0
SPLINE
  5
CB
100
AcDbEntity
  8
0
370
     5
 62
     1
100
AcDbSpline
210
0.0
220
0.0
230
1.0
 70
     0
 71
     3
 72
     8
 73
     4
 74
     0
 42
0.0000000001
 43
0.0000000001
 40
0.0
 40
0.0
 40
0.0
 40
0.0
 40
1.0
 40
1.0
 40
1.0
 40
1.0
 10
-184.3724
 20
-232.3698
 30
0.0
 10
-182.03210000000001
 20
-230.68820000000002
 30
0.0
 10
-179.70050000000001
 20
-233.9332
 30
0.0
 10
-181.9032
 20
-235.80550000000002
 30
0.0
  0
SPLINE
  5
CC
100
AcDbEntity
  8
0
370
     5
 62
     1
100
AcDbSpline
210
0.0
220
0.0
230
1.0
 70
     0
 71
     3
 72
     8
 73
     4
 74
     0
 42
0.0000000001
 43
0.0000000001
 40
0.0
 40
0.0
 40
0.0
 40
0.0
 40
1.0
 40
1.0
 40
1.0
 40
1.0
 10
-181.9032
 20
-235.80550000000002
 30
0.0
 10
-181.9032
 20
-235.80550000000002
 30
0.0
 10
-190.15520000000001
 20
-241.73440000000002
 30
0.0
 10
-190.15520000000001
 20
-241.73440000000002
 30
0.0
  0
SPLINE
  5
CD
100
AcDbEntity
  8
0
370
     5
 62
     1
100
AcDbSpline
210
0.0
220
0.0
230
1.0
 70
     0
 71
     3
 72
     8
 73
     4
 74
     0
 42
0.0000000001
 43
0.0000000001
 40
0.0
 40
0.0
 40
0.0
 40
0.0
 40
1.0
 40
1.0
 40
1.0
 40
1.0
 10
-190.15520000000001
 20
-241.73440000000002
 30
0.0
 10
-188.386
 20
-247.04530000000003
 30
0.0
 10
-185.88320000000002
 20
-245.26420000000002
 30
0.0
 10
-183.4409
 20
-244.76920000000001
 30
0.0
  0
SPLINE
  5
CE
100
AcDbEntity
  8
0
370
     5
 62
     1
100
AcDbSpline
210
0.0
220
0.0
230
1.0
 70
     0
 71
     3
 72
     8
 73
     4
 74
     0
 42
0.0000000001
 43
0.0000000001
 40
0.0
 40
0.0
 40
0.0
 40
0.0
 40
1.0
 40
1.0
 40
1.0
 40
1.0
 10
-183.4409
 20
-244.76920000000001
 30
0.0
 10
-179.93819999999999
 20
-243.577
 30
0.0
 10
-174.5924
 20
-240.1712
 30
0.0
 10
-172.05630000000002
 20
-239.89780000000002
 30
0.0
  0
SPLINE
  5
CF
100
AcDbEntity
  8
0
370
     5
 62
     1
100
AcDbSpline
210
0.0
220
0.0
230
1.0
 70
     0
 71
     3
 72
     8
 73
     4
 74
     0
 42
0.0000000001
 43
0.0000000001
 40
0.0
 40
0.0
 40
0.0
 40
0.0
 40
1.0
 40
1.0
 40
1.0
 40
1.0
 10
-172.05630000000002
 20
-239.89780000000002
 30
0.0
 10
-168.94840000000002
 20
-239.6987
 30
0.0
 10
-164.32140000000001
 20
-237.67420000000001
 30
0.0
 10
-160.8115
 20
-228.64510000000001
 30
0.0
  0
SPLINE
  5
D0
100
AcDbEntity
  8
0
370
     5
 62
     1
100
AcDbSpline
210
0.0
220
0.0
230
1.0
 70
     0
 71
     3
 72
     8
 73
     4
 74
     0
 42
0.0000000001
 43
0.0000000001
 40
0.0
 40
0.0
 40
0.0
 40
0.0
 40
1.0
 40
1.0
 40
1.0
 40
1.0
 10
-160.8115
 20
-228.64510000000001
 30
0.0
 10
-156.6431
 20
-215.98750000000001
 30
0.0
 10
-150.33710000000002
 20
-203.4306
 30
0.0
 10
-141.89260000000002
 20
-190.9751
 30
0.0
  0
SPLINE
  5
D1
100
AcDbEntity
  8
0
370
     5
 62
     1
100
AcDbSpline
210
0.0
220
0.0
230
1.0
 70
     0
 71
     3
 72
     8
 73
     4
 74
     0
 42
0.0000000001
 43
0.0000000001
 40
0.0
 40
0.0
 40
0.0
 40
0.0
 40
1.0
 40
1.0
 40
1.0
 40
1.0
 10
-141.89260000000002
 20
-190.9751
 30
0.0
 10
-137.81110000000001
 20
-187.72880000000001
 30
0.0
 10
-133.13410000000002
 20
-186.99030000000002
 30
0.0
 10
-127.91980000000001
 20
-190.02680000000001
 30
0.0
  0
SPLINE
  5
D2
100
AcDbEntity
  8
0
370
     5
 62
     1
100
AcDbSpline
210
0.0
220
0.0
230
1.0
 70
     0
 71
     3
 72
     8
 73
     4
 74
     0
 42
0.0000000001
 43
0.0000000001
 40
0.0
 40
0.0
 40
0.0
 40
0.0
 40
1.0
 40
1.0
 40
1.0
 40
1.0
 10
-127.91980000000001
 20
-190.02680000000001
 30
0.0
 10
-103.22380000000001
 20
-205.92190000000002
 30
0.0
 10
-77.111400000000003
 20
-212.60590000000002
 30
0.0
 10
-50.304300000000005
 20
-214.0377
 30
0.0
  0
SPLINE
  5
D3
100
AcDbEntity
  8
0
370
     5
 62
     1
100
AcDbSpline
210
0.0
220
0.0
230
1.0
 70
     0
 71
     3
 72
     8
 73
     4
 74
     0
 42
0.0000000001
 43
0.0000000001
 40
0.0
 40
0.0
 40
0.0
 40
0.0
 40
1.0
 40
1.0
 40
1.0
 40
1.0
 10
-50.304300000000005
 20
-214.0377
 30
0.0
 10
-27.9651
 20
-214.66550000000001
 30
0.0
 10
-10.6205
 20
-213.7886
 30
0.0
 10
3.121
 20
-205.74980000000002
 30
0.0
  0
SPLINE
  5
D4
100
AcDbEntity
  8
0
370
     5
 62
     1
100
AcDbSpline
210
0.0
220
0.0
230
1.0
 70
     0
 71
     3
 72
     8
 73
     4
 74
     0
 42
0.0000000001
 43
0.0000000001
 40
0.0
 40
0.0
 40
0.0
 40
0.0
 40
1.0
 40
1.0
 40
1.0
 40
1.0
 10
3.121
 20
-205.74980000000002
 30
0.0
 10
6.9799000000000007
 20
-203.43210000000002
 30
0.0
 10
4.8633000000000006
 20
-195.73940000000002
 30
0.0
 10
-1.2268000000000001
 20
-198.82410000000002
 30
0.0
  0
SPLINE
  5
D5
100
AcDbEntity
  8
0
370
     5
 62
     1
100
AcDbSpline
210
0.0
220
0.0
230
1.0
 70
     0
 71
     3
 72
     8
 73
     4
 74
     0
 42
0.0000000001
 43
0.0000000001
 40
0.0
 40
0.0
 40
0.0
 40
0.0
 40
1.0
 40
1.0
 40
1.0
 40
1.0
 10
-1.2268000000000001
 20
-198.82410000000002
 30
0.0
 10
-13.927000000000001
 20
-205.72190000000001
 30
0.0
 10
-30.2575
 20
-205.45740000000001
 30
0.0
 10
-44.544499999999999
 20
-205.4982
 30
0.0
  0
SPLINE
  5
D6
100
AcDbEntity
  8
0
370
     5
 62
     1
100
AcDbSpline
210
0.0
220
0.0
230
1.0
 70
     0
 71
     3
 72
     8
 73
     4
 74
     0
 42
0.0000000001
 43
0.0000000001
 40
0.0
 40
0.0
 40
0.0
 40
0.0
 40
1.0
 40
1.0
 40
1.0
 40
1.0
 10
-44.544499999999999
 20
-205.4982
 30
0.0
 10
-56.751800000000003
 20
-204.96810000000002
 30
0.0
 10
-68.915800000000004
 20
-204.4478
 30
0.0
 10
-79.825200000000009
 20
-200.7696
 30
0.0
  0
SPLINE
  5
D7
100
AcDbEntity
  8
0
370
     5
 62
     1
100
AcDbSpline
210
0.0
220
0.0
230
1.0
 70
     0
 71
     3
 72
     8
 73
     4
 74
     0
 42
0.0000000001
 43
0.0000000001
 40
0.0
 40
0.0
 40
0.0
 40
0.0
 40
1.0
 40
1.0
 40
1.0
 40
1.0
 10
-79.825200000000009
 20
-200.7696
 30
0.0
 10
-97.721299999999999
 20
-195.56570000000002
 30
0.0
 10
-113.13730000000001
 20
-181.58700000000002
 30
0.0
 10
-134.8098
 20
-173.98070000000001
 30
0.0
  0
SPLINE
  5
D8
100
AcDbEntity
  8
0
370
     5
 62
     1
100
AcDbSpline
210
0.0
220
0.0
230
1.0
 70
     0
 71
     3
 72
     8
 73
     4
 74
     0
 42
0.0000000001
 43
0.0000000001
 40
0.0
 40
0.0
 40
0.0
 40
0.0
 40
1.0
 40
1.0
 40
1.0
 40
1.0
 10
-134.8098
 20
-173.98070000000001
 30
0.0
 10
-140.4735
 20
-172.03310000000002
 30
0.0
 10
-146.52180000000001
 20
-172.42100000000002
 30
0.0
 10
-150.96630000000002
 20
-178.91140000000001
 30
0.0
  0
SPLINE
  5
D9
100
AcDbEntity
  8
0
370
     5
 62
     1
100
AcDbSpline
210
0.0
220
0.0
230
1.0
 70
     0
 71
     3
 72
     8
 73
     4
 74
     0
 42
0.0000000001
 43
0.0000000001
 40
0.0
 40
0.0
 40
0.0
 40
0.0
 40
1.0
 40
1.0
 40
1.0
 40
1.0
 10
-137.40600000000001
 20
-225.49870000000001
 30
0.0
 10
-142.7132
 20
-228.8571
 30
0.0
 10
-147.7244
 20
-232.27880000000002
 30
0.0
 10
-150.5701
 20
-239.97040000000001
 30
0.0
  0
SPLINE
  5
DA
100
AcDbEntity
  8
0
370
     5
 62
     1
100
AcDbSpline
210
0.0
220
0.0
230
1.0
 70
     0
 71
     3
 72
     8
 73
     4
 74
     0
 42
0.0000000001
 43
0.0000000001
 40
0.0
 40
0.0
 40
0.0
 40
0.0
 40
1.0
 40
1.0
 40
1.0
 40
1.0
 10
-150.5701
 20
-239.97040000000001
 30
0.0
 10
-152.78800000000001
 20
-246.995
 30
0.0
 10
-149.15479999999999
 20
-250.60310000000001
 30
0.0
 10
-142.86270000000002
 20
-247.53820000000002
 30
0.0
  0
SPLINE
  5
DB
100
AcDbEntity
  8
0
370
     5
 62
     1
100
AcDbSpline
210
0.0
220
0.0
230
1.0
 70
     0
 71
     3
 72
     8
 73
     4
 74
     0
 42
0.0000000001
 43
0.0000000001
 40
0.0
 40
0.0
 40
0.0
 40
0.0
 40
1.0
 40
1.0
 40
1.0
 40
1.0
 10
-142.86270000000002
 20
-247.53820000000002
 30
0.0
 10
-138.74000000000001
 20
-244.66410000000002
 30
0.0
 10
-133.86790000000002
 20
-240.9941
 30
0.0
 10
-129.74530000000001
 20
-238.1199
 30
0.0
  0
SPLINE
  5
DC
100
AcDbEntity
  8
0
370
     5
 62
     1
100
AcDbSpline
210
0.0
220
0.0
230
1.0
 70
     0
 71
     3
 72
     8
 73
     4
 74
     0
 42
0.0000000001
 43
0.0000000001
 40
0.0
 40
0.0
 40
0.0
 40
0.0
 40
1.0
 40
1.0
 40
1.0
 40
1.0
 10
-129.74530000000001
 20
-238.1199
 30
0.0
 10
-125.12480000000001
 20
-235.72570000000002
 30
0.0
 10
-120.47840000000001
 20
-237.38850000000002
 30
0.0
 10
-114.62100000000001
 20
-232.87390000000002
 30
0.0
  0
SPLINE
  5
DD
100
AcDbEntity
  8
0
370
     5
 62
     1
100
AcDbSpline
210
0.0
220
0.0
230
1.0
 70
     0
 71
     3
 72
     8
 73
     4
 74
     0
 42
0.0000000001
 43
0.0000000001
 40
0.0
 40
0.0
 40
0.0
 40
0.0
 40
1.0
 40
1.0
 40
1.0
 40
1.0
 10
-114.62100000000001
 20
-232.87390000000002
 30
0.0
 10
-113.0569
 20
-231.047
 30
0.0
 10
-111.48530000000001
 20
-229.47800000000001
 30
0.0
 10
-109.9212
 20
-227.65110000000001
 30
0.0
  0
SPLINE
  5
DE
100
AcDbEntity
  8
0
370
     5
 62
     1
100
AcDbSpline
210
0.0
220
0.0
230
1.0
 70
     0
 71
     3
 72
     8
 73
     4
 74
     0
 42
0.0000000001
 43
0.0000000001
 40
0.0
 40
0.0
 40
0.0
 40
0.0
 40
1.0
 40
1.0
 40
1.0
 40
1.0
 10
-109.9212
 20
-227.65110000000001
 30
0.0
 10
-108.7795
 20
-225.07060000000001
 30
0.0
 10
-108.52130000000001
 20
-222.63130000000001
 30
0.0
 10
-112.26480000000001
 20
-221.83510000000001
 30
0.0
  0
SPLINE
  5
DF
100
AcDbEntity
  8
0
370
     5
 62
     1
100
AcDbSpline
210
0.0
220
0.0
230
1.0
 70
     0
 71
     3
 72
     8
 73
     4
 74
     0
 42
0.0000000001
 43
0.0000000001
 40
0.0
 40
0.0
 40
0.0
 40
0.0
 40
1.0
 40
1.0
 40
1.0
 40
1.0
 10
-112.26480000000001
 20
-221.83510000000001
 30
0.0
 10
-119.03150000000001
 20
-220.1756
 30
0.0
 10
-126.9508
 20
-220.5737
 30
0.0
 10
-137.40600000000001
 20
-225.49870000000001
 30
0.0
  0
SPLINE
  5
E0
100
AcDbEntity
  8
0
370
     5
 62
     1
100
AcDbSpline
210
0.0
220
0.0
230
1.0
 70
     0
 71
     3
 72
     8
 73
     4
 74
     0
 42
0.0000000001
 43
0.0000000001
 40
0.0
 40
0.0
 40
0.0
 40
0.0
 40
1.0
 40
1.0
 40
1.0
 40
1.0
 10
-128.43620000000001
 20
-246.42950000000002
 30
0.0
 10
-155.0976
 20
-257.423
 30
0.0
 10
-152.62569999999999
 20
-269.81270000000001
 30
0.0
 10
-121.4221
 20
-256.7903
 30
0.0
  0
SPLINE
  5
E1
100
AcDbEntity
  8
0
370
     5
 62
     1
100
AcDbSpline
210
0.0
220
0.0
230
1.0
 70
     0
 71
     3
 72
     8
 73
     4
 74
     0
 42
0.0000000001
 43
0.0000000001
 40
0.0
 40
0.0
 40
0.0
 40
0.0
 40
1.0
 40
1.0
 40
1.0
 40
1.0
 10
-121.4221
 20
-256.7903
 30
0.0
 10
-116.73990000000001
 20
-255.27540000000002
 30
0.0
 10
-112.8691
 20
-252.4957
 30
0.0
 10
-118.0998
 20
-247.15220000000002
 30
0.0
  0
SPLINE
  5
E2
100
AcDbEntity
  8
0
370
     5
 62
     1
100
AcDbSpline
210
0.0
220
0.0
230
1.0
 70
     0
 71
     3
 72
     8
 73
     4
 74
     0
 42
0.0000000001
 43
0.0000000001
 40
0.0
 40
0.0
 40
0.0
 40
0.0
 40
1.0
 40
1.0
 40
1.0
 40
1.0
 10
-118.0998
 20
-247.15220000000002
 30
0.0
 10
-121.4226
 20
-245.27460000000002
 30
0.0
 10
-124.50890000000001
 20
-245.53890000000001
 30
0.0
 10
-128.43620000000001
 20
-246.42950000000002
 30
0.0
  0
SPLINE
  5
E3
100
AcDbEntity
  8
0
370
     5
 62
     1
100
AcDbSpline
210
0.0
220
0.0
230
1.0
 70
     0
 71
     3
 72
     8
 73
     4
 74
     0
 42
0.0000000001
 43
0.0000000001
 40
0.0
 40
0.0
 40
0.0
 40
0.0
 40
1.0
 40
1.0
 40
1.0
 40
1.0
 10
-159.25620000000001
 20
-276.48220000000003
 30
0.0
 10
-165.55190000000002
 20
-278.04730000000001
 30
0.0
 10
-165.2535
 20
-282.22340000000003
 30
0.0
 10
-159.57920000000001
 20
-282.93720000000002
 30
0.0
  0
SPLINE
  5
E4
100
AcDbEntity
  8
0
370
     5
 62
     1
100
AcDbSpline
210
0.0
220
0.0
230
1.0
 70
     0
 71
     3
 72
     8
 73
     4
 74
     0
 42
0.0000000001
 43
0.0000000001
 40
0.0
 40
0.0
 40
0.0
 40
0.0
 40
1.0
 40
1.0
 40
1.0
 40
1.0
 10
-159.57920000000001
 20
-282.93720000000002
 30
0.0
 10
-146.96260000000001
 20
-284.61400000000003
 30
0.0
 10
-134.1782
 20
-285.21449999999999
 30
0.0
 10
-121.57560000000001
 20
-286.18540000000002
 30
0.0
  0
SPLINE
  5
E5
100
AcDbEntity
  8
0
370
     5
 62
     1
100
AcDbSpline
210
0.0
220
0.0
230
1.0
 70
     0
 71
     3
 72
     8
 73
     4
 74
     0
 42
0.0000000001
 43
0.0000000001
 40
0.0
 40
0.0
 40
0.0
 40
0.0
 40
1.0
 40
1.0
 40
1.0
 40
1.0
 10
-121.57560000000001
 20
-286.18540000000002
 30
0.0
 10
-117.8623
 20
-286.07280000000003
 30
0.0
 10
-115.91850000000001
 20
-282.40309999999999
 30
0.0
 10
-119.41860000000001
 20
-280.70679999999999
 30
0.0
  0
SPLINE
  5
E6
100
AcDbEntity
  8
0
370
     5
 62
     1
100
AcDbSpline
210
0.0
220
0.0
230
1.0
 70
     0
 71
     3
 72
     8
 73
     4
 74
     0
 42
0.0000000001
 43
0.0000000001
 40
0.0
 40
0.0
 40
0.0
 40
0.0
 40
1.0
 40
1.0
 40
1.0
 40
1.0
 10
-119.41860000000001
 20
-280.70679999999999
 30
0.0
 10
-122.92570000000001
 20
-278.75620000000004
 30
0.0
 10
-152.96030000000002
 20
-274.91700000000003
 30
0.0
 10
-159.25620000000001
 20
-276.48220000000003
 30
0.0
  0
SPLINE
  5
E7
100
AcDbEntity
  8
0
370
     5
 62
     1
100
AcDbSpline
210
0.0
220
0.0
230
1.0
 70
     0
 71
     3
 72
     8
 73
     4
 74
     0
 42
0.0000000001
 43
0.0000000001
 40
0.0
 40
0.0
 40
0.0
 40
0.0
 40
1.0
 40
1.0
 40
1.0
 40
1.0
 10
-142.506
 20
-267.47450000000003
 30
0.0
 10
-146.52180000000001
 20
-268.28180000000003
 30
0.0
 10
-146.35650000000001
 20
-270.94060000000002
 30
0.0
 10
-142.12520000000001
 20
-271.58789999999999
 30
0.0
  0
SPLINE
  5
E8
100
AcDbEntity
  8
0
370
     5
 62
     1
100
AcDbSpline
210
0.0
220
0.0
230
1.0
 70
     0
 71
     3
 72
     8
 73
     4
 74
     0
 42
0.0000000001
 43
0.0000000001
 40
0.0
 40
0.0
 40
0.0
 40
0.0
 40
1.0
 40
1.0
 40
1.0
 40
1.0
 10
-142.12520000000001
 20
-271.58789999999999
 30
0.0
 10
-107.20270000000001
 20
-268.60890000000001
 30
0.0
 10
-75.3904
 20
-251.61010000000002
 30
0.0
 10
-51.429900000000004
 20
-234.59150000000002
 30
0.0
  0
SPLINE
  5
E9
100
AcDbEntity
  8
0
370
     5
 62
     1
100
AcDbSpline
210
0.0
220
0.0
230
1.0
 70
     0
 71
     3
 72
     8
 73
     4
 74
     0
 42
0.0000000001
 43
0.0000000001
 40
0.0
 40
0.0
 40
0.0
 40
0.0
 40
1.0
 40
1.0
 40
1.0
 40
1.0
 10
-51.429900000000004
 20
-234.59150000000002
 30
0.0
 10
-48.9908
 20
-232.80000000000001
 30
0.0
 10
-51.538900000000005
 20
-228.06360000000001
 30
0.0
 10
-55.706000000000003
 20
-229.56300000000002
 30
0.0
  0
SPLINE
  5
EA
100
AcDbEntity
  8
0
370
     5
 62
     1
100
AcDbSpline
210
0.0
220
0.0
230
1.0
 70
     0
 71
     3
 72
     8
 73
     4
 74
     0
 42
0.0000000001
 43
0.0000000001
 40
0.0
 40
0.0
 40
0.0
 40
0.0
 40
1.0
 40
1.0
 40
1.0
 40
1.0
 10
-55.706000000000003
 20
-229.56300000000002
 30
0.0
 10
-71.056700000000006
 20
-239.37700000000001
 30
0.0
 10
-86.432299999999998
 20
-248.36790000000002
 30
0.0
 10
-101.8647
 20
-255.43310000000002
 30
0.0
  0
SPLINE
  5
EB
100
AcDbEntity
  8
0
370
     5
 62
     1
100
AcDbSpline
210
0.0
220
0.0
230
1.0
 70
     0
 71
     3
 72
     8
 73
     4
 74
     0
 42
0.0000000001
 43
0.0000000001
 40
0.0
 40
0.0
 40
0.0
 40
0.0
 40
1.0
 40
1.0
 40
1.0
 40
1.0
 10
-101.8647
 20
-255.43310000000002
 30
0.0
 10
-116.35780000000001
 20
-262.31100000000004
 30
0.0
 10
-129.4513
 20
-264.24889999999999
 30
0.0
 10
-142.506
 20
-267.47450000000003
 30
0.0
  0
SPLINE
  5
EC
100
AcDbEntity
  8
0
370
     5
 62
     1
100
AcDbSpline
210
0.0
220
0.0
230
1.0
 70
     0
 71
     3
 72
     8
 73
     4
 74
     0
 42
0.0000000001
 43
0.0000000001
 40
0.0
 40
0.0
 40
0.0
 40
0.0
 40
1.0
 40
1.0
 40
1.0
 40
1.0
 10
-97.03540000000001
 20
-227.1875
 30
0.0
 10
-92.451800000000006
 20
-225.24540000000002
 30
0.0
 10
-88.509
 20
-224.87
 30
0.0
 10
-85.441699999999997
 20
-226.84130000000002
 30
0.0
  0
SPLINE
  5
ED
100
AcDbEntity
  8
0
370
     5
 62
     1
100
AcDbSpline
210
0.0
220
0.0
230
1.0
 70
     0
 71
     3
 72
     8
 73
     4
 74
     0
 42
0.0000000001
 43
0.0000000001
 40
0.0
 40
0.0
 40
0.0
 40
0.0
 40
1.0
 40
1.0
 40
1.0
 40
1.0
 10
-85.441699999999997
 20
-226.84130000000002
 30
0.0
 10
-72.1768
 20
-224.8981
 30
0.0
 10
-71.492500000000007
 20
-230.54950000000002
 30
0.0
 10
-79.7774
 20
-235.18000000000001
 30
0.0
  0
SPLINE
  5
EE
100
AcDbEntity
  8
0
370
     5
 62
     1
100
AcDbSpline
210
0.0
220
0.0
230
1.0
 70
     0
 71
     3
 72
     8
 73
     4
 74
     0
 42
0.0000000001
 43
0.0000000001
 40
0.0
 40
0.0
 40
0.0
 40
0.0
 40
1.0
 40
1.0
 40
1.0
 40
1.0
 10
-79.7774
 20
-235.18000000000001
 30
0.0
 10
-87.1233
 20
-239.61020000000002
 30
0.0
 10
-94.469300000000004
 20
-244.04050000000001
 30
0.0
 10
-101.81500000000001
 20
-248.47070000000002
 30
0.0
  0
SPLINE
  5
EF
100
AcDbEntity
  8
0
370
     5
 62
     1
100
AcDbSpline
210
0.0
220
0.0
230
1.0
 70
     0
 71
     3
 72
     8
 73
     4
 74
     0
 42
0.0000000001
 43
0.0000000001
 40
0.0
 40
0.0
 40
0.0
 40
0.0
 40
1.0
 40
1.0
 40
1.0
 40
1.0
 10
-101.81500000000001
 20
-248.47070000000002
 30
0.0
 10
-110.3125
 20
-250.65540000000001
 30
0.0
 10
-116.38810000000001
 20
-244.8596
 30
0.0
 10
-109.87480000000001
 20
-237.62550000000002
 30
0.0
  0
SPLINE
  5
F0
100
AcDbEntity
  8
0
370
     5
 62
     1
100
AcDbSpline
210
0.0
220
0.0
230
1.0
 70
     0
 71
     3
 72
     8
 73
     4
 74
     0
 42
0.0000000001
 43
0.0000000001
 40
0.0
 40
0.0
 40
0.0
 40
0.0
 40
1.0
 40
1.0
 40
1.0
 40
1.0
 10
-109.87480000000001
 20
-237.62550000000002
 30
0.0
 10
-105.2184
 20
-233.79080000000002
 30
0.0
 10
-101.045
 20
-229.6267
 30
0.0
 10
-97.03540000000001
 20
-227.1875
 30
0.0
  0
SPLINE
  5
F1
100
AcDbEntity
  8
0
370
     5
 62
     1
100
AcDbSpline
210
0.0
220
0.0
230
1.0
 70
     0
 71
     3
 72
     8
 73
     4
 74
     0
 42
0.0000000001
 43
0.0000000001
 40
0.0
 40
0.0
 40
0.0
 40
0.0
 40
1.0
 40
1.0
 40
1.0
 40
1.0
 10
-40.047699999999999
 20
-235.79850000000002
 30
0.0
 10
-28.639900000000001
 20
-230.6446
 30
0.0
 10
-22.595000000000002
 20
-231.7551
 30
0.0
 10
-15.8451
 20
-234.56040000000002
 30
0.0
  0
SPLINE
  5
F2
100
AcDbEntity
  8
0
370
     5
 62
     1
100
AcDbSpline
210
0.0
220
0.0
230
1.0
 70
     0
 71
     3
 72
    12
 73
     8
 74
     0
 42
0.0000000001
 43
0.0000000001
 40
0.0
 40
0.0
 40
0.0
 40
0.0
 40
0.5
 40
0.5
 40
0.5
 40
0.5
 40
1.0
 40
1.0
 40
1.0
 40
1.0
 10
-15.8451
 20
-234.56040000000002
 30
0.0
 10
-9.0953999999999997
 20
-237.3655
 30
0.0
 10
-12.7102
 20
-240.846
 30
0.0
 10
-15.8489
 20
-243.06810000000002
 30
0.0
 10
-15.8489
 20
-243.06810000000002
 30
0.0
 10
-18.987500000000001
 20
-245.2902
 30
0.0
 10
-66.778300000000002
 20
-261.02420000000001
 30
0.0
 10
-72.809200000000004
 20
-261.26859999999999
 30
0.0
  0
SPLINE
  5
F3
100
AcDbEntity
  8
0
370
     5
 62
     1
100
AcDbSpline
210
0.0
220
0.0
230
1.0
 70
     0
 71
     3
 72
     8
 73
     4
 74
     0
 42
0.0000000001
 43
0.0000000001
 40
0.0
 40
0.0
 40
0.0
 40
0.0
 40
1.0
 40
1.0
 40
1.0
 40
1.0
 10
-72.809200000000004
 20
-261.26859999999999
 30
0.0
 10
-78.840400000000002
 20
-261.51280000000003
 30
0.0
 10
-78.756799999999998
 20
-257.8365
 30
0.0
 10
-73.486100000000008
 20
-255.87470000000002
 30
0.0
  0
SPLINE
  5
F4
100
AcDbEntity
  8
0
370
     5
 62
     1
100
AcDbSpline
210
0.0
220
0.0
230
1.0
 70
     0
 71
     3
 72
     8
 73
     4
 74
     0
 42
0.0000000001
 43
0.0000000001
 40
0.0
 40
0.0
 40
0.0
 40
0.0
 40
1.0
 40
1.0
 40
1.0
 40
1.0
 10
-73.486100000000008
 20
-255.87470000000002
 30
0.0
 10
-60.956300000000006
 20
-252.16070000000002
 30
0.0
 10
-50.363600000000005
 20
-244.27730000000003
 30
0.0
 10
-40.047699999999999
 20
-235.79850000000002
 30
0.0
  0
SPLINE
  5
F5
100
AcDbEntity
  8
0
370
     5
 62
     1
100
AcDbSpline
210
0.0
220
0.0
230
1.0
 70
     0
 71
     3
 72
     8
 73
     4
 74
     0
 42
0.0000000001
 43
0.0000000001
 40
0.0
 40
0.0
 40
0.0
 40
0.0
 40
1.0
 40
1.0
 40
1.0
 40
1.0
 10
-15.578200000000001
 20
-249.48880000000003
 30
0.0
 10
-4.7132000000000005
 20
-245.37360000000001
 30
0.0
 10
-1.4129
 20
-259.19760000000002
 30
0.0
 10
-13.062800000000001
 20
-261.70010000000002
 30
0.0
  0
SPLINE
  5
F6
100
AcDbEntity
  8
0
370
     5
 62
     1
100
AcDbSpline
210
0.0
220
0.0
230
1.0
 70
     0
 71
     3
 72
     8
 73
     4
 74
     0
 42
0.0000000001
 43
0.0000000001
 40
0.0
 40
0.0
 40
0.0
 40
0.0
 40
1.0
 40
1.0
 40
1.0
 40
1.0
 10
-13.062800000000001
 20
-261.70010000000002
 30
0.0
 10
-43.239699999999999
 20
-270.53579999999999
 30
0.0
 10
-75.019800000000004
 20
-274.55619999999999
 30
0.0
 10
-107.8969
 20
-275.28200000000004
 30
0.0
  0
SPLINE
  5
F7
100
AcDbEntity
  8
0
370
     5
 62
     1
100
AcDbSpline
210
0.0
220
0.0
230
1.0
 70
     0
 71
     3
 72
     8
 73
     4
 74
     0
 42
0.0000000001
 43
0.0000000001
 40
0.0
 40
0.0
 40
0.0
 40
0.0
 40
1.0
 40
1.0
 40
1.0
 40
1.0
 10
-107.8969
 20
-275.28200000000004
 30
0.0
 10
-114.64360000000001
 20
-275.68810000000002
 30
0.0
 10
-114.82100000000001
 20
-269.755
 30
0.0
 10
-106.202
 20
-270.3168
 30
0.0
  0
SPLINE
  5
F8
100
AcDbEntity
  8
0
370
     5
 62
     1
100
AcDbSpline
210
0.0
220
0.0
230
1.0
 70
     0
 71
     3
 72
     8
 73
     4
 74
     0
 42
0.0000000001
 43
0.0000000001
 40
0.0
 40
0.0
 40
0.0
 40
0.0
 40
1.0
 40
1.0
 40
1.0
 40
1.0
 10
-106.202
 20
-270.3168
 30
0.0
 10
-71.178200000000004
 20
-268.5926
 30
0.0
 10
-40.460799999999999
 20
-261.5575
 30
0.0
 10
-15.578200000000001
 20
-249.48880000000003
 30
0.0
  0
SPLINE
  5
F9
100
AcDbEntity
  8
0
370
     5
 62
     1
100
AcDbSpline
210
0.0
220
0.0
230
1.0
 70
     0
 71
     3
 72
     8
 73
     4
 74
     0
 42
0.0000000001
 43
0.0000000001
 40
0.0
 40
0.0
 40
0.0
 40
0.0
 40
1.0
 40
1.0
 40
1.0
 40
1.0
 10
-100.97890000000001
 20
-280.60419999999999
 30
0.0
 10
-107.1271
 20
-280.48060000000004
 30
0.0
 10
-106.69200000000001
 20
-284.76780000000002
 30
0.0
 10
-100.8416
 20
-285.20750000000004
 30
0.0
  0
SPLINE
  5
FA
100
AcDbEntity
  8
0
370
     5
 62
     1
100
AcDbSpline
210
0.0
220
0.0
230
1.0
 70
     0
 71
     3
 72
     8
 73
     4
 74
     0
 42
0.0000000001
 43
0.0000000001
 40
0.0
 40
0.0
 40
0.0
 40
0.0
 40
1.0
 40
1.0
 40
1.0
 40
1.0
 10
-100.8416
 20
-285.20750000000004
 30
0.0
 10
-73.141800000000003
 20
-287.29820000000001
 30
0.0
 10
-48.735900000000001
 20
-284.11220000000003
 30
0.0
 10
-27.058800000000002
 20
-276.55420000000004
 30
0.0
  0
SPLINE
  5
FB
100
AcDbEntity
  8
0
370
     5
 62
     1
100
AcDbSpline
210
0.0
220
0.0
230
1.0
 70
     0
 71
     3
 72
     8
 73
     4
 74
     0
 42
0.0000000001
 43
0.0000000001
 40
0.0
 40
0.0
 40
0.0
 40
0.0
 40
1.0
 40
1.0
 40
1.0
 40
1.0
 10
-27.058800000000002
 20
-276.55420000000004
 30
0.0
 10
-21.696899999999999
 20
-274.3467
 30
0.0
 10
-24.0825
 20
-269.9128
 30
0.0
 10
-28.442400000000003
 20
-271.37400000000002
 30
0.0
  0
SPLINE
  5
FC
100
AcDbEntity
  8
0
370
     5
 62
     1
100
AcDbSpline
210
0.0
220
0.0
230
1.0
 70
     0
 71
     3
 72
     8
 73
     4
 74
     0
 42
0.0000000001
 43
0.0000000001
 40
0.0
 40
0.0
 40
0.0
 40
0.0
 40
1.0
 40
1.0
 40
1.0
 40
1.0
 10
-28.442400000000003
 20
-271.37400000000002
 30
0.0
 10
-48.033000000000001
 20
-277.21950000000004
 30
0.0
 10
-73.4148
 20
-281.1764
 30
0.0
 10
-100.97890000000001
 20
-280.60419999999999
 30
0.0
  0
SPLINE
  5
FD
100
AcDbEntity
  8
0
370
     5
 62
     1
100
AcDbSpline
210
0.0
220
0.0
230
1.0
 70
     0
 71
     3
 72
     8
 73
     4
 74
     0
 42
0.0000000001
 43
0.0000000001
 40
0.0
 40
0.0
 40
0.0
 40
0.0
 40
1.0
 40
1.0
 40
1.0
 40
1.0
 10
-191.48870000000002
 20
-275.66630000000004
 30
0.0
 10
-191.0857
 20
-276.66680000000002
 30
0.0
 10
-190.6833
 20
-277.66730000000001
 30
0.0
 10
-190.28030000000001
 20
-278.66750000000002
 30
0.0
  0
SPLINE
  5
FE
100
AcDbEntity
  8
0
370
     5
 62
     1
100
AcDbSpline
210
0.0
220
0.0
230
1.0
 70
     0
 71
     3
 72
     8
 73
     4
 74
     0
 42
0.0000000001
 43
0.0000000001
 40
0.0
 40
0.0
 40
0.0
 40
0.0
 40
1.0
 40
1.0
 40
1.0
 40
1.0
 10
-190.28030000000001
 20
-278.66750000000002
 30
0.0
 10
-190.28030000000001
 20
-278.66750000000002
 30
0.0
 10
-169.9554
 20
-269.35360000000003
 30
0.0
 10
-169.9554
 20
-269.35360000000003
 30
0.0
  0
SPLINE
  5
FF
100
AcDbEntity
  8
0
370
     5
 62
     1
100
AcDbSpline
210
0.0
220
0.0
230
1.0
 70
     0
 71
     3
 72
     8
 73
     4
 74
     0
 42
0.0000000001
 43
0.0000000001
 40
0.0
 40
0.0
 40
0.0
 40
0.0
 40
1.0
 40
1.0
 40
1.0
 40
1.0
 10
-169.9554
 20
-269.35360000000003
 30
0.0
 10
-167.3356
 20
-268.15289999999999
 30
0.0
 10
-165.67070000000001
 20
-271.78559999999999
 30
0.0
 10
-168.19210000000001
 20
-273.19929999999999
 30
0.0
  0
SPLINE
  5
100
100
AcDbEntity
  8
0
370
     5
 62
     1
100
AcDbSpline
210
0.0
220
0.0
230
1.0
 70
     0
 71
     3
 72
     8
 73
     4
 74
     0
 42
0.0000000001
 43
0.0000000001
 40
0.0
 40
0.0
 40
0.0
 40
0.0
 40
1.0
 40
1.0
 40
1.0
 40
1.0
 10
-168.19210000000001
 20
-273.19929999999999
 30
0.0
 10
-168.19210000000001
 20
-273.19929999999999
 30
0.0
 10
-188.69760000000002
 20
-282.59629999999999
 30
0.0
 10
-188.69760000000002
 20
-282.59629999999999
 30
0.0
  0
SPLINE
  5
101
100
AcDbEntity
  8
0
370
     5
 62
     1
100
AcDbSpline
210
0.0
220
0.0
230
1.0
 70
     0
 71
     3
 72
     8
 73
     4
 74
     0
 42
0.0000000001
 43
0.0000000001
 40
0.0
 40
0.0
 40
0.0
 40
0.0
 40
1.0
 40
1.0
 40
1.0
 40
1.0
 10
-188.69760000000002
 20
-282.59629999999999
 30
0.0
 10
-188.27890000000002
 20
-283.63569999999999
 30
0.0
 10
-187.85980000000001
 20
-284.67529999999999
 30
0.0
 10
-187.44120000000001
 20
-285.71469999999999
 30
0.0
  0
SPLINE
  5
102
100
AcDbEntity
  8
0
370
     5
 62
     1
100
AcDbSpline
210
0.0
220
0.0
230
1.0
 70
     0
 71
     3
 72
     8
 73
     4
 74
     0
 42
0.0000000001
 43
0.0000000001
 40
0.0
 40
0.0
 40
0.0
 40
0.0
 40
1.0
 40
1.0
 40
1.0
 40
1.0
 10
-187.44120000000001
 20
-285.71469999999999
 30
0.0
 10
-185.54640000000001
 20
-289.41450000000003
 30
0.0
 10
-182.32689999999999
 20
-289.66759999999999
 30
0.0
 10
-177.72830000000002
 20
-288.28180000000003
 30
0.0
  0
SPLINE
  5
103
100
AcDbEntity
  8
0
370
     5
 62
     1
100
AcDbSpline
210
0.0
220
0.0
230
1.0
 70
     0
 71
     3
 72
     8
 73
     4
 74
     0
 42
0.0000000001
 43
0.0000000001
 40
0.0
 40
0.0
 40
0.0
 40
0.0
 40
1.0
 40
1.0
 40
1.0
 40
1.0
 10
-177.72830000000002
 20
-288.28180000000003
 30
0.0
 10
-174.541
 20
-287.46070000000003
 30
0.0
 10
-171.29949999999999
 20
-288.44659999999999
 30
0.0
 10
-168.0848
 20
-288.52910000000003
 30
0.0
  0
SPLINE
  5
104
100
AcDbEntity
  8
0
370
     5
 62
     1
100
AcDbSpline
210
0.0
220
0.0
230
1.0
 70
     0
 71
     3
 72
     8
 73
     4
 74
     0
 42
0.0000000001
 43
0.0000000001
 40
0.0
 40
0.0
 40
0.0
 40
0.0
 40
1.0
 40
1.0
 40
1.0
 40
1.0
 10
-168.0848
 20
-288.52910000000003
 30
0.0
 10
-150.4821
 20
-292.3775
 30
0.0
 10
-132.6395
 20
-292.38470000000001
 30
0.0
 10
-115.5078
 20
-292.31170000000003
 30
0.0
  0
SPLINE
  5
105
100
AcDbEntity
  8
0
370
     5
 62
     1
100
AcDbSpline
210
0.0
220
0.0
230
1.0
 70
     0
 71
     3
 72
     8
 73
     4
 74
     0
 42
0.0000000001
 43
0.0000000001
 40
0.0
 40
0.0
 40
0.0
 40
0.0
 40
1.0
 40
1.0
 40
1.0
 40
1.0
 10
-115.5078
 20
-292.31170000000003
 30
0.0
 10
-67.762900000000002
 20
-291.71550000000002
 30
0.0
 10
-27.6631
 20
-290.68330000000003
 30
0.0
 10
-11.125300000000001
 20
-276.03930000000003
 30
0.0
  0
SPLINE
  5
106
100
AcDbEntity
  8
0
370
     5
 62
     1
100
AcDbSpline
210
0.0
220
0.0
230
1.0
 70
     0
 71
     3
 72
     8
 73
     4
 74
     0
 42
0.0000000001
 43
0.0000000001
 40
0.0
 40
0.0
 40
0.0
 40
0.0
 40
1.0
 40
1.0
 40
1.0
 40
1.0
 10
-11.125300000000001
 20
-276.03930000000003
 30
0.0
 10
-5.9876000000000005
 20
-271.84270000000004
 30
0.0
 10
3.8707000000000003
 20
-264.63490000000002
 30
0.0
 10
4.3895
 20
-254.16380000000001
 30
0.0
  0
SPLINE
  5
107
100
AcDbEntity
  8
0
370
     5
 62
     1
100
AcDbSpline
210
0.0
220
0.0
230
1.0
 70
     0
 71
     3
 72
     8
 73
     4
 74
     0
 42
0.0000000001
 43
0.0000000001
 40
0.0
 40
0.0
 40
0.0
 40
0.0
 40
1.0
 40
1.0
 40
1.0
 40
1.0
 10
4.3895
 20
-254.16380000000001
 30
0.0
 10
4.7605000000000004
 20
-246.67800000000003
 30
0.0
 10
4.1310000000000002
 20
-234.78210000000001
 30
0.0
 10
-7.0897000000000006
 20
-230.19980000000001
 30
0.0
  0
SPLINE
  5
108
100
AcDbEntity
  8
0
370
     5
 62
     1
100
AcDbSpline
210
0.0
220
0.0
230
1.0
 70
     0
 71
     3
 72
     8
 73
     4
 74
     0
 42
0.0000000001
 43
0.0000000001
 40
0.0
 40
0.0
 40
0.0
 40
0.0
 40
1.0
 40
1.0
 40
1.0
 40
1.0
 10
-7.0897000000000006
 20
-230.19980000000001
 30
0.0
 10
-28.341800000000003
 20
-222.13300000000001
 30
0.0
 10
-62.725300000000004
 20
-222.67540000000002
 30
0.0
 10
-91.121499999999997
 20
-219.15440000000001
 30
0.0
  0
SPLINE
  5
109
100
AcDbEntity
  8
0
370
     5
 62
     1
100
AcDbSpline
210
0.0
220
0.0
230
1.0
 70
     0
 71
     3
 72
     8
 73
     4
 74
     0
 42
0.0000000001
 43
0.0000000001
 40
0.0
 40
0.0
 40
0.0
 40
0.0
 40
1.0
 40
1.0
 40
1.0
 40
1.0
 10
-91.121499999999997
 20
-219.15440000000001
 30
0.0
 10
-127.54390000000001
 20
-208.43530000000001
 30
0.0
 10
-149.56300000000002
 20
-213.9924
 30
0.0
 10
-157.48660000000001
 20
-236.43990000000002
 30
0.0
  0
SPLINE
  5
10A
100
AcDbEntity
  8
0
370
     5
 62
     1
100
AcDbSpline
210
0.0
220
0.0
230
1.0
 70
     0
 71
     3
 72
     8
 73
     4
 74
     0
 42
0.0000000001
 43
0.0000000001
 40
0.0
 40
0.0
 40
0.0
 40
0.0
 40
1.0
 40
1.0
 40
1.0
 40
1.0
 10
-157.48660000000001
 20
-236.43990000000002
 30
0.0
 10
-160.34350000000001
 20
-246.6979
 30
0.0
 10
-159.88130000000001
 20
-252.9308
 30
0.0
 10
-175.3766
 20
-259.4828
 30
0.0
  0
SPLINE
  5
10B
100
AcDbEntity
  8
0
370
     5
 62
     1
100
AcDbSpline
210
0.0
220
0.0
230
1.0
 70
     0
 71
     3
 72
     8
 73
     4
 74
     0
 42
0.0000000001
 43
0.0000000001
 40
0.0
 40
0.0
 40
0.0
 40
0.0
 40
1.0
 40
1.0
 40
1.0
 40
1.0
 10
-175.3766
 20
-259.4828
 30
0.0
 10
-189.34970000000001
 20
-263.64670000000001
 30
0.0
 10
-194.7166
 20
-269.16160000000002
 30
0.0
 10
-191.48870000000002
 20
-275.66630000000004
 30
0.0
  0
SPLINE
  5
10C
100
AcDbEntity
  8
0
370
     5
 62
     1
100
AcDbSpline
210
0.0
220
0.0
230
1.0
 70
     0
 71
     3
 72
     8
 73
     4
 74
     0
 42
0.0000000001
 43
0.0000000001
 40
0.0
 40
0.0
 40
0.0
 40
0.0
 40
1.0
 40
1.0
 40
1.0
 40
1.0
 10
186.30100000000002
 20
-292.58699999999999
 30
0.0
 10
183.03630000000001
 20
-293.85239999999999
 30
0.0
 10
179.74420000000001
 20
-294.49650000000003
 30
0.0
 10
176.4237
 20
-294.52000000000004
 30
0.0
  0
SPLINE
  5
10D
100
AcDbEntity
  8
0
370
     5
 62
     1
100
AcDbSpline
210
0.0
220
0.0
230
1.0
 70
     0
 71
     3
 72
     8
 73
     4
 74
     0
 42
0.0000000001
 43
0.0000000001
 40
0.0
 40
0.0
 40
0.0
 40
0.0
 40
1.0
 40
1.0
 40
1.0
 40
1.0
 10
176.4237
 20
-294.52000000000004
 30
0.0
 10
176.4237
 20
-294.52000000000004
 30
0.0
 10
177.18440000000001
 20
-276.83920000000001
 30
0.0
 10
177.18440000000001
 20
-276.83920000000001
 30
0.0
  0
SPLINE
  5
10E
100
AcDbEntity
  8
0
370
     5
 62
     1
100
AcDbSpline
210
0.0
220
0.0
230
1.0
 70
     0
 71
     3
 72
     8
 73
     4
 74
     0
 42
0.0000000001
 43
0.0000000001
 40
0.0
 40
0.0
 40
0.0
 40
0.0
 40
1.0
 40
1.0
 40
1.0
 40
1.0
 10
177.18440000000001
 20
-276.83920000000001
 30
0.0
 10
177.16980000000001
 20
-274.47300000000001
 30
0.0
 10
173.05690000000001
 20
-274.32530000000003
 30
0.0
 10
172.9564
 20
-276.65680000000003
 30
0.0
  0
SPLINE
  5
10F
100
AcDbEntity
  8
0
370
     5
 62
     1
100
AcDbSpline
210
0.0
220
0.0
230
1.0
 70
     0
 71
     3
 72
     8
 73
     4
 74
     0
 42
0.0000000001
 43
0.0000000001
 40
0.0
 40
0.0
 40
0.0
 40
0.0
 40
1.0
 40
1.0
 40
1.0
 40
1.0
 10
172.9564
 20
-276.65680000000003
 30
0.0
 10
172.9564
 20
-276.65680000000003
 30
0.0
 10
172.2012
 20
-294.2176
 30
0.0
 10
172.2012
 20
-294.2176
 30
0.0
  0
SPLINE
  5
110
100
AcDbEntity
  8
0
370
     5
 62
     1
100
AcDbSpline
210
0.0
220
0.0
230
1.0
 70
     0
 71
     3
 72
     8
 73
     4
 74
     0
 42
0.0000000001
 43
0.0000000001
 40
0.0
 40
0.0
 40
0.0
 40
0.0
 40
1.0
 40
1.0
 40
1.0
 40
1.0
 10
172.2012
 20
-294.2176
 30
0.0
 10
168.98060000000001
 20
-293.73509999999999
 30
0.0
 10
165.73440000000002
 20
-292.67689999999999
 30
0.0
 10
162.46270000000001
 20
-291.04220000000004
 30
0.0
  0
SPLINE
  5
111
100
AcDbEntity
  8
0
370
     5
 62
     1
100
AcDbSpline
210
0.0
220
0.0
230
1.0
 70
     0
 71
     3
 72
     8
 73
     4
 74
     0
 42
0.0000000001
 43
0.0000000001
 40
0.0
 40
0.0
 40
0.0
 40
0.0
 40
1.0
 40
1.0
 40
1.0
 40
1.0
 10
162.46270000000001
 20
-291.04220000000004
 30
0.0
 10
158.21620000000001
 20
-289.34000000000003
 30
0.0
 10
158.8338
 20
-283.33519999999999
 30
0.0
 10
159.1651
 20
-277.58280000000002
 30
0.0
  0
SPLINE
  5
112
100
AcDbEntity
  8
0
370
     5
 62
     1
100
AcDbSpline
210
0.0
220
0.0
230
1.0
 70
     0
 71
     3
 72
     8
 73
     4
 74
     0
 42
0.0000000001
 43
0.0000000001
 40
0.0
 40
0.0
 40
0.0
 40
0.0
 40
1.0
 40
1.0
 40
1.0
 40
1.0
 10
159.1651
 20
-277.58280000000002
 30
0.0
 10
159.1268
 20
-270.7011
 30
0.0
 10
160.4265
 20
-264.22540000000004
 30
0.0
 10
162.64170000000001
 20
-258.02719999999999
 30
0.0
  0
SPLINE
  5
113
100
AcDbEntity
  8
0
370
     5
 62
     1
100
AcDbSpline
210
0.0
220
0.0
230
1.0
 70
     0
 71
     3
 72
     8
 73
     4
 74
     0
 42
0.0000000001
 43
0.0000000001
 40
0.0
 40
0.0
 40
0.0
 40
0.0
 40
1.0
 40
1.0
 40
1.0
 40
1.0
 10
162.64170000000001
 20
-258.02719999999999
 30
0.0
 10
164.65290000000002
 20
-250.93430000000001
 30
0.0
 10
161.732
 20
-247.0282
 30
0.0
 10
158.10660000000001
 20
-243.57680000000002
 30
0.0
  0
SPLINE
  5
114
100
AcDbEntity
  8
0
370
     5
 62
     1
100
AcDbSpline
210
0.0
220
0.0
230
1.0
 70
     0
 71
     3
 72
     8
 73
     4
 74
     0
 42
0.0000000001
 43
0.0000000001
 40
0.0
 40
0.0
 40
0.0
 40
0.0
 40
1.0
 40
1.0
 40
1.0
 40
1.0
 10
158.10660000000001
 20
-243.57680000000002
 30
0.0
 10
156.065
 20
-240.9393
 30
0.0
 10
158.601
 20
-236.99030000000002
 30
0.0
 10
161.81440000000001
 20
-239.4727
 30
0.0
  0
SPLINE
  5
115
100
AcDbEntity
  8
0
370
     5
 62
     1
100
AcDbSpline
210
0.0
220
0.0
230
1.0
 70
     0
 71
     3
 72
     8
 73
     4
 74
     0
 42
0.0000000001
 43
0.0000000001
 40
0.0
 40
0.0
 40
0.0
 40
0.0
 40
1.0
 40
1.0
 40
1.0
 40
1.0
 10
161.81440000000001
 20
-239.4727
 30
0.0
 10
165.03149999999999
 20
-243.06410000000002
 30
0.0
 10
168.24870000000001
 20
-246.65530000000001
 30
0.0
 10
171.4659
 20
-250.24650000000003
 30
0.0
  0
SPLINE
  5
116
100
AcDbEntity
  8
0
370
     5
 62
     1
100
AcDbSpline
210
0.0
220
0.0
230
1.0
 70
     0
 71
     3
 72
     8
 73
     4
 74
     0
 42
0.0000000001
 43
0.0000000001
 40
0.0
 40
0.0
 40
0.0
 40
0.0
 40
1.0
 40
1.0
 40
1.0
 40
1.0
 10
171.4659
 20
-250.24650000000003
 30
0.0
 10
174.18690000000001
 20
-253.2774
 30
0.0
 10
176.89780000000002
 20
-253.63910000000001
 30
0.0
 10
179.59810000000002
 20
-251.33040000000003
 30
0.0
  0
SPLINE
  5
117
100
AcDbEntity
  8
0
370
     5
 62
     1
100
AcDbSpline
210
0.0
220
0.0
230
1.0
 70
     0
 71
     3
 72
     8
 73
     4
 74
     0
 42
0.0000000001
 43
0.0000000001
 40
0.0
 40
0.0
 40
0.0
 40
0.0
 40
1.0
 40
1.0
 40
1.0
 40
1.0
 10
179.59810000000002
 20
-251.33040000000003
 30
0.0
 10
182.821
 20
-247.43810000000002
 30
0.0
 10
185.94820000000001
 20
-243.51670000000001
 30
0.0
 10
190.7039
 20
-240.0891
 30
0.0
  0
SPLINE
  5
118
100
AcDbEntity
  8
0
370
     5
 62
     1
100
AcDbSpline
210
0.0
220
0.0
230
1.0
 70
     0
 71
     3
 72
     8
 73
     4
 74
     0
 42
0.0000000001
 43
0.0000000001
 40
0.0
 40
0.0
 40
0.0
 40
0.0
 40
1.0
 40
1.0
 40
1.0
 40
1.0
 10
190.7039
 20
-240.0891
 30
0.0
 10
193.6874
 20
-238.12390000000002
 30
0.0
 10
198.37620000000001
 20
-240.7072
 30
0.0
 10
194.83420000000001
 20
-244.72670000000002
 30
0.0
  0
SPLINE
  5
119
100
AcDbEntity
  8
0
370
     5
 62
     1
100
AcDbSpline
210
0.0
220
0.0
230
1.0
 70
     0
 71
     3
 72
     8
 73
     4
 74
     0
 42
0.0000000001
 43
0.0000000001
 40
0.0
 40
0.0
 40
0.0
 40
0.0
 40
1.0
 40
1.0
 40
1.0
 40
1.0
 10
194.83420000000001
 20
-244.72670000000002
 30
0.0
 10
193.3475
 20
-246.58270000000002
 30
0.0
 10
191.86080000000001
 20
-248.43880000000001
 30
0.0
 10
190.3741
 20
-250.29440000000002
 30
0.0
  0
SPLINE
  5
11A
100
AcDbEntity
  8
0
370
     5
 62
     1
100
AcDbSpline
210
0.0
220
0.0
230
1.0
 70
     0
 71
     3
 72
     8
 73
     4
 74
     0
 42
0.0000000001
 43
0.0000000001
 40
0.0
 40
0.0
 40
0.0
 40
0.0
 40
1.0
 40
1.0
 40
1.0
 40
1.0
 10
190.3741
 20
-250.29440000000002
 30
0.0
 10
188.8458
 20
-253.47080000000003
 30
0.0
 10
188.68890000000002
 20
-256.85849999999999
 30
0.0
 10
189.90360000000001
 20
-260.45710000000003
 30
0.0
  0
SPLINE
  5
11B
100
AcDbEntity
  8
0
370
     5
 62
     1
100
AcDbSpline
210
0.0
220
0.0
230
1.0
 70
     0
 71
     3
 72
     8
 73
     4
 74
     0
 42
0.0000000001
 43
0.0000000001
 40
0.0
 40
0.0
 40
0.0
 40
0.0
 40
1.0
 40
1.0
 40
1.0
 40
1.0
 10
189.90360000000001
 20
-260.45710000000003
 30
0.0
 10
190.9194
 20
-269.01990000000001
 30
0.0
 10
191.27620000000002
 20
-277.63909999999998
 30
0.0
 10
190.1849
 20
-286.38280000000003
 30
0.0
  0
SPLINE
  5
11C
100
AcDbEntity
  8
0
370
     5
 62
     1
100
AcDbSpline
210
0.0
220
0.0
230
1.0
 70
     0
 71
     3
 72
     8
 73
     4
 74
     0
 42
0.0000000001
 43
0.0000000001
 40
0.0
 40
0.0
 40
0.0
 40
0.0
 40
1.0
 40
1.0
 40
1.0
 40
1.0
 10
190.1849
 20
-286.38280000000003
 30
0.0
 10
189.732
 20
-289.73169999999999
 30
0.0
 10
188.43730000000002
 20
-291.80000000000001
 30
0.0
 10
186.30100000000002
 20
-292.58699999999999
 30
0.0
  0
SPLINE
  5
11D
100
AcDbEntity
  8
0
370
     5
 62
     1
100
AcDbSpline
210
0.0
220
0.0
230
1.0
 70
     0
 71
     3
 72
     8
 73
     4
 74
     0
 42
0.0000000001
 43
0.0000000001
 40
0.0
 40
0.0
 40
0.0
 40
0.0
 40
1.0
 40
1.0
 40
1.0
 40
1.0
 10
119.0792
 20
-223.94730000000001
 30
0.0
 10
119.28620000000001
 20
-231.54810000000001
 30
0.0
 10
124.88470000000001
 20
-238.18190000000001
 30
0.0
 10
137.74039999999999
 20
-233.48310000000001
 30
0.0
  0
SPLINE
  5
11E
100
AcDbEntity
  8
0
370
     5
 62
     1
100
AcDbSpline
210
0.0
220
0.0
230
1.0
 70
     0
 71
     3
 72
     8
 73
     4
 74
     0
 42
0.0000000001
 43
0.0000000001
 40
0.0
 40
0.0
 40
0.0
 40
0.0
 40
1.0
 40
1.0
 40
1.0
 40
1.0
 10
137.74039999999999
 20
-233.48310000000001
 30
0.0
 10
141.70690000000002
 20
-232.3776
 30
0.0
 10
148.80010000000001
 20
-231.7176
 30
0.0
 10
156.09780000000001
 20
-231.60170000000002
 30
0.0
  0
SPLINE
  5
11F
100
AcDbEntity
  8
0
370
     5
 62
     1
100
AcDbSpline
210
0.0
220
0.0
230
1.0
 70
     0
 71
     3
 72
     8
 73
     4
 74
     0
 42
0.0000000001
 43
0.0000000001
 40
0.0
 40
0.0
 40
0.0
 40
0.0
 40
1.0
 40
1.0
 40
1.0
 40
1.0
 10
156.09780000000001
 20
-231.60170000000002
 30
0.0
 10
156.09780000000001
 20
-231.60170000000002
 30
0.0
 10
156.50409999999999
 20
-208.32980000000001
 30
0.0
 10
156.50409999999999
 20
-208.32980000000001
 30
0.0
  0
SPLINE
  5
120
100
AcDbEntity
  8
0
370
     5
 62
     1
100
AcDbSpline
210
0.0
220
0.0
230
1.0
 70
     0
 71
     3
 72
     8
 73
     4
 74
     0
 42
0.0000000001
 43
0.0000000001
 40
0.0
 40
0.0
 40
0.0
 40
0.0
 40
1.0
 40
1.0
 40
1.0
 40
1.0
 10
156.50409999999999
 20
-208.32980000000001
 30
0.0
 10
156.78990000000002
 20
-205.45340000000002
 30
0.0
 10
160.78530000000001
 20
-205.523
 30
0.0
 10
160.73510000000002
 20
-208.40360000000001
 30
0.0
  0
SPLINE
  5
121
100
AcDbEntity
  8
0
370
     5
 62
     1
100
AcDbSpline
210
0.0
220
0.0
230
1.0
 70
     0
 71
     3
 72
     8
 73
     4
 74
     0
 42
0.0000000001
 43
0.0000000001
 40
0.0
 40
0.0
 40
0.0
 40
0.0
 40
1.0
 40
1.0
 40
1.0
 40
1.0
 10
160.73510000000002
 20
-208.40360000000001
 30
0.0
 10
160.73510000000002
 20
-208.40360000000001
 30
0.0
 10
160.33000000000001
 20
-231.596
 30
0.0
 10
160.33000000000001
 20
-231.596
 30
0.0
  0
SPLINE
  5
122
100
AcDbEntity
  8
0
370
     5
 62
     1
100
AcDbSpline
210
0.0
220
0.0
230
1.0
 70
     0
 71
     3
 72
     8
 73
     4
 74
     0
 42
0.0000000001
 43
0.0000000001
 40
0.0
 40
0.0
 40
0.0
 40
0.0
 40
1.0
 40
1.0
 40
1.0
 40
1.0
 10
160.33000000000001
 20
-231.596
 30
0.0
 10
167.62730000000002
 20
-231.69410000000002
 30
0.0
 10
174.56180000000001
 20
-232.35920000000002
 30
0.0
 10
178.17350000000002
 20
-233.69050000000001
 30
0.0
  0
SPLINE
  5
123
100
AcDbEntity
  8
0
370
     5
 62
     1
100
AcDbSpline
210
0.0
220
0.0
230
1.0
 70
     0
 71
     3
 72
     8
 73
     4
 74
     0
 42
0.0000000001
 43
0.0000000001
 40
0.0
 40
0.0
 40
0.0
 40
0.0
 40
1.0
 40
1.0
 40
1.0
 40
1.0
 10
178.17350000000002
 20
-233.69050000000001
 30
0.0
 10
185.7054
 20
-238.33870000000002
 30
0.0
 10
196.14240000000001
 20
-236.0924
 30
0.0
 10
197.66420000000002
 20
-226.6422
 30
0.0
  0
SPLINE
  5
124
100
AcDbEntity
  8
0
370
     5
 62
     1
100
AcDbSpline
210
0.0
220
0.0
230
1.0
 70
     0
 71
     3
 72
     8
 73
     4
 74
     0
 42
0.0000000001
 43
0.0000000001
 40
0.0
 40
0.0
 40
0.0
 40
0.0
 40
1.0
 40
1.0
 40
1.0
 40
1.0
 10
197.66420000000002
 20
-226.6422
 30
0.0
 10
197.3571
 20
-207.9812
 30
0.0
 10
197.79060000000001
 20
-188.93260000000001
 30
0.0
 10
185.6379
 20
-176.47499999999999
 30
0.0
  0
SPLINE
  5
125
100
AcDbEntity
  8
0
370
     5
 62
     1
100
AcDbSpline
210
0.0
220
0.0
230
1.0
 70
     0
 71
     3
 72
     8
 73
     4
 74
     0
 42
0.0000000001
 43
0.0000000001
 40
0.0
 40
0.0
 40
0.0
 40
0.0
 40
1.0
 40
1.0
 40
1.0
 40
1.0
 10
185.6379
 20
-176.47499999999999
 30
0.0
 10
180.8689
 20
-171.84540000000001
 30
0.0
 10
173.88810000000001
 20
-170.60160000000002
 30
0.0
 10
164.69589999999999
 20
-173.15800000000002
 30
0.0
  0
SPLINE
  5
126
100
AcDbEntity
  8
0
370
     5
 62
     1
100
AcDbSpline
210
0.0
220
0.0
230
1.0
 70
     0
 71
     3
 72
     8
 73
     4
 74
     0
 42
0.0000000001
 43
0.0000000001
 40
0.0
 40
0.0
 40
0.0
 40
0.0
 40
1.0
 40
1.0
 40
1.0
 40
1.0
 10
164.69589999999999
 20
-173.15800000000002
 30
0.0
 10
160.3415
 20
-174.88560000000001
 30
0.0
 10
156.26349999999999
 20
-175.16220000000001
 30
0.0
 10
152.4622
 20
-173.5728
 30
0.0
  0
SPLINE
  5
127
100
AcDbEntity
  8
0
370
     5
 62
     1
100
AcDbSpline
210
0.0
220
0.0
230
1.0
 70
     0
 71
     3
 72
     8
 73
     4
 74
     0
 42
0.0000000001
 43
0.0000000001
 40
0.0
 40
0.0
 40
0.0
 40
0.0
 40
1.0
 40
1.0
 40
1.0
 40
1.0
 10
152.4622
 20
-173.5728
 30
0.0
 10
144.9975
 20
-170.11780000000002
 30
0.0
 10
137.53280000000001
 20
-171.63800000000001
 30
0.0
 10
131.31270000000001
 20
-176.8895
 30
0.0
  0
SPLINE
  5
128
100
AcDbEntity
  8
0
370
     5
 62
     1
100
AcDbSpline
210
0.0
220
0.0
230
1.0
 70
     0
 71
     3
 72
     8
 73
     4
 74
     0
 42
0.0000000001
 43
0.0000000001
 40
0.0
 40
0.0
 40
0.0
 40
0.0
 40
1.0
 40
1.0
 40
1.0
 40
1.0
 10
131.31270000000001
 20
-176.8895
 30
0.0
 10
122.229
 20
-188.82220000000001
 30
0.0
 10
119.313
 20
-205.37950000000001
 30
0.0
 10
119.0792
 20
-223.94730000000001
 30
0.0
  0
SPLINE
  5
129
100
AcDbEntity
  8
0
370
     5
 62
     1
100
AcDbSpline
210
0.0
220
0.0
230
1.0
 70
     0
 71
     3
 72
     8
 73
     4
 74
     0
 42
0.0000000001
 43
0.0000000001
 40
0.0
 40
0.0
 40
0.0
 40
0.0
 40
1.0
 40
1.0
 40
1.0
 40
1.0
 10
33.011900000000004
 20
-222.13850000000002
 30
0.0
 10
35.954100000000004
 20
-236.09180000000001
 30
0.0
 10
29.899700000000003
 20
-244.1763
 30
0.0
 10
23.235100000000003
 20
-257.8202
 30
0.0
  0
SPLINE
  5
12A
100
AcDbEntity
  8
0
370
     5
 62
     1
100
AcDbSpline
210
0.0
220
0.0
230
1.0
 70
     0
 71
     3
 72
     8
 73
     4
 74
     0
 42
0.0000000001
 43
0.0000000001
 40
0.0
 40
0.0
 40
0.0
 40
0.0
 40
1.0
 40
1.0
 40
1.0
 40
1.0
 10
23.235100000000003
 20
-257.8202
 30
0.0
 10
20.430600000000002
 20
-263.10160000000002
 30
0.0
 10
20.796400000000002
 20
-267.45940000000002
 30
0.0
 10
28.136000000000003
 20
-269.78520000000003
 30
0.0
  0
SPLINE
  5
12B
100
AcDbEntity
  8
0
370
     5
 62
     1
100
AcDbSpline
210
0.0
220
0.0
230
1.0
 70
     0
 71
     3
 72
     8
 73
     4
 74
     0
 42
0.0000000001
 43
0.0000000001
 40
0.0
 40
0.0
 40
0.0
 40
0.0
 40
1.0
 40
1.0
 40
1.0
 40
1.0
 10
28.136000000000003
 20
-269.78520000000003
 30
0.0
 10
40.0916
 20
-274.4375
 30
0.0
 10
40.983000000000004
 20
-275.68049999999999
 30
0.0
 10
49.9465
 20
-269.21660000000003
 30
0.0
  0
SPLINE
  5
12C
100
AcDbEntity
  8
0
370
     5
 62
     1
100
AcDbSpline
210
0.0
220
0.0
230
1.0
 70
     0
 71
     3
 72
     8
 73
     4
 74
     0
 42
0.0000000001
 43
0.0000000001
 40
0.0
 40
0.0
 40
0.0
 40
0.0
 40
1.0
 40
1.0
 40
1.0
 40
1.0
 10
49.9465
 20
-269.21660000000003
 30
0.0
 10
54.176400000000001
 20
-267.75040000000001
 30
0.0
 10
58.496300000000005
 20
-268.72550000000001
 30
0.0
 10
59.902500000000003
 20
-271.84230000000002
 30
0.0
  0
SPLINE
  5
12D
100
AcDbEntity
  8
0
370
     5
 62
     1
100
AcDbSpline
210
0.0
220
0.0
230
1.0
 70
     0
 71
     3
 72
     8
 73
     4
 74
     0
 42
0.0000000001
 43
0.0000000001
 40
0.0
 40
0.0
 40
0.0
 40
0.0
 40
1.0
 40
1.0
 40
1.0
 40
1.0
 10
59.902500000000003
 20
-271.84230000000002
 30
0.0
 10
60.4863
 20
-275.1114
 30
0.0
 10
65.465100000000007
 20
-275.0532
 30
0.0
 10
67.334000000000003
 20
-276.81999999999999
 30
0.0
  0
SPLINE
  5
12E
100
AcDbEntity
  8
0
370
     5
 62
     1
100
AcDbSpline
210
0.0
220
0.0
230
1.0
 70
     0
 71
     3
 72
     8
 73
     4
 74
     0
 42
0.0000000001
 43
0.0000000001
 40
0.0
 40
0.0
 40
0.0
 40
0.0
 40
1.0
 40
1.0
 40
1.0
 40
1.0
 10
67.334000000000003
 20
-276.81999999999999
 30
0.0
 10
70.486199999999997
 20
-278.55279999999999
 30
0.0
 10
71.190600000000003
 20
-282.27460000000002
 30
0.0
 10
70.432000000000002
 20
-286.00850000000003
 30
0.0
  0
SPLINE
  5
12F
100
AcDbEntity
  8
0
370
     5
 62
     1
100
AcDbSpline
210
0.0
220
0.0
230
1.0
 70
     0
 71
     3
 72
     8
 73
     4
 74
     0
 42
0.0000000001
 43
0.0000000001
 40
0.0
 40
0.0
 40
0.0
 40
0.0
 40
1.0
 40
1.0
 40
1.0
 40
1.0
 10
70.432000000000002
 20
-286.00850000000003
 30
0.0
 10
70.432000000000002
 20
-286.00850000000003
 30
0.0
 10
59.287700000000001
 20
-282.16579999999999
 30
0.0
 10
59.287700000000001
 20
-282.16579999999999
 30
0.0
  0
SPLINE
  5
130
100
AcDbEntity
  8
0
370
     5
 62
     1
100
AcDbSpline
210
0.0
220
0.0
230
1.0
 70
     0
 71
     3
 72
     8
 73
     4
 74
     0
 42
0.0000000001
 43
0.0000000001
 40
0.0
 40
0.0
 40
0.0
 40
0.0
 40
1.0
 40
1.0
 40
1.0
 40
1.0
 10
59.287700000000001
 20
-282.16579999999999
 30
0.0
 10
57.080300000000001
 20
-281.40469999999999
 30
0.0
 10
55.710900000000002
 20
-285.28579999999999
 30
0.0
 10
57.907700000000006
 20
-286.16480000000001
 30
0.0
  0
SPLINE
  5
131
100
AcDbEntity
  8
0
370
     5
 62
     1
100
AcDbSpline
210
0.0
220
0.0
230
1.0
 70
     0
 71
     3
 72
     8
 73
     4
 74
     0
 42
0.0000000001
 43
0.0000000001
 40
0.0
 40
0.0
 40
0.0
 40
0.0
 40
1.0
 40
1.0
 40
1.0
 40
1.0
 10
57.907700000000006
 20
-286.16480000000001
 30
0.0
 10
57.907700000000006
 20
-286.16480000000001
 30
0.0
 10
69.061700000000002
 20
-290.01080000000002
 30
0.0
 10
69.061700000000002
 20
-290.01080000000002
 30
0.0
  0
SPLINE
  5
132
100
AcDbEntity
  8
0
370
     5
 62
     1
100
AcDbSpline
210
0.0
220
0.0
230
1.0
 70
     0
 71
     3
 72
     8
 73
     4
 74
     0
 42
0.0000000001
 43
0.0000000001
 40
0.0
 40
0.0
 40
0.0
 40
0.0
 40
1.0
 40
1.0
 40
1.0
 40
1.0
 10
69.061700000000002
 20
-290.01080000000002
 30
0.0
 10
67.436000000000007
 20
-293.34370000000001
 30
0.0
 10
64.797700000000006
 20
-296.02620000000002
 30
0.0
 10
62.0077
 20
-296.31970000000001
 30
0.0
  0
SPLINE
  5
133
100
AcDbEntity
  8
0
370
     5
 62
     1
100
AcDbSpline
210
0.0
220
0.0
230
1.0
 70
     0
 71
     3
 72
     8
 73
     4
 74
     0
 42
0.0000000001
 43
0.0000000001
 40
0.0
 40
0.0
 40
0.0
 40
0.0
 40
1.0
 40
1.0
 40
1.0
 40
1.0
 10
62.0077
 20
-296.31970000000001
 30
0.0
 10
48.209400000000002
 20
-294.87950000000001
 30
0.0
 10
31.906400000000001
 20
-288.4144
 30
0.0
 10
11.940100000000001
 20
-274.60630000000003
 30
0.0
  0
SPLINE
  5
134
100
AcDbEntity
  8
0
370
     5
 62
     1
100
AcDbSpline
210
0.0
220
0.0
230
1.0
 70
     0
 71
     3
 72
     8
 73
     4
 74
     0
 42
0.0000000001
 43
0.0000000001
 40
0.0
 40
0.0
 40
0.0
 40
0.0
 40
1.0
 40
1.0
 40
1.0
 40
1.0
 10
11.940100000000001
 20
-274.60630000000003
 30
0.0
 10
7.6835000000000004
 20
-272.42570000000001
 30
0.0
 10
6.7175000000000002
 20
-268.24639999999999
 30
0.0
 10
9.0427
 20
-262.06889999999999
 30
0.0
  0
SPLINE
  5
135
100
AcDbEntity
  8
0
370
     5
 62
     1
100
AcDbSpline
210
0.0
220
0.0
230
1.0
 70
     0
 71
     3
 72
     8
 73
     4
 74
     0
 42
0.0000000001
 43
0.0000000001
 40
0.0
 40
0.0
 40
0.0
 40
0.0
 40
1.0
 40
1.0
 40
1.0
 40
1.0
 10
9.0427
 20
-262.06889999999999
 30
0.0
 10
13.556100000000001
 20
-252.792
 30
0.0
 10
19.665700000000001
 20
-243.66910000000001
 30
0.0
 10
22.6661
 20
-236.0146
 30
0.0
  0
SPLINE
  5
136
100
AcDbEntity
  8
0
370
     5
 62
     1
100
AcDbSpline
210
0.0
220
0.0
230
1.0
 70
     0
 71
     3
 72
     8
 73
     4
 74
     0
 42
0.0000000001
 43
0.0000000001
 40
0.0
 40
0.0
 40
0.0
 40
0.0
 40
1.0
 40
1.0
 40
1.0
 40
1.0
 10
22.6661
 20
-236.0146
 30
0.0
 10
30.448700000000002
 20
-216.14150000000001
 30
0.0
 10
13.006
 20
-192.11440000000002
 30
0.0
 10
-4.4996999999999998
 20
-183.62190000000001
 30
0.0
  0
SPLINE
  5
137
100
AcDbEntity
  8
0
370
     5
 62
     1
100
AcDbSpline
210
0.0
220
0.0
230
1.0
 70
     0
 71
     3
 72
     8
 73
     4
 74
     0
 42
0.0000000001
 43
0.0000000001
 40
0.0
 40
0.0
 40
0.0
 40
0.0
 40
1.0
 40
1.0
 40
1.0
 40
1.0
 10
-4.4996999999999998
 20
-183.62190000000001
 30
0.0
 10
-15.4268
 20
-181.1917
 30
0.0
 10
-12.375400000000001
 20
-174.41220000000001
 30
0.0
 10
-3.1938
 20
-176.85570000000001
 30
0.0
  0
SPLINE
  5
138
100
AcDbEntity
  8
0
370
     5
 62
     1
100
AcDbSpline
210
0.0
220
0.0
230
1.0
 70
     0
 71
     3
 72
     8
 73
     4
 74
     0
 42
0.0000000001
 43
0.0000000001
 40
0.0
 40
0.0
 40
0.0
 40
0.0
 40
1.0
 40
1.0
 40
1.0
 40
1.0
 10
-3.1938
 20
-176.85570000000001
 30
0.0
 10
16.1035
 20
-182.08370000000002
 30
0.0
 10
29.656100000000002
 20
-203.20230000000001
 30
0.0
 10
33.011900000000004
 20
-222.13850000000002
 30
0.0
  0
SPLINE
  5
139
100
AcDbEntity
  8
0
370
     5
 62
     1
100
AcDbSpline
210
0.0
220
0.0
230
1.0
 70
     0
 71
     3
 72
     8
 73
     4
 74
     0
 42
0.0000000001
 43
0.0000000001
 40
0.0
 40
0.0
 40
0.0
 40
0.0
 40
1.0
 40
1.0
 40
1.0
 40
1.0
 10
180.3235
 20
-30.732500000000002
 30
0.0
 10
180.239
 20
-30.7303
 30
0.0
 10
180.15560000000002
 20
-30.729700000000001
 30
0.0
 10
180.0729
 20
-30.729500000000002
 30
0.0
  0
SPLINE
  5
13A
100
AcDbEntity
  8
0
370
     5
 62
     1
100
AcDbSpline
210
0.0
220
0.0
230
1.0
 70
     0
 71
     3
 72
     8
 73
     4
 74
     0
 42
0.0000000001
 43
0.0000000001
 40
0.0
 40
0.0
 40
0.0
 40
0.0
 40
1.0
 40
1.0
 40
1.0
 40
1.0
 10
180.0729
 20
-30.729500000000002
 30
0.0
 10
173.262
 20
-30.113100000000003
 30
0.0
 10
171.16640000000001
 20
-25.7973
 30
0.0
 10
170.78030000000001
 20
-18.786300000000001
 30
0.0
  0
SPLINE
  5
13B
100
AcDbEntity
  8
0
370
     5
 62
     1
100
AcDbSpline
210
0.0
220
0.0
230
1.0
 70
     0
 71
     3
 72
     8
 73
     4
 74
     0
 42
0.0000000001
 43
0.0000000001
 40
0.0
 40
0.0
 40
0.0
 40
0.0
 40
1.0
 40
1.0
 40
1.0
 40
1.0
 10
170.78030000000001
 20
-18.786300000000001
 30
0.0
 10
170.90050000000002
 20
-12.165700000000001
 30
0.0
 10
167.76000000000002
 20
-11.230400000000001
 30
0.0
 10
162.12210000000002
 20
-14.465900000000001
 30
0.0
  0
SPLINE
  5
13C
100
AcDbEntity
  8
0
370
     5
 62
     1
100
AcDbSpline
210
0.0
220
0.0
230
1.0
 70
     0
 71
     3
 72
     8
 73
     4
 74
     0
 42
0.0000000001
 43
0.0000000001
 40
0.0
 40
0.0
 40
0.0
 40
0.0
 40
1.0
 40
1.0
 40
1.0
 40
1.0
 10
162.12210000000002
 20
-14.465900000000001
 30
0.0
 10
149.2894
 20
-19.445
 30
0.0
 10
140.78110000000001
 20
-14.399800000000001
 30
0.0
 10
137.84460000000001
 20
-6.6632000000000007
 30
0.0
  0
SPLINE
  5
13D
100
AcDbEntity
  8
0
370
     5
 62
     1
100
AcDbSpline
210
0.0
220
0.0
230
1.0
 70
     0
 71
     3
 72
     8
 73
     4
 74
     0
 42
0.0000000001
 43
0.0000000001
 40
0.0
 40
0.0
 40
0.0
 40
0.0
 40
1.0
 40
1.0
 40
1.0
 40
1.0
 10
137.84460000000001
 20
-6.6632000000000007
 30
0.0
 10
135.31040000000002
 20
5.9045000000000005
 30
0.0
 10
130.1052
 20
7.8997000000000002
 30
0.0
 10
126.161
 20
16.8887
 30
0.0
  0
SPLINE
  5
13E
100
AcDbEntity
  8
0
370
     5
 62
     1
100
AcDbSpline
210
0.0
220
0.0
230
1.0
 70
     0
 71
     3
 72
     8
 73
     4
 74
     0
 42
0.0000000001
 43
0.0000000001
 40
0.0
 40
0.0
 40
0.0
 40
0.0
 40
1.0
 40
1.0
 40
1.0
 40
1.0
 10
126.161
 20
16.8887
 30
0.0
 10
123.4465
 20
29.9054
 30
0.0
 10
125.28530000000001
 20
41.647800000000004
 30
0.0
 10
130.6739
 20
56.414900000000003
 30
0.0
  0
SPLINE
  5
13F
100
AcDbEntity
  8
0
370
     5
 62
     1
100
AcDbSpline
210
0.0
220
0.0
230
1.0
 70
     0
 71
     3
 72
     8
 73
     4
 74
     0
 42
0.0000000001
 43
0.0000000001
 40
0.0
 40
0.0
 40
0.0
 40
0.0
 40
1.0
 40
1.0
 40
1.0
 40
1.0
 10
130.6739
 20
56.414900000000003
 30
0.0
 10
137.65110000000001
 20
74.4649
 30
0.0
 10
146.63400000000001
 20
81.85690000000001
 30
0.0
 10
172.67530000000002
 20
78.4328
 30
0.0
  0
SPLINE
  5
140
100
AcDbEntity
  8
0
370
     5
 62
     1
100
AcDbSpline
210
0.0
220
0.0
230
1.0
 70
     0
 71
     3
 72
     8
 73
     4
 74
     0
 42
0.0000000001
 43
0.0000000001
 40
0.0
 40
0.0
 40
0.0
 40
0.0
 40
1.0
 40
1.0
 40
1.0
 40
1.0
 10
172.67530000000002
 20
78.4328
 30
0.0
 10
172.67530000000002
 20
78.4328
 30
0.0
 10
166.8552
 20
42.203700000000005
 30
0.0
 10
166.8552
 20
42.203700000000005
 30
0.0
  0
SPLINE
  5
141
100
AcDbEntity
  8
0
370
     5
 62
     1
100
AcDbSpline
210
0.0
220
0.0
230
1.0
 70
     0
 71
     3
 72
     8
 73
     4
 74
     0
 42
0.0000000001
 43
0.0000000001
 40
0.0
 40
0.0
 40
0.0
 40
0.0
 40
1.0
 40
1.0
 40
1.0
 40
1.0
 10
166.8552
 20
42.203700000000005
 30
0.0
 10
166.39780000000002
 20
39.357100000000003
 30
0.0
 10
170.3475
 20
38.722900000000003
 30
0.0
 10
171.03710000000001
 20
41.532600000000002
 30
0.0
  0
SPLINE
  5
142
100
AcDbEntity
  8
0
370
     5
 62
     1
100
AcDbSpline
210
0.0
220
0.0
230
1.0
 70
     0
 71
     3
 72
     8
 73
     4
 74
     0
 42
0.0000000001
 43
0.0000000001
 40
0.0
 40
0.0
 40
0.0
 40
0.0
 40
1.0
 40
1.0
 40
1.0
 40
1.0
 10
171.03710000000001
 20
41.532600000000002
 30
0.0
 10
171.03710000000001
 20
41.532600000000002
 30
0.0
 10
176.87200000000001
 20
77.853200000000001
 30
0.0
 10
176.87200000000001
 20
77.853200000000001
 30
0.0
  0
SPLINE
  5
143
100
AcDbEntity
  8
0
370
     5
 62
     1
100
AcDbSpline
210
0.0
220
0.0
230
1.0
 70
     0
 71
     3
 72
     8
 73
     4
 74
     0
 42
0.0000000001
 43
0.0000000001
 40
0.0
 40
0.0
 40
0.0
 40
0.0
 40
1.0
 40
1.0
 40
1.0
 40
1.0
 10
176.87200000000001
 20
77.853200000000001
 30
0.0
 10
199.73340000000002
 20
74.4529
 30
0.0
 10
198.4425
 20
68.466700000000003
 30
0.0
 10
197.9855
 20
53.865000000000002
 30
0.0
  0
SPLINE
  5
144
100
AcDbEntity
  8
0
370
     5
 62
     1
100
AcDbSpline
210
0.0
220
0.0
230
1.0
 70
     0
 71
     3
 72
     8
 73
     4
 74
     0
 42
0.0000000001
 43
0.0000000001
 40
0.0
 40
0.0
 40
0.0
 40
0.0
 40
1.0
 40
1.0
 40
1.0
 40
1.0
 10
197.9855
 20
53.865000000000002
 30
0.0
 10
197.9855
 20
53.865000000000002
 30
0.0
 10
195.7817
 20
27.599700000000002
 30
0.0
 10
195.7817
 20
27.599700000000002
 30
0.0
  0
SPLINE
  5
145
100
AcDbEntity
  8
0
370
     5
 62
     1
100
AcDbSpline
210
0.0
220
0.0
230
1.0
 70
     0
 71
     3
 72
     8
 73
     4
 74
     0
 42
0.0000000001
 43
0.0000000001
 40
0.0
 40
0.0
 40
0.0
 40
0.0
 40
1.0
 40
1.0
 40
1.0
 40
1.0
 10
195.7817
 20
27.599700000000002
 30
0.0
 10
194.9385
 20
17.547000000000001
 30
0.0
 10
200.01320000000001
 20
16.118400000000001
 30
0.0
 10
198.4846
 20
6.9927999999999999
 30
0.0
  0
SPLINE
  5
146
100
AcDbEntity
  8
0
370
     5
 62
     1
100
AcDbSpline
210
0.0
220
0.0
230
1.0
 70
     0
 71
     3
 72
     8
 73
     4
 74
     0
 42
0.0000000001
 43
0.0000000001
 40
0.0
 40
0.0
 40
0.0
 40
0.0
 40
1.0
 40
1.0
 40
1.0
 40
1.0
 10
198.4846
 20
6.9927999999999999
 30
0.0
 10
197.8143
 20
-25.234400000000001
 30
0.0
 10
191.56450000000001
 20
-31.224500000000003
 30
0.0
 10
184.55930000000001
 20
-30.992100000000001
 30
0.0
  0
SPLINE
  5
147
100
AcDbEntity
  8
0
370
     5
 62
     1
100
AcDbSpline
210
0.0
220
0.0
230
1.0
 70
     0
 71
     3
 72
     8
 73
     4
 74
     0
 42
0.0000000001
 43
0.0000000001
 40
0.0
 40
0.0
 40
0.0
 40
0.0
 40
1.0
 40
1.0
 40
1.0
 40
1.0
 10
184.55930000000001
 20
-30.992100000000001
 30
0.0
 10
184.55930000000001
 20
-30.992100000000001
 30
0.0
 10
187.44670000000002
 20
-7.8975
 30
0.0
 10
187.44670000000002
 20
-7.8975
 30
0.0
  0
SPLINE
  5
148
100
AcDbEntity
  8
0
370
     5
 62
     1
100
AcDbSpline
210
0.0
220
0.0
230
1.0
 70
     0
 71
     3
 72
     8
 73
     4
 74
     0
 42
0.0000000001
 43
0.0000000001
 40
0.0
 40
0.0
 40
0.0
 40
0.0
 40
1.0
 40
1.0
 40
1.0
 40
1.0
 10
187.44670000000002
 20
-7.8975
 30
0.0
 10
187.5462
 20
-7.101
 30
0.0
 10
187.11780000000002
 20
-6.5081000000000007
 30
0.0
 10
186.49980000000002
 20
-6.1738
 30
0.0
  0
SPLINE
  5
149
100
AcDbEntity
  8
0
370
     5
 62
     1
100
AcDbSpline
210
0.0
220
0.0
230
1.0
 70
     0
 71
     3
 72
     8
 73
     4
 74
     0
 42
0.0000000001
 43
0.0000000001
 40
0.0
 40
0.0
 40
0.0
 40
0.0
 40
1.0
 40
1.0
 40
1.0
 40
1.0
 10
186.49980000000002
 20
-6.1738
 30
0.0
 10
186.23670000000001
 20
-6.0318000000000005
 30
0.0
 10
185.93950000000001
 20
-5.9359000000000002
 30
0.0
 10
185.6343
 20
-5.8913000000000002
 30
0.0
  0
SPLINE
  5
14A
100
AcDbEntity
  8
0
370
     5
 62
     1
100
AcDbSpline
210
0.0
220
0.0
230
1.0
 70
     0
 71
     3
 72
     8
 73
     4
 74
     0
 42
0.0000000001
 43
0.0000000001
 40
0.0
 40
0.0
 40
0.0
 40
0.0
 40
1.0
 40
1.0
 40
1.0
 40
1.0
 10
185.6343
 20
-5.8913000000000002
 30
0.0
 10
185.32910000000001
 20
-5.8470000000000004
 30
0.0
 10
185.01520000000002
 20
-5.8530000000000006
 30
0.0
 10
184.71890000000002
 20
-5.9141000000000004
 30
0.0
  0
SPLINE
  5
14B
100
AcDbEntity
  8
0
370
     5
 62
     1
100
AcDbSpline
210
0.0
220
0.0
230
1.0
 70
     0
 71
     3
 72
     8
 73
     4
 74
     0
 42
0.0000000001
 43
0.0000000001
 40
0.0
 40
0.0
 40
0.0
 40
0.0
 40
1.0
 40
1.0
 40
1.0
 40
1.0
 10
184.71890000000002
 20
-5.9141000000000004
 30
0.0
 10
184.0044
 20
-6.0613999999999999
 30
0.0
 10
183.392
 20
-6.5280000000000005
 30
0.0
 10
183.24370000000002
 20
-7.3721000000000005
 30
0.0
  0
SPLINE
  5
14C
100
AcDbEntity
  8
0
370
     5
 62
     1
100
AcDbSpline
210
0.0
220
0.0
230
1.0
 70
     0
 71
     3
 72
     8
 73
     4
 74
     0
 42
0.0000000001
 43
0.0000000001
 40
0.0
 40
0.0
 40
0.0
 40
0.0
 40
1.0
 40
1.0
 40
1.0
 40
1.0
 10
183.24370000000002
 20
-7.3721000000000005
 30
0.0
 10
183.24370000000002
 20
-7.3721000000000005
 30
0.0
 10
180.3235
 20
-30.732500000000002
 30
0.0
 10
180.3235
 20
-30.732500000000002
 30
0.0
  0
SPLINE
  5
14D
100
AcDbEntity
  8
0
370
     5
 62
     1
100
AcDbSpline
210
0.0
220
0.0
230
1.0
 70
     0
 71
     3
 72
     8
 73
     4
 74
     0
 42
0.0000000001
 43
0.0000000001
 40
0.0
 40
0.0
 40
0.0
 40
0.0
 40
1.0
 40
1.0
 40
1.0
 40
1.0
 10
67.813200000000009
 20
-1.3048
 30
0.0
 10
67.813200000000009
 20
-1.3048
 30
0.0
 10
61.324000000000005
 20
32.567799999999998
 30
0.0
 10
61.324000000000005
 20
32.567799999999998
 30
0.0
  0
SPLINE
  5
14E
100
AcDbEntity
  8
0
370
     5
 62
     1
100
AcDbSpline
210
0.0
220
0.0
230
1.0
 70
     0
 71
     3
 72
     8
 73
     4
 74
     0
 42
0.0000000001
 43
0.0000000001
 40
0.0
 40
0.0
 40
0.0
 40
0.0
 40
1.0
 40
1.0
 40
1.0
 40
1.0
 10
61.324000000000005
 20
32.567799999999998
 30
0.0
 10
56.334000000000003
 20
37.855699999999999
 30
0.0
 10
46.840000000000003
 20
37.590400000000002
 30
0.0
 10
44.468400000000003
 20
31.674000000000003
 30
0.0
  0
SPLINE
  5
14F
100
AcDbEntity
  8
0
370
     5
 62
     1
100
AcDbSpline
210
0.0
220
0.0
230
1.0
 70
     0
 71
     3
 72
     8
 73
     4
 74
     0
 42
0.0000000001
 43
0.0000000001
 40
0.0
 40
0.0
 40
0.0
 40
0.0
 40
1.0
 40
1.0
 40
1.0
 40
1.0
 10
44.468400000000003
 20
31.674000000000003
 30
0.0
 10
44.468400000000003
 20
31.674000000000003
 30
0.0
 10
37.729300000000002
 20
-3.5024000000000002
 30
0.0
 10
37.729300000000002
 20
-3.5024000000000002
 30
0.0
  0
SPLINE
  5
150
100
AcDbEntity
  8
0
370
     5
 62
     1
100
AcDbSpline
210
0.0
220
0.0
230
1.0
 70
     0
 71
     3
 72
     8
 73
     4
 74
     0
 42
0.0000000001
 43
0.0000000001
 40
0.0
 40
0.0
 40
0.0
 40
0.0
 40
1.0
 40
1.0
 40
1.0
 40
1.0
 10
37.729300000000002
 20
-3.5024000000000002
 30
0.0
 10
37.164400000000001
 20
-5.8233000000000006
 30
0.0
 10
33.1327
 20
-4.9873000000000003
 30
0.0
 10
33.569200000000002
 20
-2.7057000000000002
 30
0.0
  0
SPLINE
  5
151
100
AcDbEntity
  8
0
370
     5
 62
     1
100
AcDbSpline
210
0.0
220
0.0
230
1.0
 70
     0
 71
     3
 72
     8
 73
     4
 74
     0
 42
0.0000000001
 43
0.0000000001
 40
0.0
 40
0.0
 40
0.0
 40
0.0
 40
1.0
 40
1.0
 40
1.0
 40
1.0
 10
33.569200000000002
 20
-2.7057000000000002
 30
0.0
 10
33.569200000000002
 20
-2.7057000000000002
 30
0.0
 10
40.441800000000001
 20
33.166899999999998
 30
0.0
 10
40.441800000000001
 20
33.166899999999998
 30
0.0
  0
SPLINE
  5
152
100
AcDbEntity
  8
0
370
     5
 62
     1
100
AcDbSpline
210
0.0
220
0.0
230
1.0
 70
     0
 71
     3
 72
     8
 73
     4
 74
     0
 42
0.0000000001
 43
0.0000000001
 40
0.0
 40
0.0
 40
0.0
 40
0.0
 40
1.0
 40
1.0
 40
1.0
 40
1.0
 10
40.441800000000001
 20
33.166899999999998
 30
0.0
 10
37.185700000000004
 20
34.051000000000002
 30
0.0
 10
33.218499999999999
 20
34.062800000000003
 30
0.0
 10
30.261800000000001
 20
30.390800000000002
 30
0.0
  0
SPLINE
  5
153
100
AcDbEntity
  8
0
370
     5
 62
     1
100
AcDbSpline
210
0.0
220
0.0
230
1.0
 70
     0
 71
     3
 72
     8
 73
     4
 74
     0
 42
0.0000000001
 43
0.0000000001
 40
0.0
 40
0.0
 40
0.0
 40
0.0
 40
1.0
 40
1.0
 40
1.0
 40
1.0
 10
30.261800000000001
 20
30.390800000000002
 30
0.0
 10
30.261800000000001
 20
30.390800000000002
 30
0.0
 10
20.192700000000002
 20
-12.0527
 30
0.0
 10
20.192700000000002
 20
-12.0527
 30
0.0
  0
SPLINE
  5
154
100
AcDbEntity
  8
0
370
     5
 62
     1
100
AcDbSpline
210
0.0
220
0.0
230
1.0
 70
     0
 71
     3
 72
     8
 73
     4
 74
     0
 42
0.0000000001
 43
0.0000000001
 40
0.0
 40
0.0
 40
0.0
 40
0.0
 40
1.0
 40
1.0
 40
1.0
 40
1.0
 10
20.192700000000002
 20
-12.0527
 30
0.0
 10
19.524699999999999
 20
-14.356
 30
0.0
 10
15.5388
 20
-13.3223
 30
0.0
 10
16.071200000000001
 20
-11.0755
 30
0.0
  0
SPLINE
  5
155
100
AcDbEntity
  8
0
370
     5
 62
     1
100
AcDbSpline
210
0.0
220
0.0
230
1.0
 70
     0
 71
     3
 72
     8
 73
     4
 74
     0
 42
0.0000000001
 43
0.0000000001
 40
0.0
 40
0.0
 40
0.0
 40
0.0
 40
1.0
 40
1.0
 40
1.0
 40
1.0
 10
16.071200000000001
 20
-11.0755
 30
0.0
 10
16.071200000000001
 20
-11.0755
 30
0.0
 10
25.9451
 20
30.544
 30
0.0
 10
25.9451
 20
30.544
 30
0.0
  0
SPLINE
  5
156
100
AcDbEntity
  8
0
370
     5
 62
     1
100
AcDbSpline
210
0.0
220
0.0
230
1.0
 70
     0
 71
     3
 72
     8
 73
     4
 74
     0
 42
0.0000000001
 43
0.0000000001
 40
0.0
 40
0.0
 40
0.0
 40
0.0
 40
1.0
 40
1.0
 40
1.0
 40
1.0
 10
25.9451
 20
30.544
 30
0.0
 10
15.4138
 20
27.4725
 30
0.0
 10
10.8035
 20
15.577100000000002
 30
0.0
 10
7.2771000000000008
 20
2.6034000000000002
 30
0.0
  0
SPLINE
  5
157
100
AcDbEntity
  8
0
370
     5
 62
     1
100
AcDbSpline
210
0.0
220
0.0
230
1.0
 70
     0
 71
     3
 72
     8
 73
     4
 74
     0
 42
0.0000000001
 43
0.0000000001
 40
0.0
 40
0.0
 40
0.0
 40
0.0
 40
1.0
 40
1.0
 40
1.0
 40
1.0
 10
7.2771000000000008
 20
2.6034000000000002
 30
0.0
 10
0.8104
 20
-21.221900000000002
 30
0.0
 10
13.0068
 20
-41.555199999999999
 30
0.0
 10
34.8065
 20
-42.122100000000003
 30
0.0
  0
SPLINE
  5
158
100
AcDbEntity
  8
0
370
     5
 62
     1
100
AcDbSpline
210
0.0
220
0.0
230
1.0
 70
     0
 71
     3
 72
     8
 73
     4
 74
     0
 42
0.0000000001
 43
0.0000000001
 40
0.0
 40
0.0
 40
0.0
 40
0.0
 40
1.0
 40
1.0
 40
1.0
 40
1.0
 10
34.8065
 20
-42.122100000000003
 30
0.0
 10
40.309100000000001
 20
-41.949000000000005
 30
0.0
 10
45.043700000000001
 20
-41.785900000000005
 30
0.0
 10
49.658799999999999
 20
-41.625
 30
0.0
  0
SPLINE
  5
159
100
AcDbEntity
  8
0
370
     5
 62
     1
100
AcDbSpline
210
0.0
220
0.0
230
1.0
 70
     0
 71
     3
 72
     8
 73
     4
 74
     0
 42
0.0000000001
 43
0.0000000001
 40
0.0
 40
0.0
 40
0.0
 40
0.0
 40
1.0
 40
1.0
 40
1.0
 40
1.0
 10
49.658799999999999
 20
-41.625
 30
0.0
 10
49.658799999999999
 20
-41.625
 30
0.0
 10
48.356500000000004
 20
-18.015000000000001
 30
0.0
 10
48.356500000000004
 20
-18.015000000000001
 30
0.0
  0
SPLINE
  5
15A
100
AcDbEntity
  8
0
370
     5
 62
     1
100
AcDbSpline
210
0.0
220
0.0
230
1.0
 70
     0
 71
     3
 72
     8
 73
     4
 74
     0
 42
0.0000000001
 43
0.0000000001
 40
0.0
 40
0.0
 40
0.0
 40
0.0
 40
1.0
 40
1.0
 40
1.0
 40
1.0
 10
48.356500000000004
 20
-18.015000000000001
 30
0.0
 10
48.432500000000005
 20
-15.1257
 30
0.0
 10
52.423000000000002
 20
-14.905600000000002
 30
0.0
 10
52.581800000000001
 20
-17.7818
 30
0.0
  0
SPLINE
  5
15B
100
AcDbEntity
  8
0
370
     5
 62
     1
100
AcDbSpline
210
0.0
220
0.0
230
1.0
 70
     0
 71
     3
 72
     8
 73
     4
 74
     0
 42
0.0000000001
 43
0.0000000001
 40
0.0
 40
0.0
 40
0.0
 40
0.0
 40
1.0
 40
1.0
 40
1.0
 40
1.0
 10
52.581800000000001
 20
-17.7818
 30
0.0
 10
52.581800000000001
 20
-17.7818
 30
0.0
 10
53.888800000000003
 20
-41.4773
 30
0.0
 10
53.888800000000003
 20
-41.4773
 30
0.0
  0
SPLINE
  5
15C
100
AcDbEntity
  8
0
370
     5
 62
     1
100
AcDbSpline
210
0.0
220
0.0
230
1.0
 70
     0
 71
     3
 72
     8
 73
     4
 74
     0
 42
0.0000000001
 43
0.0000000001
 40
0.0
 40
0.0
 40
0.0
 40
0.0
 40
1.0
 40
1.0
 40
1.0
 40
1.0
 10
53.888800000000003
 20
-41.4773
 30
0.0
 10
58.770600000000002
 20
-41.306600000000003
 30
0.0
 10
63.742200000000004
 20
-41.135600000000004
 30
0.0
 10
69.578000000000003
 20
-40.951700000000002
 30
0.0
  0
SPLINE
  5
15D
100
AcDbEntity
  8
0
370
     5
 62
     1
100
AcDbSpline
210
0.0
220
0.0
230
1.0
 70
     0
 71
     3
 72
     8
 73
     4
 74
     0
 42
0.0000000001
 43
0.0000000001
 40
0.0
 40
0.0
 40
0.0
 40
0.0
 40
1.0
 40
1.0
 40
1.0
 40
1.0
 10
69.578000000000003
 20
-40.951700000000002
 30
0.0
 10
83.417100000000005
 20
-39.633800000000001
 30
0.0
 10
97.035800000000009
 20
-30.197300000000002
 30
0.0
 10
97.084699999999998
 20
-8.1213999999999995
 30
0.0
  0
SPLINE
  5
15E
100
AcDbEntity
  8
0
370
     5
 62
     1
100
AcDbSpline
210
0.0
220
0.0
230
1.0
 70
     0
 71
     3
 72
     8
 73
     4
 74
     0
 42
0.0000000001
 43
0.0000000001
 40
0.0
 40
0.0
 40
0.0
 40
0.0
 40
1.0
 40
1.0
 40
1.0
 40
1.0
 10
97.084699999999998
 20
-8.1213999999999995
 30
0.0
 10
97.122
 20
8.6769999999999996
 30
0.0
 10
91.274799999999999
 20
26.439
 30
0.0
 10
80.36290000000001
 20
31.0045
 30
0.0
  0
SPLINE
  5
15F
100
AcDbEntity
  8
0
370
     5
 62
     1
100
AcDbSpline
210
0.0
220
0.0
230
1.0
 70
     0
 71
     3
 72
     8
 73
     4
 74
     0
 42
0.0000000001
 43
0.0000000001
 40
0.0
 40
0.0
 40
0.0
 40
0.0
 40
1.0
 40
1.0
 40
1.0
 40
1.0
 10
80.36290000000001
 20
31.0045
 30
0.0
 10
80.36290000000001
 20
31.0045
 30
0.0
 10
87.60260000000001
 20
-9.3993000000000002
 30
0.0
 10
87.60260000000001
 20
-9.3993000000000002
 30
0.0
  0
SPLINE
  5
160
100
AcDbEntity
  8
0
370
     5
 62
     1
100
AcDbSpline
210
0.0
220
0.0
230
1.0
 70
     0
 71
     3
 72
     8
 73
     4
 74
     0
 42
0.0000000001
 43
0.0000000001
 40
0.0
 40
0.0
 40
0.0
 40
0.0
 40
1.0
 40
1.0
 40
1.0
 40
1.0
 10
87.60260000000001
 20
-9.3993000000000002
 30
0.0
 10
87.743900000000011
 20
-10.189
 30
0.0
 10
87.347300000000004
 20
-10.804
 30
0.0
 10
86.747900000000001
 20
-11.170500000000001
 30
0.0
  0
SPLINE
  5
161
100
AcDbEntity
  8
0
370
     5
 62
     1
100
AcDbSpline
210
0.0
220
0.0
230
1.0
 70
     0
 71
     3
 72
     8
 73
     4
 74
     0
 42
0.0000000001
 43
0.0000000001
 40
0.0
 40
0.0
 40
0.0
 40
0.0
 40
1.0
 40
1.0
 40
1.0
 40
1.0
 10
86.747900000000001
 20
-11.170500000000001
 30
0.0
 10
86.493099999999998
 20
-11.325800000000001
 30
0.0
 10
86.2012
 20
-11.438000000000001
 30
0.0
 10
85.898700000000005
 20
-11.4985
 30
0.0
  0
SPLINE
  5
162
100
AcDbEntity
  8
0
370
     5
 62
     1
100
AcDbSpline
210
0.0
220
0.0
230
1.0
 70
     0
 71
     3
 72
     8
 73
     4
 74
     0
 42
0.0000000001
 43
0.0000000001
 40
0.0
 40
0.0
 40
0.0
 40
0.0
 40
1.0
 40
1.0
 40
1.0
 40
1.0
 10
85.898700000000005
 20
-11.4985
 30
0.0
 10
85.596699999999998
 20
-11.5588
 30
0.0
 10
85.282600000000002
 20
-11.5694
 30
0.0
 10
84.982900000000001
 20
-11.524100000000001
 30
0.0
  0
SPLINE
  5
163
100
AcDbEntity
  8
0
370
     5
 62
     1
100
AcDbSpline
210
0.0
220
0.0
230
1.0
 70
     0
 71
     3
 72
     8
 73
     4
 74
     0
 42
0.0000000001
 43
0.0000000001
 40
0.0
 40
0.0
 40
0.0
 40
0.0
 40
1.0
 40
1.0
 40
1.0
 40
1.0
 10
84.982900000000001
 20
-11.524100000000001
 30
0.0
 10
84.2624
 20
-11.4147
 30
0.0
 10
83.625799999999998
 20
-10.9811
 30
0.0
 10
83.433400000000006
 20
-10.145900000000001
 30
0.0
  0
SPLINE
  5
164
100
AcDbEntity
  8
0
370
     5
 62
     1
100
AcDbSpline
210
0.0
220
0.0
230
1.0
 70
     0
 71
     3
 72
     8
 73
     4
 74
     0
 42
0.0000000001
 43
0.0000000001
 40
0.0
 40
0.0
 40
0.0
 40
0.0
 40
1.0
 40
1.0
 40
1.0
 40
1.0
 10
83.433400000000006
 20
-10.145900000000001
 30
0.0
 10
83.433400000000006
 20
-10.145900000000001
 30
0.0
 10
76.326000000000008
 20
29.520700000000001
 30
0.0
 10
76.326000000000008
 20
29.520700000000001
 30
0.0
  0
SPLINE
  5
165
100
AcDbEntity
  8
0
370
     5
 62
     1
100
AcDbSpline
210
0.0
220
0.0
230
1.0
 70
     0
 71
     3
 72
     8
 73
     4
 74
     0
 42
0.0000000001
 43
0.0000000001
 40
0.0
 40
0.0
 40
0.0
 40
0.0
 40
1.0
 40
1.0
 40
1.0
 40
1.0
 10
76.326000000000008
 20
29.520700000000001
 30
0.0
 10
73.098200000000006
 20
32.966900000000003
 30
0.0
 10
69.128799999999998
 20
33.949000000000005
 30
0.0
 10
65.486400000000003
 20
33.351800000000004
 30
0.0
  0
SPLINE
  5
166
100
AcDbEntity
  8
0
370
     5
 62
     1
100
AcDbSpline
210
0.0
220
0.0
230
1.0
 70
     0
 71
     3
 72
     8
 73
     4
 74
     0
 42
0.0000000001
 43
0.0000000001
 40
0.0
 40
0.0
 40
0.0
 40
0.0
 40
1.0
 40
1.0
 40
1.0
 40
1.0
 10
65.486400000000003
 20
33.351800000000004
 30
0.0
 10
65.486400000000003
 20
33.351800000000004
 30
0.0
 10
71.973100000000002
 20
-0.5079
 30
0.0
 10
71.973100000000002
 20
-0.5079
 30
0.0
  0
SPLINE
  5
167
100
AcDbEntity
  8
0
370
     5
 62
     1
100
AcDbSpline
210
0.0
220
0.0
230
1.0
 70
     0
 71
     3
 72
     8
 73
     4
 74
     0
 42
0.0000000001
 43
0.0000000001
 40
0.0
 40
0.0
 40
0.0
 40
0.0
 40
1.0
 40
1.0
 40
1.0
 40
1.0
 10
71.973100000000002
 20
-0.5079
 30
0.0
 10
72.409500000000008
 20
-2.7888999999999999
 30
0.0
 10
68.376800000000003
 20
-3.6264000000000003
 30
0.0
 10
67.813200000000009
 20
-1.3048
 30
0.0
  0
SPLINE
  5
168
100
AcDbEntity
  8
0
370
     5
 62
     1
100
AcDbSpline
210
0.0
220
0.0
230
1.0
 70
     0
 71
     3
 72
     8
 73
     4
 74
     0
 42
0.0000000001
 43
0.0000000001
 40
0.0
 40
0.0
 40
0.0
 40
0.0
 40
1.0
 40
1.0
 40
1.0
 40
1.0
 10
106.38380000000001
 20
68.0441
 30
0.0
 10
108.7641
 20
56.413200000000003
 30
0.0
 10
111.57130000000001
 20
44.822500000000005
 30
0.0
 10
113.95200000000001
 20
33.191400000000002
 30
0.0
  0
SPLINE
  5
169
100
AcDbEntity
  8
0
370
     5
 62
     1
100
AcDbSpline
210
0.0
220
0.0
230
1.0
 70
     0
 71
     3
 72
     8
 73
     4
 74
     0
 42
0.0000000001
 43
0.0000000001
 40
0.0
 40
0.0
 40
0.0
 40
0.0
 40
1.0
 40
1.0
 40
1.0
 40
1.0
 10
113.95200000000001
 20
33.191400000000002
 30
0.0
 10
114.32430000000001
 20
26.877200000000002
 30
0.0
 10
117.1444
 20
21.643700000000003
 30
0.0
 10
121.48320000000001
 20
17.080200000000001
 30
0.0
  0
SPLINE
  5
16A
100
AcDbEntity
  8
0
370
     5
 62
     1
100
AcDbSpline
210
0.0
220
0.0
230
1.0
 70
     0
 71
     3
 72
     8
 73
     4
 74
     0
 42
0.0000000001
 43
0.0000000001
 40
0.0
 40
0.0
 40
0.0
 40
0.0
 40
1.0
 40
1.0
 40
1.0
 40
1.0
 10
121.48320000000001
 20
17.080200000000001
 30
0.0
 10
123.9149
 20
13.280900000000001
 30
0.0
 10
124.37820000000001
 20
9.0884999999999998
 30
0.0
 10
120.55670000000001
 20
4.0392999999999999
 30
0.0
  0
SPLINE
  5
16B
100
AcDbEntity
  8
0
370
     5
 62
     1
100
AcDbSpline
210
0.0
220
0.0
230
1.0
 70
     0
 71
     3
 72
     8
 73
     4
 74
     0
 42
0.0000000001
 43
0.0000000001
 40
0.0
 40
0.0
 40
0.0
 40
0.0
 40
1.0
 40
1.0
 40
1.0
 40
1.0
 10
120.55670000000001
 20
4.0392999999999999
 30
0.0
 10
120.55670000000001
 20
4.0392999999999999
 30
0.0
 10
113.6438
 20
14.233600000000001
 30
0.0
 10
113.6438
 20
14.233600000000001
 30
0.0
  0
SPLINE
  5
16C
100
AcDbEntity
  8
0
370
     5
 62
     1
100
AcDbSpline
210
0.0
220
0.0
230
1.0
 70
     0
 71
     3
 72
     8
 73
     4
 74
     0
 42
0.0000000001
 43
0.0000000001
 40
0.0
 40
0.0
 40
0.0
 40
0.0
 40
1.0
 40
1.0
 40
1.0
 40
1.0
 10
113.6438
 20
14.233600000000001
 30
0.0
 10
112.02680000000001
 20
16.618400000000001
 30
0.0
 10
108.7188
 20
14.3756
 30
0.0
 10
110.14120000000001
 20
11.8591
 30
0.0
  0
SPLINE
  5
16D
100
AcDbEntity
  8
0
370
     5
 62
     1
100
AcDbSpline
210
0.0
220
0.0
230
1.0
 70
     0
 71
     3
 72
     8
 73
     4
 74
     0
 42
0.0000000001
 43
0.0000000001
 40
0.0
 40
0.0
 40
0.0
 40
0.0
 40
1.0
 40
1.0
 40
1.0
 40
1.0
 10
110.14120000000001
 20
11.8591
 30
0.0
 10
110.14120000000001
 20
11.8591
 30
0.0
 10
117.36790000000001
 20
1.2023000000000001
 30
0.0
 10
117.36790000000001
 20
1.2023000000000001
 30
0.0
  0
SPLINE
  5
16E
100
AcDbEntity
  8
0
370
     5
 62
     1
100
AcDbSpline
210
0.0
220
0.0
230
1.0
 70
     0
 71
     3
 72
     8
 73
     4
 74
     0
 42
0.0000000001
 43
0.0000000001
 40
0.0
 40
0.0
 40
0.0
 40
0.0
 40
1.0
 40
1.0
 40
1.0
 40
1.0
 10
117.36790000000001
 20
1.2023000000000001
 30
0.0
 10
113.0446
 20
-1.7827000000000002
 30
0.0
 10
109.57520000000001
 20
-0.7951
 30
0.0
 10
106.72120000000001
 20
2.6736
 30
0.0
  0
SPLINE
  5
16F
100
AcDbEntity
  8
0
370
     5
 62
     1
100
AcDbSpline
210
0.0
220
0.0
230
1.0
 70
     0
 71
     3
 72
     8
 73
     4
 74
     0
 42
0.0000000001
 43
0.0000000001
 40
0.0
 40
0.0
 40
0.0
 40
0.0
 40
1.0
 40
1.0
 40
1.0
 40
1.0
 10
106.72120000000001
 20
2.6736
 30
0.0
 10
103.2748
 20
7.5118
 30
0.0
 10
96.354500000000002
 20
8.0175999999999998
 30
0.0
 10
97.459600000000009
 20
19.292100000000001
 30
0.0
  0
SPLINE
  5
170
100
AcDbEntity
  8
0
370
     5
 62
     1
100
AcDbSpline
210
0.0
220
0.0
230
1.0
 70
     0
 71
     3
 72
     8
 73
     4
 74
     0
 42
0.0000000001
 43
0.0000000001
 40
0.0
 40
0.0
 40
0.0
 40
0.0
 40
1.0
 40
1.0
 40
1.0
 40
1.0
 10
97.459600000000009
 20
19.292100000000001
 30
0.0
 10
98.237000000000009
 20
31.1251
 30
0.0
 10
97.86930000000001
 20
44.599700000000006
 30
0.0
 10
95.572900000000004
 20
59.813800000000001
 30
0.0
  0
SPLINE
  5
171
100
AcDbEntity
  8
0
370
     5
 62
     1
100
AcDbSpline
210
0.0
220
0.0
230
1.0
 70
     0
 71
     3
 72
     8
 73
     4
 74
     0
 42
0.0000000001
 43
0.0000000001
 40
0.0
 40
0.0
 40
0.0
 40
0.0
 40
1.0
 40
1.0
 40
1.0
 40
1.0
 10
95.572900000000004
 20
59.813800000000001
 30
0.0
 10
94.243500000000012
 20
66.227800000000002
 30
0.0
 10
89.354200000000006
 20
66.725300000000004
 30
0.0
 10
81.845700000000008
 20
63.202300000000001
 30
0.0
  0
SPLINE
  5
172
100
AcDbEntity
  8
0
370
     5
 62
     1
100
AcDbSpline
210
0.0
220
0.0
230
1.0
 70
     0
 71
     3
 72
     8
 73
     4
 74
     0
 42
0.0000000001
 43
0.0000000001
 40
0.0
 40
0.0
 40
0.0
 40
0.0
 40
1.0
 40
1.0
 40
1.0
 40
1.0
 10
81.845700000000008
 20
63.202300000000001
 30
0.0
 10
59.080500000000001
 20
53.796900000000001
 30
0.0
 10
38.367800000000003
 20
49.273900000000005
 30
0.0
 10
14.903
 20
52.319400000000002
 30
0.0
  0
SPLINE
  5
173
100
AcDbEntity
  8
0
370
     5
 62
     1
100
AcDbSpline
210
0.0
220
0.0
230
1.0
 70
     0
 71
     3
 72
     8
 73
     4
 74
     0
 42
0.0000000001
 43
0.0000000001
 40
0.0
 40
0.0
 40
0.0
 40
0.0
 40
1.0
 40
1.0
 40
1.0
 40
1.0
 10
14.903
 20
52.319400000000002
 30
0.0
 10
-9.5690000000000008
 20
54.443800000000003
 30
0.0
 10
-26.478200000000001
 20
62.868100000000005
 30
0.0
 10
-30.2103
 20
75.814999999999998
 30
0.0
  0
SPLINE
  5
174
100
AcDbEntity
  8
0
370
     5
 62
     1
100
AcDbSpline
210
0.0
220
0.0
230
1.0
 70
     0
 71
     3
 72
     8
 73
     4
 74
     0
 42
0.0000000001
 43
0.0000000001
 40
0.0
 40
0.0
 40
0.0
 40
0.0
 40
1.0
 40
1.0
 40
1.0
 40
1.0
 10
-30.2103
 20
75.814999999999998
 30
0.0
 10
-33.5839
 20
82.608500000000006
 30
0.0
 10
-27.409500000000001
 20
86.024100000000004
 30
0.0
 10
-24.398500000000002
 20
80.448999999999998
 30
0.0
  0
SPLINE
  5
175
100
AcDbEntity
  8
0
370
     5
 62
     1
100
AcDbSpline
210
0.0
220
0.0
230
1.0
 70
     0
 71
     3
 72
     8
 73
     4
 74
     0
 42
0.0000000001
 43
0.0000000001
 40
0.0
 40
0.0
 40
0.0
 40
0.0
 40
1.0
 40
1.0
 40
1.0
 40
1.0
 10
-24.398500000000002
 20
80.448999999999998
 30
0.0
 10
-19.7912
 20
71.723700000000008
 30
0.0
 10
-12.2966
 20
65.955100000000002
 30
0.0
 10
-1.5409000000000002
 20
63.751800000000003
 30
0.0
  0
SPLINE
  5
176
100
AcDbEntity
  8
0
370
     5
 62
     1
100
AcDbSpline
210
0.0
220
0.0
230
1.0
 70
     0
 71
     3
 72
     8
 73
     4
 74
     0
 42
0.0000000001
 43
0.0000000001
 40
0.0
 40
0.0
 40
0.0
 40
0.0
 40
1.0
 40
1.0
 40
1.0
 40
1.0
 10
-1.5409000000000002
 20
63.751800000000003
 30
0.0
 10
13.167900000000001
 20
60.738500000000002
 30
0.0
 10
34.3294
 20
58.700300000000006
 30
0.0
 10
46.463200000000001
 20
62.894600000000004
 30
0.0
  0
SPLINE
  5
177
100
AcDbEntity
  8
0
370
     5
 62
     1
100
AcDbSpline
210
0.0
220
0.0
230
1.0
 70
     0
 71
     3
 72
     8
 73
     4
 74
     0
 42
0.0000000001
 43
0.0000000001
 40
0.0
 40
0.0
 40
0.0
 40
0.0
 40
1.0
 40
1.0
 40
1.0
 40
1.0
 10
46.463200000000001
 20
62.894600000000004
 30
0.0
 10
62.6691
 20
68.46520000000001
 30
0.0
 10
76.479200000000006
 20
74.719099999999997
 30
0.0
 10
93.646200000000007
 20
80.023300000000006
 30
0.0
  0
SPLINE
  5
178
100
AcDbEntity
  8
0
370
     5
 62
     1
100
AcDbSpline
210
0.0
220
0.0
230
1.0
 70
     0
 71
     3
 72
     8
 73
     4
 74
     0
 42
0.0000000001
 43
0.0000000001
 40
0.0
 40
0.0
 40
0.0
 40
0.0
 40
1.0
 40
1.0
 40
1.0
 40
1.0
 10
93.646200000000007
 20
80.023300000000006
 30
0.0
 10
100.72500000000001
 20
82.193700000000007
 30
0.0
 10
104.2116
 20
77.124400000000009
 30
0.0
 10
106.38380000000001
 20
68.0441
 30
0.0
  0
SPLINE
  5
179
100
AcDbEntity
  8
0
370
     5
 62
     1
100
AcDbSpline
210
0.0
220
0.0
230
1.0
 70
     0
 71
     3
 72
     8
 73
     4
 74
     0
 42
0.0000000001
 43
0.0000000001
 40
0.0
 40
0.0
 40
0.0
 40
0.0
 40
1.0
 40
1.0
 40
1.0
 40
1.0
 10
-41.267000000000003
 20
82.936300000000003
 30
0.0
 10
-35.376200000000004
 20
73.442900000000009
 30
0.0
 10
-29.493300000000001
 20
64.095500000000001
 30
0.0
 10
-23.602
 20
54.601800000000004
 30
0.0
  0
SPLINE
  5
17A
100
AcDbEntity
  8
0
370
     5
 62
     1
100
AcDbSpline
210
0.0
220
0.0
230
1.0
 70
     0
 71
     3
 72
     8
 73
     4
 74
     0
 42
0.0000000001
 43
0.0000000001
 40
0.0
 40
0.0
 40
0.0
 40
0.0
 40
1.0
 40
1.0
 40
1.0
 40
1.0
 10
-23.602
 20
54.601800000000004
 30
0.0
 10
-20.159700000000001
 20
48.960799999999999
 30
0.0
 10
-15.237400000000001
 20
44.753800000000005
 30
0.0
 10
-9.4945000000000004
 20
41.943800000000003
 30
0.0
  0
SPLINE
  5
17B
100
AcDbEntity
  8
0
370
     5
 62
     1
100
AcDbSpline
210
0.0
220
0.0
230
1.0
 70
     0
 71
     3
 72
     8
 73
     4
 74
     0
 42
0.0000000001
 43
0.0000000001
 40
0.0
 40
0.0
 40
0.0
 40
0.0
 40
1.0
 40
1.0
 40
1.0
 40
1.0
 10
-9.4945000000000004
 20
41.943800000000003
 30
0.0
 10
0.135
 20
35.874400000000001
 30
0.0
 10
4.0326000000000004
 20
30.072100000000002
 30
0.0
 10
2.2648999999999999
 20
23.3645
 30
0.0
  0
SPLINE
  5
17C
100
AcDbEntity
  8
0
370
     5
 62
     1
100
AcDbSpline
210
0.0
220
0.0
230
1.0
 70
     0
 71
     3
 72
     8
 73
     4
 74
     0
 42
0.0000000001
 43
0.0000000001
 40
0.0
 40
0.0
 40
0.0
 40
0.0
 40
1.0
 40
1.0
 40
1.0
 40
1.0
 10
2.2648999999999999
 20
23.3645
 30
0.0
 10
2.1666000000000003
 20
23.300800000000002
 30
0.0
 10
2.0678000000000001
 20
23.2376
 30
0.0
 10
1.9696
 20
23.1739
 30
0.0
  0
SPLINE
  5
17D
100
AcDbEntity
  8
0
370
     5
 62
     1
100
AcDbSpline
210
0.0
220
0.0
230
1.0
 70
     0
 71
     3
 72
     8
 73
     4
 74
     0
 42
0.0000000001
 43
0.0000000001
 40
0.0
 40
0.0
 40
0.0
 40
0.0
 40
1.0
 40
1.0
 40
1.0
 40
1.0
 10
1.9696
 20
23.1739
 30
0.0
 10
1.9696
 20
23.1739
 30
0.0
 10
-7.3909000000000002
 20
29.774600000000003
 30
0.0
 10
-7.3909000000000002
 20
29.774600000000003
 30
0.0
  0
SPLINE
  5
17E
100
AcDbEntity
  8
0
370
     5
 62
     1
100
AcDbSpline
210
0.0
220
0.0
230
1.0
 70
     0
 71
     3
 72
     8
 73
     4
 74
     0
 42
0.0000000001
 43
0.0000000001
 40
0.0
 40
0.0
 40
0.0
 40
0.0
 40
1.0
 40
1.0
 40
1.0
 40
1.0
 10
-7.3909000000000002
 20
29.774600000000003
 30
0.0
 10
-9.7458000000000009
 20
31.435500000000001
 30
0.0
 10
-12.049000000000001
 20
28.170000000000002
 30
0.0
 10
-9.8298000000000005
 20
26.317300000000003
 30
0.0
  0
SPLINE
  5
17F
100
AcDbEntity
  8
0
370
     5
 62
     1
100
AcDbSpline
210
0.0
220
0.0
230
1.0
 70
     0
 71
     3
 72
     8
 73
     4
 74
     0
 42
0.0000000001
 43
0.0000000001
 40
0.0
 40
0.0
 40
0.0
 40
0.0
 40
1.0
 40
1.0
 40
1.0
 40
1.0
 10
-9.8298000000000005
 20
26.317300000000003
 30
0.0
 10
-9.8298000000000005
 20
26.317300000000003
 30
0.0
 10
-1.5257000000000001
 20
20.461500000000001
 30
0.0
 10
-1.5257000000000001
 20
20.461500000000001
 30
0.0
  0
SPLINE
  5
180
100
AcDbEntity
  8
0
370
     5
 62
     1
100
AcDbSpline
210
0.0
220
0.0
230
1.0
 70
     0
 71
     3
 72
     8
 73
     4
 74
     0
 42
0.0000000001
 43
0.0000000001
 40
0.0
 40
0.0
 40
0.0
 40
0.0
 40
1.0
 40
1.0
 40
1.0
 40
1.0
 10
-1.5257000000000001
 20
20.461500000000001
 30
0.0
 10
-3.2479
 20
15.135100000000001
 30
0.0
 10
-5.7664
 20
16.894000000000002
 30
0.0
 10
-8.213000000000001
 20
17.3675
 30
0.0
  0
SPLINE
  5
181
100
AcDbEntity
  8
0
370
     5
 62
     1
100
AcDbSpline
210
0.0
220
0.0
230
1.0
 70
     0
 71
     3
 72
     8
 73
     4
 74
     0
 42
0.0000000001
 43
0.0000000001
 40
0.0
 40
0.0
 40
0.0
 40
0.0
 40
1.0
 40
1.0
 40
1.0
 40
1.0
 10
-8.213000000000001
 20
17.3675
 30
0.0
 10
-11.726000000000001
 20
18.528600000000001
 30
0.0
 10
-17.101700000000001
 20
21.8873
 30
0.0
 10
-19.6403
 20
22.138300000000001
 30
0.0
  0
SPLINE
  5
182
100
AcDbEntity
  8
0
370
     5
 62
     1
100
AcDbSpline
210
0.0
220
0.0
230
1.0
 70
     0
 71
     3
 72
     8
 73
     4
 74
     0
 42
0.0000000001
 43
0.0000000001
 40
0.0
 40
0.0
 40
0.0
 40
0.0
 40
1.0
 40
1.0
 40
1.0
 40
1.0
 10
-19.6403
 20
22.138300000000001
 30
0.0
 10
-22.749700000000001
 20
22.309900000000003
 30
0.0
 10
-27.394300000000001
 20
24.293700000000001
 30
0.0
 10
-30.983700000000002
 20
33.2913
 30
0.0
  0
SPLINE
  5
183
100
AcDbEntity
  8
0
370
     5
 62
     1
100
AcDbSpline
210
0.0
220
0.0
230
1.0
 70
     0
 71
     3
 72
     8
 73
     4
 74
     0
 42
0.0000000001
 43
0.0000000001
 40
0.0
 40
0.0
 40
0.0
 40
0.0
 40
1.0
 40
1.0
 40
1.0
 40
1.0
 10
-30.983700000000002
 20
33.2913
 30
0.0
 10
-35.263600000000004
 20
45.911900000000003
 30
0.0
 10
-41.680199999999999
 20
58.412700000000001
 30
0.0
 10
-50.234300000000005
 20
70.793300000000002
 30
0.0
  0
SPLINE
  5
184
100
AcDbEntity
  8
0
370
     5
 62
     1
100
AcDbSpline
210
0.0
220
0.0
230
1.0
 70
     0
 71
     3
 72
     8
 73
     4
 74
     0
 42
0.0000000001
 43
0.0000000001
 40
0.0
 40
0.0
 40
0.0
 40
0.0
 40
1.0
 40
1.0
 40
1.0
 40
1.0
 10
-50.234300000000005
 20
70.793300000000002
 30
0.0
 10
-54.344200000000001
 20
74.003600000000006
 30
0.0
 10
-59.027100000000004
 20
74.700699999999998
 30
0.0
 10
-64.214799999999997
 20
71.618200000000002
 30
0.0
  0
SPLINE
  5
185
100
AcDbEntity
  8
0
370
     5
 62
     1
100
AcDbSpline
210
0.0
220
0.0
230
1.0
 70
     0
 71
     3
 72
     8
 73
     4
 74
     0
 42
0.0000000001
 43
0.0000000001
 40
0.0
 40
0.0
 40
0.0
 40
0.0
 40
1.0
 40
1.0
 40
1.0
 40
1.0
 10
-64.214799999999997
 20
71.618200000000002
 30
0.0
 10
-88.769400000000005
 20
55.5062
 30
0.0
 10
-114.8219
 20
48.592100000000002
 30
0.0
 10
-141.61539999999999
 20
46.923999999999999
 30
0.0
  0
SPLINE
  5
186
100
AcDbEntity
  8
0
370
     5
 62
     1
100
AcDbSpline
210
0.0
220
0.0
230
1.0
 70
     0
 71
     3
 72
     8
 73
     4
 74
     0
 42
0.0000000001
 43
0.0000000001
 40
0.0
 40
0.0
 40
0.0
 40
0.0
 40
1.0
 40
1.0
 40
1.0
 40
1.0
 10
-141.61539999999999
 20
46.923999999999999
 30
0.0
 10
-163.94820000000001
 20
46.099600000000002
 30
0.0
 10
-181.2998
 20
46.823500000000003
 30
0.0
 10
-195.11160000000001
 20
54.740900000000003
 30
0.0
  0
SPLINE
  5
187
100
AcDbEntity
  8
0
370
     5
 62
     1
100
AcDbSpline
210
0.0
220
0.0
230
1.0
 70
     0
 71
     3
 72
     8
 73
     4
 74
     0
 42
0.0000000001
 43
0.0000000001
 40
0.0
 40
0.0
 40
0.0
 40
0.0
 40
1.0
 40
1.0
 40
1.0
 40
1.0
 10
-195.11160000000001
 20
54.740900000000003
 30
0.0
 10
-198.99080000000001
 20
57.024300000000004
 30
0.0
 10
-196.94240000000002
 20
64.735399999999998
 30
0.0
 10
-190.82510000000002
 20
61.704700000000003
 30
0.0
  0
SPLINE
  5
188
100
AcDbEntity
  8
0
370
     5
 62
     1
100
AcDbSpline
210
0.0
220
0.0
230
1.0
 70
     0
 71
     3
 72
     8
 73
     4
 74
     0
 42
0.0000000001
 43
0.0000000001
 40
0.0
 40
0.0
 40
0.0
 40
0.0
 40
1.0
 40
1.0
 40
1.0
 40
1.0
 10
-190.82510000000002
 20
61.704700000000003
 30
0.0
 10
-178.06460000000001
 20
54.919000000000004
 30
0.0
 10
-161.7373
 20
55.327400000000004
 30
0.0
 10
-147.4503
 20
55.412500000000001
 30
0.0
  0
SPLINE
  5
189
100
AcDbEntity
  8
0
370
     5
 62
     1
100
AcDbSpline
210
0.0
220
0.0
230
1.0
 70
     0
 71
     3
 72
     8
 73
     4
 74
     0
 42
0.0000000001
 43
0.0000000001
 40
0.0
 40
0.0
 40
0.0
 40
0.0
 40
1.0
 40
1.0
 40
1.0
 40
1.0
 10
-147.4503
 20
55.412500000000001
 30
0.0
 10
-135.24809999999999
 20
56.0503
 30
0.0
 10
-123.0891
 20
56.677700000000002
 30
0.0
 10
-112.2124
 20
60.452000000000005
 30
0.0
  0
SPLINE
  5
18A
100
AcDbEntity
  8
0
370
     5
 62
     1
100
AcDbSpline
210
0.0
220
0.0
230
1.0
 70
     0
 71
     3
 72
     8
 73
     4
 74
     0
 42
0.0000000001
 43
0.0000000001
 40
0.0
 40
0.0
 40
0.0
 40
0.0
 40
1.0
 40
1.0
 40
1.0
 40
1.0
 10
-112.2124
 20
60.452000000000005
 30
0.0
 10
-94.363
 20
65.813500000000005
 30
0.0
 10
-79.070900000000009
 20
79.927400000000006
 30
0.0
 10
-57.466500000000003
 20
87.724299999999999
 30
0.0
  0
SPLINE
  5
18B
100
AcDbEntity
  8
0
370
     5
 62
     1
100
AcDbSpline
210
0.0
220
0.0
230
1.0
 70
     0
 71
     3
 72
     8
 73
     4
 74
     0
 42
0.0000000001
 43
0.0000000001
 40
0.0
 40
0.0
 40
0.0
 40
0.0
 40
1.0
 40
1.0
 40
1.0
 40
1.0
 10
-57.466500000000003
 20
87.724299999999999
 30
0.0
 10
-51.820399999999999
 20
89.721900000000005
 30
0.0
 10
-45.768500000000003
 20
89.387600000000006
 30
0.0
 10
-41.267000000000003
 20
82.936300000000003
 30
0.0
  0
SPLINE
  5
18C
100
AcDbEntity
  8
0
370
     5
 62
     1
100
AcDbSpline
210
0.0
220
0.0
230
1.0
 70
     0
 71
     3
 72
     8
 73
     4
 74
     0
 42
0.0000000001
 43
0.0000000001
 40
0.0
 40
0.0
 40
0.0
 40
0.0
 40
1.0
 40
1.0
 40
1.0
 40
1.0
 10
-56.064900000000002
 20
31.040400000000002
 30
0.0
 10
-50.604400000000005
 20
27.937000000000001
 30
0.0
 10
-45.436399999999999
 20
24.756500000000003
 30
0.0
 10
-42.229600000000005
 20
17.208400000000001
 30
0.0
  0
SPLINE
  5
18D
100
AcDbEntity
  8
0
370
     5
 62
     1
100
AcDbSpline
210
0.0
220
0.0
230
1.0
 70
     0
 71
     3
 72
     8
 73
     4
 74
     0
 42
0.0000000001
 43
0.0000000001
 40
0.0
 40
0.0
 40
0.0
 40
0.0
 40
1.0
 40
1.0
 40
1.0
 40
1.0
 10
-42.229600000000005
 20
17.208400000000001
 30
0.0
 10
-39.6813
 20
10.2966
 30
0.0
 10
-43.139299999999999
 20
6.5207000000000006
 30
0.0
 10
-49.569700000000005
 20
9.2841000000000005
 30
0.0
  0
SPLINE
  5
18E
100
AcDbEntity
  8
0
370
     5
 62
     1
100
AcDbSpline
210
0.0
220
0.0
230
1.0
 70
     0
 71
     3
 72
     8
 73
     4
 74
     0
 42
0.0000000001
 43
0.0000000001
 40
0.0
 40
0.0
 40
0.0
 40
0.0
 40
1.0
 40
1.0
 40
1.0
 40
1.0
 10
-49.569700000000005
 20
9.2841000000000005
 30
0.0
 10
-53.823900000000002
 20
11.9597
 30
0.0
 10
-58.8645
 20
15.394900000000002
 30
0.0
 10
-63.118600000000001
 20
18.0703
 30
0.0
  0
SPLINE
  5
18F
100
AcDbEntity
  8
0
370
     5
 62
     1
100
AcDbSpline
210
0.0
220
0.0
230
1.0
 70
     0
 71
     3
 72
     8
 73
     4
 74
     0
 42
0.0000000001
 43
0.0000000001
 40
0.0
 40
0.0
 40
0.0
 40
0.0
 40
1.0
 40
1.0
 40
1.0
 40
1.0
 10
-63.118600000000001
 20
18.0703
 30
0.0
 10
-67.847200000000001
 20
20.243100000000002
 30
0.0
 10
-72.409599999999998
 20
18.362100000000002
 30
0.0
 10
-78.474400000000003
 20
22.594100000000001
 30
0.0
  0
SPLINE
  5
190
100
AcDbEntity
  8
0
370
     5
 62
     1
100
AcDbSpline
210
0.0
220
0.0
230
1.0
 70
     0
 71
     3
 72
     8
 73
     4
 74
     0
 42
0.0000000001
 43
0.0000000001
 40
0.0
 40
0.0
 40
0.0
 40
0.0
 40
1.0
 40
1.0
 40
1.0
 40
1.0
 10
-78.474400000000003
 20
22.594100000000001
 30
0.0
 10
-80.123199999999997
 20
24.3447
 30
0.0
 10
-81.767600000000002
 20
25.837800000000001
 30
0.0
 10
-83.416600000000003
 20
27.5885
 30
0.0
  0
SPLINE
  5
191
100
AcDbEntity
  8
0
370
     5
 62
     1
100
AcDbSpline
210
0.0
220
0.0
230
1.0
 70
     0
 71
     3
 72
     8
 73
     4
 74
     0
 42
0.0000000001
 43
0.0000000001
 40
0.0
 40
0.0
 40
0.0
 40
0.0
 40
1.0
 40
1.0
 40
1.0
 40
1.0
 10
-83.416600000000003
 20
27.5885
 30
0.0
 10
-84.679100000000005
 20
30.111900000000002
 30
0.0
 10
-85.052700000000002
 20
32.536100000000005
 30
0.0
 10
-81.350999999999999
 20
33.509100000000004
 30
0.0
  0
SPLINE
  5
192
100
AcDbEntity
  8
0
370
     5
 62
     1
100
AcDbSpline
210
0.0
220
0.0
230
1.0
 70
     0
 71
     3
 72
     8
 73
     4
 74
     0
 42
0.0000000001
 43
0.0000000001
 40
0.0
 40
0.0
 40
0.0
 40
0.0
 40
1.0
 40
1.0
 40
1.0
 40
1.0
 10
-81.350999999999999
 20
33.509100000000004
 30
0.0
 10
-74.670500000000004
 20
35.487000000000002
 30
0.0
 10
-66.741500000000002
 20
35.464500000000001
 30
0.0
 10
-56.064900000000002
 20
31.040400000000002
 30
0.0
  0
SPLINE
  5
193
100
AcDbEntity
  8
0
370
     5
 62
     1
100
AcDbSpline
210
0.0
220
0.0
230
1.0
 70
     0
 71
     3
 72
     8
 73
     4
 74
     0
 42
0.0000000001
 43
0.0000000001
 40
0.0
 40
0.0
 40
0.0
 40
0.0
 40
1.0
 40
1.0
 40
1.0
 40
1.0
 10
-64.032499999999999
 20
9.7081
 30
0.0
 10
-36.880000000000003
 20
-0.0102
 30
0.0
 10
-38.762100000000004
 20
-12.503
 30
0.0
 10
-70.547499999999999
 20
-0.9733000000000001
 30
0.0
  0
SPLINE
  5
194
100
AcDbEntity
  8
0
370
     5
 62
     1
100
AcDbSpline
210
0.0
220
0.0
230
1.0
 70
     0
 71
     3
 72
     8
 73
     4
 74
     0
 42
0.0000000001
 43
0.0000000001
 40
0.0
 40
0.0
 40
0.0
 40
0.0
 40
1.0
 40
1.0
 40
1.0
 40
1.0
 10
-70.547499999999999
 20
-0.9733000000000001
 30
0.0
 10
-75.296400000000006
 20
0.3182
 30
0.0
 10
-79.29440000000001
 20
2.9115000000000002
 30
0.0
 10
-74.322800000000001
 20
8.4967000000000006
 30
0.0
  0
SPLINE
  5
195
100
AcDbEntity
  8
0
370
     5
 62
     1
100
AcDbSpline
210
0.0
220
0.0
230
1.0
 70
     0
 71
     3
 72
     8
 73
     4
 74
     0
 42
0.0000000001
 43
0.0000000001
 40
0.0
 40
0.0
 40
0.0
 40
0.0
 40
1.0
 40
1.0
 40
1.0
 40
1.0
 10
-74.322800000000001
 20
8.4967000000000006
 30
0.0
 10
-71.0929
 20
10.529400000000001
 30
0.0
 10
-67.997500000000002
 20
10.4117
 30
0.0
 10
-64.032499999999999
 20
9.7081
 30
0.0
  0
SPLINE
  5
196
100
AcDbEntity
  8
0
370
     5
 62
     1
100
AcDbSpline
210
0.0
220
0.0
230
1.0
 70
     0
 71
     3
 72
     8
 73
     4
 74
     0
 42
0.0000000001
 43
0.0000000001
 40
0.0
 40
0.0
 40
0.0
 40
0.0
 40
1.0
 40
1.0
 40
1.0
 40
1.0
 10
-31.8232
 20
-18.851000000000003
 30
0.0
 10
-25.4602
 20
-20.116300000000003
 30
0.0
 10
-25.560500000000001
 20
-24.3017
 30
0.0
 10
-31.194500000000001
 20
-25.283300000000001
 30
0.0
  0
SPLINE
  5
197
100
AcDbEntity
  8
0
370
     5
 62
     1
100
AcDbSpline
210
0.0
220
0.0
230
1.0
 70
     0
 71
     3
 72
     8
 73
     4
 74
     0
 42
0.0000000001
 43
0.0000000001
 40
0.0
 40
0.0
 40
0.0
 40
0.0
 40
1.0
 40
1.0
 40
1.0
 40
1.0
 10
-31.194500000000001
 20
-25.283300000000001
 30
0.0
 10
-43.717400000000005
 20
-27.555800000000001
 30
0.0
 10
-56.459000000000003
 20
-28.761300000000002
 30
0.0
 10
-69.001300000000001
 20
-30.328100000000003
 30
0.0
  0
SPLINE
  5
198
100
AcDbEntity
  8
0
370
     5
 62
     1
100
AcDbSpline
210
0.0
220
0.0
230
1.0
 70
     0
 71
     3
 72
     8
 73
     4
 74
     0
 42
0.0000000001
 43
0.0000000001
 40
0.0
 40
0.0
 40
0.0
 40
0.0
 40
1.0
 40
1.0
 40
1.0
 40
1.0
 10
-69.001300000000001
 20
-30.328100000000003
 30
0.0
 10
-72.715900000000005
 20
-30.391300000000001
 30
0.0
 10
-74.831400000000002
 20
-26.817900000000002
 30
0.0
 10
-71.415700000000001
 20
-24.957900000000002
 30
0.0
  0
SPLINE
  5
199
100
AcDbEntity
  8
0
370
     5
 62
     1
100
AcDbSpline
210
0.0
220
0.0
230
1.0
 70
     0
 71
     3
 72
     8
 73
     4
 74
     0
 42
0.0000000001
 43
0.0000000001
 40
0.0
 40
0.0
 40
0.0
 40
0.0
 40
1.0
 40
1.0
 40
1.0
 40
1.0
 10
-71.415700000000001
 20
-24.957900000000002
 30
0.0
 10
-68.004900000000006
 20
-22.843
 30
0.0
 10
-38.186
 20
-17.585800000000003
 30
0.0
 10
-31.8232
 20
-18.851000000000003
 30
0.0
  0
SPLINE
  5
19A
100
AcDbEntity
  8
0
370
     5
 62
     1
100
AcDbSpline
210
0.0
220
0.0
230
1.0
 70
     0
 71
     3
 72
     8
 73
     4
 74
     0
 42
0.0000000001
 43
0.0000000001
 40
0.0
 40
0.0
 40
0.0
 40
0.0
 40
1.0
 40
1.0
 40
1.0
 40
1.0
 10
-48.981200000000001
 20
-10.646700000000001
 30
0.0
 10
-44.931899999999999
 20
-11.262700000000001
 30
0.0
 10
-44.970800000000004
 20
-13.926500000000001
 30
0.0
 10
-49.166700000000006
 20
-14.7735
 30
0.0
  0
SPLINE
  5
19B
100
AcDbEntity
  8
0
370
     5
 62
     1
100
AcDbSpline
210
0.0
220
0.0
230
1.0
 70
     0
 71
     3
 72
     8
 73
     4
 74
     0
 42
0.0000000001
 43
0.0000000001
 40
0.0
 40
0.0
 40
0.0
 40
0.0
 40
1.0
 40
1.0
 40
1.0
 40
1.0
 10
-49.166700000000006
 20
-14.7735
 30
0.0
 10
-84.191000000000003
 20
-13.452
 30
0.0
 10
-116.77290000000001
 20
2.0207999999999999
 30
0.0
 10
-141.5136
 20
17.885300000000001
 30
0.0
  0
SPLINE
  5
19C
100
AcDbEntity
  8
0
370
     5
 62
     1
100
AcDbSpline
210
0.0
220
0.0
230
1.0
 70
     0
 71
     3
 72
     8
 73
     4
 74
     0
 42
0.0000000001
 43
0.0000000001
 40
0.0
 40
0.0
 40
0.0
 40
0.0
 40
1.0
 40
1.0
 40
1.0
 40
1.0
 10
-141.5136
 20
17.885300000000001
 30
0.0
 10
-144.03480000000002
 20
19.5594
 30
0.0
 10
-141.71380000000002
 20
24.410900000000002
 30
0.0
 10
-137.48050000000001
 20
23.110800000000001
 30
0.0
  0
SPLINE
  5
19D
100
AcDbEntity
  8
0
370
     5
 62
     1
100
AcDbSpline
210
0.0
220
0.0
230
1.0
 70
     0
 71
     3
 72
     8
 73
     4
 74
     0
 42
0.0000000001
 43
0.0000000001
 40
0.0
 40
0.0
 40
0.0
 40
0.0
 40
1.0
 40
1.0
 40
1.0
 40
1.0
 10
-137.48050000000001
 20
23.110800000000001
 30
0.0
 10
-121.6816
 20
14.0349
 30
0.0
 10
-105.8974
 20
5.7826000000000004
 30
0.0
 10
-90.147199999999998
 20
-0.5439000000000001
 30
0.0
  0
SPLINE
  5
19E
100
AcDbEntity
  8
0
370
     5
 62
     1
100
AcDbSpline
210
0.0
220
0.0
230
1.0
 70
     0
 71
     3
 72
     8
 73
     4
 74
     0
 42
0.0000000001
 43
0.0000000001
 40
0.0
 40
0.0
 40
0.0
 40
0.0
 40
1.0
 40
1.0
 40
1.0
 40
1.0
 10
-90.147199999999998
 20
-0.5439000000000001
 30
0.0
 10
-75.344500000000011
 20
-6.7277000000000005
 30
0.0
 10
-62.173999999999999
 20
-8.0431000000000008
 30
0.0
 10
-48.981200000000001
 20
-10.646700000000001
 30
0.0
  0
SPLINE
  5
19F
100
AcDbEntity
  8
0
370
     5
 62
     1
100
AcDbSpline
210
0.0
220
0.0
230
1.0
 70
     0
 71
     3
 72
     8
 73
     4
 74
     0
 42
0.0000000001
 43
0.0000000001
 40
0.0
 40
0.0
 40
0.0
 40
0.0
 40
1.0
 40
1.0
 40
1.0
 40
1.0
 10
-96.30980000000001
 20
27.441200000000002
 30
0.0
 10
-100.98020000000001
 20
29.163900000000002
 30
0.0
 10
-104.9363
 20
29.352
 30
0.0
 10
-107.90690000000001
 20
27.2378
 30
0.0
  0
SPLINE
  5
1A0
100
AcDbEntity
  8
0
370
     5
 62
     1
100
AcDbSpline
210
0.0
220
0.0
230
1.0
 70
     0
 71
     3
 72
     8
 73
     4
 74
     0
 42
0.0000000001
 43
0.0000000001
 40
0.0
 40
0.0
 40
0.0
 40
0.0
 40
1.0
 40
1.0
 40
1.0
 40
1.0
 10
-107.90690000000001
 20
27.2378
 30
0.0
 10
-121.24900000000001
 20
28.5504
 30
0.0
 10
-121.66470000000001
 20
22.873000000000001
 30
0.0
 10
-113.16970000000001
 20
18.6401
 30
0.0
  0
SPLINE
  5
1A1
100
AcDbEntity
  8
0
370
     5
 62
     1
100
AcDbSpline
210
0.0
220
0.0
230
1.0
 70
     0
 71
     3
 72
     8
 73
     4
 74
     0
 42
0.0000000001
 43
0.0000000001
 40
0.0
 40
0.0
 40
0.0
 40
0.0
 40
1.0
 40
1.0
 40
1.0
 40
1.0
 10
-113.16970000000001
 20
18.6401
 30
0.0
 10
-105.622
 20
14.562900000000001
 30
0.0
 10
-98.074400000000011
 20
10.485800000000001
 30
0.0
 10
-90.527000000000001
 20
6.4083000000000006
 30
0.0
  0
SPLINE
  5
1A2
100
AcDbEntity
  8
0
370
     5
 62
     1
100
AcDbSpline
210
0.0
220
0.0
230
1.0
 70
     0
 71
     3
 72
     8
 73
     4
 74
     0
 42
0.0000000001
 43
0.0000000001
 40
0.0
 40
0.0
 40
0.0
 40
0.0
 40
1.0
 40
1.0
 40
1.0
 40
1.0
 10
-90.527000000000001
 20
6.4083000000000006
 30
0.0
 10
-81.935400000000001
 20
4.6284999999999998
 30
0.0
 10
-76.141300000000001
 20
10.7057
 30
0.0
 10
-82.990099999999998
 20
17.623200000000001
 30
0.0
  0
SPLINE
  5
1A3
100
AcDbEntity
  8
0
370
     5
 62
     1
100
AcDbSpline
210
0.0
220
0.0
230
1.0
 70
     0
 71
     3
 72
     8
 73
     4
 74
     0
 42
0.0000000001
 43
0.0000000001
 40
0.0
 40
0.0
 40
0.0
 40
0.0
 40
1.0
 40
1.0
 40
1.0
 40
1.0
 10
-82.990099999999998
 20
17.623200000000001
 30
0.0
 10
-87.823100000000011
 20
21.233000000000001
 30
0.0
 10
-92.18910000000001
 20
25.194500000000001
 30
0.0
 10
-96.30980000000001
 20
27.441200000000002
 30
0.0
  0
SPLINE
  5
1A4
100
AcDbEntity
  8
0
370
     5
 62
     1
100
AcDbSpline
210
0.0
220
0.0
230
1.0
 70
     0
 71
     3
 72
     8
 73
     4
 74
     0
 42
0.0000000001
 43
0.0000000001
 40
0.0
 40
0.0
 40
0.0
 40
0.0
 40
1.0
 40
1.0
 40
1.0
 40
1.0
 10
-152.82570000000001
 20
16.1404
 30
0.0
 10
-164.4649
 20
20.748200000000001
 30
0.0
 10
-170.45050000000001
 20
19.352399999999999
 30
0.0
 10
-177.0599
 20
16.230800000000002
 30
0.0
  0
SPLINE
  5
1A5
100
AcDbEntity
  8
0
370
     5
 62
     1
100
AcDbSpline
210
0.0
220
0.0
230
1.0
 70
     0
 71
     3
 72
    12
 73
     8
 74
     0
 42
0.0000000001
 43
0.0000000001
 40
0.0
 40
0.0
 40
0.0
 40
0.0
 40
0.5
 40
0.5
 40
0.5
 40
0.5
 40
1.0
 40
1.0
 40
1.0
 40
1.0
 10
-177.0599
 20
16.230800000000002
 30
0.0
 10
-183.66900000000001
 20
13.1091
 30
0.0
 10
-179.89330000000001
 20
9.8036000000000012
 30
0.0
 10
-176.65290000000002
 20
7.7328000000000001
 30
0.0
 10
-176.65290000000002
 20
7.7328000000000001
 30
0.0
 10
-173.41240000000002
 20
5.6619999999999999
 30
0.0
 10
-124.9295
 20
-7.7909000000000006
 30
0.0
 10
-118.8935
 20
-7.7492000000000001
 30
0.0
  0
SPLINE
  5
1A6
100
AcDbEntity
  8
0
370
     5
 62
     1
100
AcDbSpline
210
0.0
220
0.0
230
1.0
 70
     0
 71
     3
 72
     8
 73
     4
 74
     0
 42
0.0000000001
 43
0.0000000001
 40
0.0
 40
0.0
 40
0.0
 40
0.0
 40
1.0
 40
1.0
 40
1.0
 40
1.0
 10
-118.8935
 20
-7.7492000000000001
 30
0.0
 10
-112.85770000000001
 20
-7.7077
 30
0.0
 10
-113.1157
 20
-4.0392999999999999
 30
0.0
 10
-118.4731
 20
-2.3292000000000002
 30
0.0
  0
SPLINE
  5
1A7
100
AcDbEntity
  8
0
370
     5
 62
     1
100
AcDbSpline
210
0.0
220
0.0
230
1.0
 70
     0
 71
     3
 72
     8
 73
     4
 74
     0
 42
0.0000000001
 43
0.0000000001
 40
0.0
 40
0.0
 40
0.0
 40
0.0
 40
1.0
 40
1.0
 40
1.0
 40
1.0
 10
-118.4731
 20
-2.3292000000000002
 30
0.0
 10
-131.16490000000002
 20
0.7871
 30
0.0
 10
-142.11950000000002
 20
8.1598000000000006
 30
0.0
 10
-152.82570000000001
 20
16.1404
 30
0.0
  0
SPLINE
  5
1A8
100
AcDbEntity
  8
0
370
     5
 62
     1
100
AcDbSpline
210
0.0
220
0.0
230
1.0
 70
     0
 71
     3
 72
     8
 73
     4
 74
     0
 42
0.0000000001
 43
0.0000000001
 40
0.0
 40
0.0
 40
0.0
 40
0.0
 40
1.0
 40
1.0
 40
1.0
 40
1.0
 10
-176.619
 20
1.3066
 30
0.0
 10
-187.66679999999999
 20
4.9023000000000003
 30
0.0
 10
-190.3081
 20
-9.0624000000000002
 30
0.0
 10
-178.55290000000002
 20
-11.010100000000001
 30
0.0
  0
SPLINE
  5
1A9
100
AcDbEntity
  8
0
370
     5
 62
     1
100
AcDbSpline
210
0.0
220
0.0
230
1.0
 70
     0
 71
     3
 72
     8
 73
     4
 74
     0
 42
0.0000000001
 43
0.0000000001
 40
0.0
 40
0.0
 40
0.0
 40
0.0
 40
1.0
 40
1.0
 40
1.0
 40
1.0
 10
-178.55290000000002
 20
-11.010100000000001
 30
0.0
 10
-147.9913
 20
-18.406700000000001
 30
0.0
 10
-116.05600000000001
 20
-20.917200000000001
 30
0.0
 10
-83.181200000000004
 20
-20.084700000000002
 30
0.0
  0
SPLINE
  5
1AA
100
AcDbEntity
  8
0
370
     5
 62
     1
100
AcDbSpline
210
0.0
220
0.0
230
1.0
 70
     0
 71
     3
 72
     8
 73
     4
 74
     0
 42
0.0000000001
 43
0.0000000001
 40
0.0
 40
0.0
 40
0.0
 40
0.0
 40
1.0
 40
1.0
 40
1.0
 40
1.0
 10
-83.181200000000004
 20
-20.084700000000002
 30
0.0
 10
-76.422800000000009
 20
-20.1708
 30
0.0
 10
-76.527000000000001
 20
-14.2361
 30
0.0
 10
-85.1096
 20
-15.205400000000001
 30
0.0
  0
SPLINE
  5
1AB
100
AcDbEntity
  8
0
370
     5
 62
     1
100
AcDbSpline
210
0.0
220
0.0
230
1.0
 70
     0
 71
     3
 72
     8
 73
     4
 74
     0
 42
0.0000000001
 43
0.0000000001
 40
0.0
 40
0.0
 40
0.0
 40
0.0
 40
1.0
 40
1.0
 40
1.0
 40
1.0
 10
-85.1096
 20
-15.205400000000001
 30
0.0
 10
-120.17570000000001
 20
-15.142200000000001
 30
0.0
 10
-151.19240000000002
 20
-9.5701000000000001
 30
0.0
 10
-176.619
 20
1.3066
 30
0.0
  0
SPLINE
  5
1AC
100
AcDbEntity
  8
0
370
     5
 62
     1
100
AcDbSpline
210
0.0
220
0.0
230
1.0
 70
     0
 71
     3
 72
     8
 73
     4
 74
     0
 42
0.0000000001
 43
0.0000000001
 40
0.0
 40
0.0
 40
0.0
 40
0.0
 40
1.0
 40
1.0
 40
1.0
 40
1.0
 10
-89.839300000000009
 20
-25.7288
 30
0.0
 10
-83.703800000000001
 20
-25.314
 30
0.0
 10
-83.935600000000008
 20
-29.616900000000001
 30
0.0
 10
-89.758400000000009
 20
-30.333400000000001
 30
0.0
  0
SPLINE
  5
1AD
100
AcDbEntity
  8
0
370
     5
 62
     1
100
AcDbSpline
210
0.0
220
0.0
230
1.0
 70
     0
 71
     3
 72
     8
 73
     4
 74
     0
 42
0.0000000001
 43
0.0000000001
 40
0.0
 40
0.0
 40
0.0
 40
0.0
 40
1.0
 40
1.0
 40
1.0
 40
1.0
 10
-89.758400000000009
 20
-30.333400000000001
 30
0.0
 10
-117.3279
 20
-33.733899999999998
 30
0.0
 10
-141.85769999999999
 20
-31.7073
 30
0.0
 10
-163.86860000000001
 20
-25.184700000000003
 30
0.0
  0
SPLINE
  5
1AE
100
AcDbEntity
  8
0
370
     5
 62
     1
100
AcDbSpline
210
0.0
220
0.0
230
1.0
 70
     0
 71
     3
 72
     8
 73
     4
 74
     0
 42
0.0000000001
 43
0.0000000001
 40
0.0
 40
0.0
 40
0.0
 40
0.0
 40
1.0
 40
1.0
 40
1.0
 40
1.0
 10
-163.86860000000001
 20
-25.184700000000003
 30
0.0
 10
-169.3289
 20
-23.233499999999999
 30
0.0
 10
-167.15630000000002
 20
-18.691700000000001
 30
0.0
 10
-162.7321
 20
-19.944800000000001
 30
0.0
  0
SPLINE
  5
1AF
100
AcDbEntity
  8
0
370
     5
 62
     1
100
AcDbSpline
210
0.0
220
0.0
230
1.0
 70
     0
 71
     3
 72
     8
 73
     4
 74
     0
 42
0.0000000001
 43
0.0000000001
 40
0.0
 40
0.0
 40
0.0
 40
0.0
 40
1.0
 40
1.0
 40
1.0
 40
1.0
 10
-162.7321
 20
-19.944800000000001
 30
0.0
 10
-142.88640000000001
 20
-24.855700000000002
 30
0.0
 10
-117.3456
 20
-27.605900000000002
 30
0.0
 10
-89.839300000000009
 20
-25.7288
 30
0.0
  0
SPLINE
  5
1B0
100
AcDbEntity
  8
0
370
     5
 62
     1
100
AcDbSpline
210
0.0
220
0.0
230
1.0
 70
     0
 71
     3
 72
     8
 73
     4
 74
     0
 42
0.0000000001
 43
0.0000000001
 40
0.0
 40
0.0
 40
0.0
 40
0.0
 40
1.0
 40
1.0
 40
1.0
 40
1.0
 10
0.3346
 20
-16.5092
 30
0.0
 10
-0.0204
 20
-17.5276
 30
0.0
 10
-0.3751
 20
-18.5459
 30
0.0
 10
-0.7303000000000001
 20
-19.564400000000003
 30
0.0
  0
SPLINE
  5
1B1
100
AcDbEntity
  8
0
370
     5
 62
     1
100
AcDbSpline
210
0.0
220
0.0
230
1.0
 70
     0
 71
     3
 72
     8
 73
     4
 74
     0
 42
0.0000000001
 43
0.0000000001
 40
0.0
 40
0.0
 40
0.0
 40
0.0
 40
1.0
 40
1.0
 40
1.0
 40
1.0
 10
-0.7303000000000001
 20
-19.564400000000003
 30
0.0
 10
-0.7303000000000001
 20
-19.564400000000003
 30
0.0
 10
-21.473800000000001
 20
-11.223600000000001
 30
0.0
 10
-21.473800000000001
 20
-11.223600000000001
 30
0.0
  0
SPLINE
  5
1B2
100
AcDbEntity
  8
0
370
     5
 62
     1
100
AcDbSpline
210
0.0
220
0.0
230
1.0
 70
     0
 71
     3
 72
     8
 73
     4
 74
     0
 42
0.0000000001
 43
0.0000000001
 40
0.0
 40
0.0
 40
0.0
 40
0.0
 40
1.0
 40
1.0
 40
1.0
 40
1.0
 10
-21.473800000000001
 20
-11.223600000000001
 30
0.0
 10
-24.147500000000001
 20
-10.148400000000001
 30
0.0
 10
-25.638400000000001
 20
-13.855600000000001
 30
0.0
 10
-23.052800000000001
 20
-15.148700000000002
 30
0.0
  0
SPLINE
  5
1B3
100
AcDbEntity
  8
0
370
     5
 62
     1
100
AcDbSpline
210
0.0
220
0.0
230
1.0
 70
     0
 71
     3
 72
     8
 73
     4
 74
     0
 42
0.0000000001
 43
0.0000000001
 40
0.0
 40
0.0
 40
0.0
 40
0.0
 40
1.0
 40
1.0
 40
1.0
 40
1.0
 10
-23.052800000000001
 20
-15.148700000000002
 30
0.0
 10
-23.052800000000001
 20
-15.148700000000002
 30
0.0
 10
-2.1251000000000002
 20
-23.563400000000001
 30
0.0
 10
-2.1251000000000002
 20
-23.563400000000001
 30
0.0
  0
SPLINE
  5
1B4
100
AcDbEntity
  8
0
370
     5
 62
     1
100
AcDbSpline
210
0.0
220
0.0
230
1.0
 70
     0
 71
     3
 72
     8
 73
     4
 74
     0
 42
0.0000000001
 43
0.0000000001
 40
0.0
 40
0.0
 40
0.0
 40
0.0
 40
1.0
 40
1.0
 40
1.0
 40
1.0
 10
-2.1251000000000002
 20
-23.563400000000001
 30
0.0
 10
-2.4940000000000002
 20
-24.621600000000001
 30
0.0
 10
-2.8631000000000002
 20
-25.680099999999999
 30
0.0
 10
-3.2321
 20
-26.738100000000003
 30
0.0
  0
SPLINE
  5
1B5
100
AcDbEntity
  8
0
370
     5
 62
     1
100
AcDbSpline
210
0.0
220
0.0
230
1.0
 70
     0
 71
     3
 72
     8
 73
     4
 74
     0
 42
0.0000000001
 43
0.0000000001
 40
0.0
 40
0.0
 40
0.0
 40
0.0
 40
1.0
 40
1.0
 40
1.0
 40
1.0
 10
-3.2321
 20
-26.738100000000003
 30
0.0
 10
-4.9493999999999998
 20
-30.523400000000002
 30
0.0
 10
-8.1535000000000011
 20
-30.928800000000003
 30
0.0
 10
-12.8124
 20
-29.7622
 30
0.0
  0
SPLINE
  5
1B6
100
AcDbEntity
  8
0
370
     5
 62
     1
100
AcDbSpline
210
0.0
220
0.0
230
1.0
 70
     0
 71
     3
 72
     8
 73
     4
 74
     0
 42
0.0000000001
 43
0.0000000001
 40
0.0
 40
0.0
 40
0.0
 40
0.0
 40
1.0
 40
1.0
 40
1.0
 40
1.0
 10
-12.8124
 20
-29.7622
 30
0.0
 10
-16.035299999999999
 20
-29.0931
 30
0.0
 10
-19.226500000000001
 20
-30.2316
 30
0.0
 10
-22.433500000000002
 20
-30.466000000000001
 30
0.0
  0
SPLINE
  5
1B7
100
AcDbEntity
  8
0
370
     5
 62
     1
100
AcDbSpline
210
0.0
220
0.0
230
1.0
 70
     0
 71
     3
 72
     8
 73
     4
 74
     0
 42
0.0000000001
 43
0.0000000001
 40
0.0
 40
0.0
 40
0.0
 40
0.0
 40
1.0
 40
1.0
 40
1.0
 40
1.0
 10
-22.433500000000002
 20
-30.466000000000001
 30
0.0
 10
-39.834299999999999
 20
-35.143900000000002
 30
0.0
 10
-57.656400000000005
 20
-35.996400000000001
 30
0.0
 10
-74.771900000000002
 20
-36.7348
 30
0.0
  0
SPLINE
  5
1B8
100
AcDbEntity
  8
0
370
     5
 62
     1
100
AcDbSpline
210
0.0
220
0.0
230
1.0
 70
     0
 71
     3
 72
     8
 73
     4
 74
     0
 42
0.0000000001
 43
0.0000000001
 40
0.0
 40
0.0
 40
0.0
 40
0.0
 40
1.0
 40
1.0
 40
1.0
 40
1.0
 10
-74.771900000000002
 20
-36.7348
 30
0.0
 10
-122.49140000000001
 20
-38.401000000000003
 30
0.0
 10
-162.59530000000001
 20
-39.269400000000005
 30
0.0
 10
-179.80840000000001
 20
-25.4251
 30
0.0
  0
SPLINE
  5
1B9
100
AcDbEntity
  8
0
370
     5
 62
     1
100
AcDbSpline
210
0.0
220
0.0
230
1.0
 70
     0
 71
     3
 72
     8
 73
     4
 74
     0
 42
0.0000000001
 43
0.0000000001
 40
0.0
 40
0.0
 40
0.0
 40
0.0
 40
1.0
 40
1.0
 40
1.0
 40
1.0
 10
-179.80840000000001
 20
-25.4251
 30
0.0
 10
-185.13939999999999
 20
-21.476500000000001
 30
0.0
 10
-195.32810000000001
 20
-14.7437
 30
0.0
 10
-196.3426
 20
-4.3090999999999999
 30
0.0
  0
SPLINE
  5
1BA
100
AcDbEntity
  8
0
370
     5
 62
     1
100
AcDbSpline
210
0.0
220
0.0
230
1.0
 70
     0
 71
     3
 72
     8
 73
     4
 74
     0
 42
0.0000000001
 43
0.0000000001
 40
0.0
 40
0.0
 40
0.0
 40
0.0
 40
1.0
 40
1.0
 40
1.0
 40
1.0
 10
-196.3426
 20
-4.3090999999999999
 30
0.0
 10
-197.06790000000001
 20
3.1510000000000002
 30
0.0
 10
-197.00290000000001
 20
15.0631
 30
0.0
 10
-186.0119
 20
20.171800000000001
 30
0.0
  0
SPLINE
  5
1BB
100
AcDbEntity
  8
0
370
     5
 62
     1
100
AcDbSpline
210
0.0
220
0.0
230
1.0
 70
     0
 71
     3
 72
     8
 73
     4
 74
     0
 42
0.0000000001
 43
0.0000000001
 40
0.0
 40
0.0
 40
0.0
 40
0.0
 40
1.0
 40
1.0
 40
1.0
 40
1.0
 10
-186.0119
 20
20.171800000000001
 30
0.0
 10
-165.16590000000002
 20
29.236000000000001
 30
0.0
 10
-130.79510000000002
 20
30.3231
 30
0.0
 10
-102.59790000000001
 20
35.185200000000002
 30
0.0
  0
SPLINE
  5
1BC
100
AcDbEntity
  8
0
370
     5
 62
     1
100
AcDbSpline
210
0.0
220
0.0
230
1.0
 70
     0
 71
     3
 72
     8
 73
     4
 74
     0
 42
0.0000000001
 43
0.0000000001
 40
0.0
 40
0.0
 40
0.0
 40
0.0
 40
1.0
 40
1.0
 40
1.0
 40
1.0
 10
-102.59790000000001
 20
35.185200000000002
 30
0.0
 10
-66.724400000000003
 20
47.617200000000004
 30
0.0
 10
-44.4666
 20
43.1098
 30
0.0
 10
-35.488199999999999
 20
21.0624
 30
0.0
  0
SPLINE
  5
1BD
100
AcDbEntity
  8
0
370
     5
 62
     1
100
AcDbSpline
210
0.0
220
0.0
230
1.0
 70
     0
 71
     3
 72
     8
 73
     4
 74
     0
 42
0.0000000001
 43
0.0000000001
 40
0.0
 40
0.0
 40
0.0
 40
0.0
 40
1.0
 40
1.0
 40
1.0
 40
1.0
 10
-35.488199999999999
 20
21.0624
 30
0.0
 10
-32.148499999999999
 20
10.9513
 30
0.0
 10
-32.314799999999998
 20
4.7038000000000002
 30
0.0
 10
-16.526400000000002
 20
-1.1072
 30
0.0
  0
SPLINE
  5
1BE
100
AcDbEntity
  8
0
370
     5
 62
     1
100
AcDbSpline
210
0.0
220
0.0
230
1.0
 70
     0
 71
     3
 72
     8
 73
     4
 74
     0
 42
0.0000000001
 43
0.0000000001
 40
0.0
 40
0.0
 40
0.0
 40
0.0
 40
1.0
 40
1.0
 40
1.0
 40
1.0
 10
-16.526400000000002
 20
-1.1072
 30
0.0
 10
-2.3717000000000001
 20
-4.6044999999999998
 30
0.0
 10
3.2507000000000001
 20
-9.8589000000000002
 30
0.0
 10
0.3346
 20
-16.5092
 30
0.0
  0
SPLINE
  5
1BF
100
AcDbEntity
  8
0
370
     5
 62
     1
100
AcDbSpline
210
0.0
220
0.0
230
1.0
 70
     0
 71
     3
 72
     8
 73
     4
 74
     0
 42
0.0000000001
 43
0.0000000001
 40
0.0
 40
0.0
 40
0.0
 40
0.0
 40
1.0
 40
1.0
 40
1.0
 40
1.0
 10
143.03440000000001
 20
-45.960300000000004
 30
0.0
 10
147.26240000000001
 20
-50.538900000000005
 30
0.0
 10
143.31460000000001
 20
-53.726500000000001
 30
0.0
 10
139.26480000000001
 20
-51.593299999999999
 30
0.0
  0
SPLINE
  5
1C0
100
AcDbEntity
  8
0
370
     5
 62
     1
100
AcDbSpline
210
0.0
220
0.0
230
1.0
 70
     0
 71
     3
 72
     8
 73
     4
 74
     0
 42
0.0000000001
 43
0.0000000001
 40
0.0
 40
0.0
 40
0.0
 40
0.0
 40
1.0
 40
1.0
 40
1.0
 40
1.0
 10
139.26480000000001
 20
-51.593299999999999
 30
0.0
 10
134.3785
 20
-48.547600000000003
 30
0.0
 10
130.91830000000002
 20
-43.250800000000005
 30
0.0
 10
125.45950000000001
 20
-37.180599999999998
 30
0.0
  0
SPLINE
  5
1C1
100
AcDbEntity
  8
0
370
     5
 62
     1
100
AcDbSpline
210
0.0
220
0.0
230
1.0
 70
     0
 71
     3
 72
     8
 73
     4
 74
     0
 42
0.0000000001
 43
0.0000000001
 40
0.0
 40
0.0
 40
0.0
 40
0.0
 40
1.0
 40
1.0
 40
1.0
 40
1.0
 10
125.45950000000001
 20
-37.180599999999998
 30
0.0
 10
121.0325
 20
-33.347700000000003
 30
0.0
 10
116.7556
 20
-33.834200000000003
 30
0.0
 10
112.62920000000001
 20
-38.639700000000005
 30
0.0
  0
SPLINE
  5
1C2
100
AcDbEntity
  8
0
370
     5
 62
     1
100
AcDbSpline
210
0.0
220
0.0
230
1.0
 70
     0
 71
     3
 72
     8
 73
     4
 74
     0
 42
0.0000000001
 43
0.0000000001
 40
0.0
 40
0.0
 40
0.0
 40
0.0
 40
1.0
 40
1.0
 40
1.0
 40
1.0
 10
112.62920000000001
 20
-38.639700000000005
 30
0.0
 10
109.98880000000001
 20
-43.541600000000003
 30
0.0
 10
107.38160000000001
 20
-47.546900000000001
 30
0.0
 10
102.51900000000001
 20
-51.710700000000003
 30
0.0
  0
SPLINE
  5
1C3
100
AcDbEntity
  8
0
370
     5
 62
     1
100
AcDbSpline
210
0.0
220
0.0
230
1.0
 70
     0
 71
     3
 72
     8
 73
     4
 74
     0
 42
0.0000000001
 43
0.0000000001
 40
0.0
 40
0.0
 40
0.0
 40
0.0
 40
1.0
 40
1.0
 40
1.0
 40
1.0
 10
102.51900000000001
 20
-51.710700000000003
 30
0.0
 10
97.117500000000007
 20
-55.364200000000004
 30
0.0
 10
92.617500000000007
 20
-49.434699999999999
 30
0.0
 10
96.7637
 20
-45.8187
 30
0.0
  0
SPLINE
  5
1C4
100
AcDbEntity
  8
0
370
     5
 62
     1
100
AcDbSpline
210
0.0
220
0.0
230
1.0
 70
     0
 71
     3
 72
     8
 73
     4
 74
     0
 42
0.0000000001
 43
0.0000000001
 40
0.0
 40
0.0
 40
0.0
 40
0.0
 40
1.0
 40
1.0
 40
1.0
 40
1.0
 10
96.7637
 20
-45.8187
 30
0.0
 10
102.51010000000001
 20
-40.088799999999999
 30
0.0
 10
103.3267
 20
-31.790300000000002
 30
0.0
 10
102.4953
 20
-24.6616
 30
0.0
  0
SPLINE
  5
1C5
100
AcDbEntity
  8
0
370
     5
 62
     1
100
AcDbSpline
210
0.0
220
0.0
230
1.0
 70
     0
 71
     3
 72
     8
 73
     4
 74
     0
 42
0.0000000001
 43
0.0000000001
 40
0.0
 40
0.0
 40
0.0
 40
0.0
 40
1.0
 40
1.0
 40
1.0
 40
1.0
 10
102.4953
 20
-24.6616
 30
0.0
 10
102.59520000000001
 20
-17.313300000000002
 30
0.0
 10
108.16340000000001
 20
-11.968200000000001
 30
0.0
 10
113.61720000000001
 20
-12.608600000000001
 30
0.0
  0
SPLINE
  5
1C6
100
AcDbEntity
  8
0
370
     5
 62
     1
100
AcDbSpline
210
0.0
220
0.0
230
1.0
 70
     0
 71
     3
 72
     8
 73
     4
 74
     0
 42
0.0000000001
 43
0.0000000001
 40
0.0
 40
0.0
 40
0.0
 40
0.0
 40
1.0
 40
1.0
 40
1.0
 40
1.0
 10
113.61720000000001
 20
-12.608600000000001
 30
0.0
 10
114.2672
 20
-12.901900000000001
 30
0.0
 10
115.0784
 20
-13.110700000000001
 30
0.0
 10
116.00590000000001
 20
-13.1829
 30
0.0
  0
SPLINE
  5
1C7
100
AcDbEntity
  8
0
370
     5
 62
     1
100
AcDbSpline
210
0.0
220
0.0
230
1.0
 70
     0
 71
     3
 72
     8
 73
     4
 74
     0
 42
0.0000000001
 43
0.0000000001
 40
0.0
 40
0.0
 40
0.0
 40
0.0
 40
1.0
 40
1.0
 40
1.0
 40
1.0
 10
116.00590000000001
 20
-13.1829
 30
0.0
 10
116.00590000000001
 20
-13.1829
 30
0.0
 10
115.9611
 20
-20.613700000000001
 30
0.0
 10
115.9611
 20
-20.613700000000001
 30
0.0
  0
SPLINE
  5
1C8
100
AcDbEntity
  8
0
370
     5
 62
     1
100
AcDbSpline
210
0.0
220
0.0
230
1.0
 70
     0
 71
     3
 72
     8
 73
     4
 74
     0
 42
0.0000000001
 43
0.0000000001
 40
0.0
 40
0.0
 40
0.0
 40
0.0
 40
1.0
 40
1.0
 40
1.0
 40
1.0
 10
115.9611
 20
-20.613700000000001
 30
0.0
 10
115.94430000000001
 20
-23.494600000000002
 30
0.0
 10
119.9402
 20
-23.517900000000001
 30
0.0
 10
120.1935
 20
-20.6387
 30
0.0
  0
SPLINE
  5
1C9
100
AcDbEntity
  8
0
370
     5
 62
     1
100
AcDbSpline
210
0.0
220
0.0
230
1.0
 70
     0
 71
     3
 72
     8
 73
     4
 74
     0
 42
0.0000000001
 43
0.0000000001
 40
0.0
 40
0.0
 40
0.0
 40
0.0
 40
1.0
 40
1.0
 40
1.0
 40
1.0
 10
120.1935
 20
-20.6387
 30
0.0
 10
120.1935
 20
-20.6387
 30
0.0
 10
120.24160000000001
 20
-12.613900000000001
 30
0.0
 10
120.24160000000001
 20
-12.613900000000001
 30
0.0
  0
SPLINE
  5
1CA
100
AcDbEntity
  8
0
370
     5
 62
     1
100
AcDbSpline
210
0.0
220
0.0
230
1.0
 70
     0
 71
     3
 72
     8
 73
     4
 74
     0
 42
0.0000000001
 43
0.0000000001
 40
0.0
 40
0.0
 40
0.0
 40
0.0
 40
1.0
 40
1.0
 40
1.0
 40
1.0
 10
120.24160000000001
 20
-12.613900000000001
 30
0.0
 10
120.6581
 20
-12.475000000000001
 30
0.0
 10
121.0823
 20
-12.309100000000001
 30
0.0
 10
121.5117
 20
-12.114500000000001
 30
0.0
  0
SPLINE
  5
1CB
100
AcDbEntity
  8
0
370
     5
 62
     1
100
AcDbSpline
210
0.0
220
0.0
230
1.0
 70
     0
 71
     3
 72
     8
 73
     4
 74
     0
 42
0.0000000001
 43
0.0000000001
 40
0.0
 40
0.0
 40
0.0
 40
0.0
 40
1.0
 40
1.0
 40
1.0
 40
1.0
 10
121.5117
 20
-12.114500000000001
 30
0.0
 10
124.87280000000001
 20
-10.589400000000001
 30
0.0
 10
134.4367
 20
-14.294500000000001
 30
0.0
 10
133.61969999999999
 20
-22.762
 30
0.0
  0
SPLINE
  5
1CC
100
AcDbEntity
  8
0
370
     5
 62
     1
100
AcDbSpline
210
0.0
220
0.0
230
1.0
 70
     0
 71
     3
 72
     8
 73
     4
 74
     0
 42
0.0000000001
 43
0.0000000001
 40
0.0
 40
0.0
 40
0.0
 40
0.0
 40
1.0
 40
1.0
 40
1.0
 40
1.0
 10
133.61969999999999
 20
-22.762
 30
0.0
 10
131.74970000000002
 20
-34.778600000000004
 30
0.0
 10
141.03800000000001
 20
-43.798500000000004
 30
0.0
 10
143.03440000000001
 20
-45.960300000000004
 30
0.0
  0
SPLINE
  5
1CD
100
AcDbEntity
  8
0
370
     5
 62
     1
100
AcDbSpline
210
0.0
220
0.0
230
1.0
 70
     0
 71
     3
 72
     8
 73
     4
 74
     0
 42
0.0000000001
 43
0.0000000001
 40
0.0
 40
0.0
 40
0.0
 40
0.0
 40
1.0
 40
1.0
 40
1.0
 40
1.0
 10
-82.25800000000001
 20
-91.317400000000006
 30
0.0
 10
-53.202100000000002
 20
-114.17670000000001
 30
0.0
 10
-57.191400000000002
 20
-152.5035
 30
0.0
 10
-93.9041
 20
-163.46250000000001
 30
0.0
  0
SPLINE
  5
1CE
100
AcDbEntity
  8
0
370
     5
 62
     1
100
AcDbSpline
210
0.0
220
0.0
230
1.0
 70
     0
 71
     3
 72
     8
 73
     4
 74
     0
 42
0.0000000001
 43
0.0000000001
 40
0.0
 40
0.0
 40
0.0
 40
0.0
 40
1.0
 40
1.0
 40
1.0
 40
1.0
 10
-93.9041
 20
-163.46250000000001
 30
0.0
 10
-131.87200000000001
 20
-176.36070000000001
 30
0.0
 10
-156.13330000000002
 20
-132.91419999999999
 30
0.0
 10
-138.44669999999999
 20
-105.06960000000001
 30
0.0
  0
SPLINE
  5
1CF
100
AcDbEntity
  8
0
370
     5
 62
     1
100
AcDbSpline
210
0.0
220
0.0
230
1.0
 70
     0
 71
     3
 72
     8
 73
     4
 74
     0
 42
0.0000000001
 43
0.0000000001
 40
0.0
 40
0.0
 40
0.0
 40
0.0
 40
1.0
 40
1.0
 40
1.0
 40
1.0
 10
-138.44669999999999
 20
-105.06960000000001
 30
0.0
 10
-132.61340000000001
 20
-95.262600000000006
 30
0.0
 10
-124.00330000000001
 20
-100.7317
 30
0.0
 10
-125.82180000000001
 20
-108.02370000000001
 30
0.0
  0
SPLINE
  5
1D0
100
AcDbEntity
  8
0
370
     5
 62
     1
100
AcDbSpline
210
0.0
220
0.0
230
1.0
 70
     0
 71
     3
 72
     8
 73
     4
 74
     0
 42
0.0000000001
 43
0.0000000001
 40
0.0
 40
0.0
 40
0.0
 40
0.0
 40
1.0
 40
1.0
 40
1.0
 40
1.0
 10
-125.82180000000001
 20
-108.02370000000001
 30
0.0
 10
-129.79140000000001
 20
-136.0522
 30
0.0
 10
-110.41390000000001
 20
-139.13890000000001
 30
0.0
 10
-103.22020000000001
 20
-138.6456
 30
0.0
  0
SPLINE
  5
1D1
100
AcDbEntity
  8
0
370
     5
 62
     1
100
AcDbSpline
210
0.0
220
0.0
230
1.0
 70
     0
 71
     3
 72
     8
 73
     4
 74
     0
 42
0.0000000001
 43
0.0000000001
 40
0.0
 40
0.0
 40
0.0
 40
0.0
 40
1.0
 40
1.0
 40
1.0
 40
1.0
 10
-103.22020000000001
 20
-138.6456
 30
0.0
 10
-103.22020000000001
 20
-138.6456
 30
0.0
 10
-100.83540000000001
 20
-146.33150000000001
 30
0.0
 10
-100.83540000000001
 20
-146.33150000000001
 30
0.0
  0
SPLINE
  5
1D2
100
AcDbEntity
  8
0
370
     5
 62
     1
100
AcDbSpline
210
0.0
220
0.0
230
1.0
 70
     0
 71
     3
 72
     8
 73
     4
 74
     0
 42
0.0000000001
 43
0.0000000001
 40
0.0
 40
0.0
 40
0.0
 40
0.0
 40
1.0
 40
1.0
 40
1.0
 40
1.0
 10
-100.83540000000001
 20
-146.33150000000001
 30
0.0
 10
-99.981200000000001
 20
-149.083
 30
0.0
 10
-96.165000000000006
 20
-147.89870000000002
 30
0.0
 10
-96.793900000000008
 20
-145.07750000000001
 30
0.0
  0
SPLINE
  5
1D3
100
AcDbEntity
  8
0
370
     5
 62
     1
100
AcDbSpline
210
0.0
220
0.0
230
1.0
 70
     0
 71
     3
 72
     8
 73
     4
 74
     0
 42
0.0000000001
 43
0.0000000001
 40
0.0
 40
0.0
 40
0.0
 40
0.0
 40
1.0
 40
1.0
 40
1.0
 40
1.0
 10
-96.793900000000008
 20
-145.07750000000001
 30
0.0
 10
-96.793900000000008
 20
-145.07750000000001
 30
0.0
 10
-99.129900000000006
 20
-137.5487
 30
0.0
 10
-99.129900000000006
 20
-137.5487
 30
0.0
  0
SPLINE
  5
1D4
100
AcDbEntity
  8
0
370
     5
 62
     1
100
AcDbSpline
210
0.0
220
0.0
230
1.0
 70
     0
 71
     3
 72
     8
 73
     4
 74
     0
 42
0.0000000001
 43
0.0000000001
 40
0.0
 40
0.0
 40
0.0
 40
0.0
 40
1.0
 40
1.0
 40
1.0
 40
1.0
 10
-99.129900000000006
 20
-137.5487
 30
0.0
 10
-85.328699999999998
 20
-131.73390000000001
 30
0.0
 10
-80.645200000000003
 20
-120.19160000000001
 30
0.0
 10
-91.305199999999999
 20
-102.85560000000001
 30
0.0
  0
SPLINE
  5
1D5
100
AcDbEntity
  8
0
370
     5
 62
     1
100
AcDbSpline
210
0.0
220
0.0
230
1.0
 70
     0
 71
     3
 72
     8
 73
     4
 74
     0
 42
0.0000000001
 43
0.0000000001
 40
0.0
 40
0.0
 40
0.0
 40
0.0
 40
1.0
 40
1.0
 40
1.0
 40
1.0
 10
-91.305199999999999
 20
-102.85560000000001
 30
0.0
 10
-101.4406
 20
-91.6327
 30
0.0
 10
-90.652900000000002
 20
-82.5595
 30
0.0
 10
-82.25800000000001
 20
-91.317400000000006
 30
0.0
  0
SPLINE
  5
1D6
100
AcDbEntity
  8
0
370
     5
 62
     1
100
AcDbSpline
210
0.0
220
0.0
230
1.0
 70
     0
 71
     3
 72
     8
 73
     4
 74
     0
 42
0.0000000001
 43
0.0000000001
 40
0.0
 40
0.0
 40
0.0
 40
0.0
 40
1.0
 40
1.0
 40
1.0
 40
1.0
 10
193.50380000000001
 20
-140.227
 30
0.0
 10
197.988
 20
-133.65890000000002
 30
0.0
 10
197.33080000000001
 20
-121.69580000000001
 30
0.0
 10
180.8091
 20
-121.77810000000001
 30
0.0
  0
SPLINE
  5
1D7
100
AcDbEntity
  8
0
370
     5
 62
     1
100
AcDbSpline
210
0.0
220
0.0
230
1.0
 70
     0
 71
     3
 72
     8
 73
     4
 74
     0
 42
0.0000000001
 43
0.0000000001
 40
0.0
 40
0.0
 40
0.0
 40
0.0
 40
1.0
 40
1.0
 40
1.0
 40
1.0
 10
180.8091
 20
-121.77810000000001
 30
0.0
 10
175.1679
 20
-121.37750000000001
 30
0.0
 10
168.86410000000001
 20
-116.86240000000001
 30
0.0
 10
166.54840000000002
 20
-111.0977
 30
0.0
  0
SPLINE
  5
1D8
100
AcDbEntity
  8
0
370
     5
 62
     1
100
AcDbSpline
210
0.0
220
0.0
230
1.0
 70
     0
 71
     3
 72
     8
 73
     4
 74
     0
 42
0.0000000001
 43
0.0000000001
 40
0.0
 40
0.0
 40
0.0
 40
0.0
 40
1.0
 40
1.0
 40
1.0
 40
1.0
 10
166.54840000000002
 20
-111.0977
 30
0.0
 10
166.54840000000002
 20
-111.0977
 30
0.0
 10
144.06870000000001
 20
-114.869
 30
0.0
 10
144.06870000000001
 20
-114.869
 30
0.0
  0
SPLINE
  5
1D9
100
AcDbEntity
  8
0
370
     5
 62
     1
100
AcDbSpline
210
0.0
220
0.0
230
1.0
 70
     0
 71
     3
 72
     8
 73
     4
 74
     0
 42
0.0000000001
 43
0.0000000001
 40
0.0
 40
0.0
 40
0.0
 40
0.0
 40
1.0
 40
1.0
 40
1.0
 40
1.0
 10
144.06870000000001
 20
-114.869
 30
0.0
 10
141.71890000000002
 20
-115.1469
 30
0.0
 10
141.0659
 20
-111.08380000000001
 30
0.0
 10
143.36850000000001
 20
-110.6974
 30
0.0
  0
SPLINE
  5
1DA
100
AcDbEntity
  8
0
370
     5
 62
     1
100
AcDbSpline
210
0.0
220
0.0
230
1.0
 70
     0
 71
     3
 72
     8
 73
     4
 74
     0
 42
0.0000000001
 43
0.0000000001
 40
0.0
 40
0.0
 40
0.0
 40
0.0
 40
1.0
 40
1.0
 40
1.0
 40
1.0
 10
143.36850000000001
 20
-110.6974
 30
0.0
 10
143.36850000000001
 20
-110.6974
 30
0.0
 10
165.6404
 20
-106.9602
 30
0.0
 10
165.6404
 20
-106.9602
 30
0.0
  0
SPLINE
  5
1DB
100
AcDbEntity
  8
0
370
     5
 62
     1
100
AcDbSpline
210
0.0
220
0.0
230
1.0
 70
     0
 71
     3
 72
     8
 73
     4
 74
     0
 42
0.0000000001
 43
0.0000000001
 40
0.0
 40
0.0
 40
0.0
 40
0.0
 40
1.0
 40
1.0
 40
1.0
 40
1.0
 10
165.6404
 20
-106.9602
 30
0.0
 10
165.45580000000001
 20
-102.1173
 30
0.0
 10
168.3699
 20
-96.911900000000003
 30
0.0
 10
176.61670000000001
 20
-92.717800000000011
 30
0.0
  0
SPLINE
  5
1DC
100
AcDbEntity
  8
0
370
     5
 62
     1
100
AcDbSpline
210
0.0
220
0.0
230
1.0
 70
     0
 71
     3
 72
     8
 73
     4
 74
     0
 42
0.0000000001
 43
0.0000000001
 40
0.0
 40
0.0
 40
0.0
 40
0.0
 40
1.0
 40
1.0
 40
1.0
 40
1.0
 10
176.61670000000001
 20
-92.717800000000011
 30
0.0
 10
186.7713
 20
-88.340299999999999
 30
0.0
 10
189.84560000000002
 20
-82.472300000000004
 30
0.0
 10
185.8398
 20
-75.114100000000008
 30
0.0
  0
SPLINE
  5
1DD
100
AcDbEntity
  8
0
370
     5
 62
     1
100
AcDbSpline
210
0.0
220
0.0
230
1.0
 70
     0
 71
     3
 72
     8
 73
     4
 74
     0
 42
0.0000000001
 43
0.0000000001
 40
0.0
 40
0.0
 40
0.0
 40
0.0
 40
1.0
 40
1.0
 40
1.0
 40
1.0
 10
185.8398
 20
-75.114100000000008
 30
0.0
 10
184.33260000000001
 20
-72.519500000000008
 30
0.0
 10
182.5248
 20
-70.827700000000007
 30
0.0
 10
180.41630000000001
 20
-70.037999999999997
 30
0.0
  0
SPLINE
  5
1DE
100
AcDbEntity
  8
0
370
     5
 62
     1
100
AcDbSpline
210
0.0
220
0.0
230
1.0
 70
     0
 71
     3
 72
     8
 73
     4
 74
     0
 42
0.0000000001
 43
0.0000000001
 40
0.0
 40
0.0
 40
0.0
 40
0.0
 40
1.0
 40
1.0
 40
1.0
 40
1.0
 10
180.41630000000001
 20
-70.037999999999997
 30
0.0
 10
180.41630000000001
 20
-70.037999999999997
 30
0.0
 10
151.5573
 20
-80.198999999999998
 30
0.0
 10
151.5573
 20
-80.198999999999998
 30
0.0
  0
SPLINE
  5
1DF
100
AcDbEntity
  8
0
370
     5
 62
     1
100
AcDbSpline
210
0.0
220
0.0
230
1.0
 70
     0
 71
     3
 72
     8
 73
     4
 74
     0
 42
0.0000000001
 43
0.0000000001
 40
0.0
 40
0.0
 40
0.0
 40
0.0
 40
1.0
 40
1.0
 40
1.0
 40
1.0
 10
151.5573
 20
-80.198999999999998
 30
0.0
 10
149.28960000000001
 20
-80.87530000000001
 30
0.0
 10
147.94980000000001
 20
-76.984700000000004
 30
0.0
 10
150.15210000000002
 20
-76.2089
 30
0.0
  0
SPLINE
  5
1E0
100
AcDbEntity
  8
0
370
     5
 62
     1
100
AcDbSpline
210
0.0
220
0.0
230
1.0
 70
     0
 71
     3
 72
     8
 73
     4
 74
     0
 42
0.0000000001
 43
0.0000000001
 40
0.0
 40
0.0
 40
0.0
 40
0.0
 40
1.0
 40
1.0
 40
1.0
 40
1.0
 10
150.15210000000002
 20
-76.2089
 30
0.0
 10
150.15210000000002
 20
-76.2089
 30
0.0
 10
177.74080000000001
 20
-66.494399999999999
 30
0.0
 10
177.74080000000001
 20
-66.494399999999999
 30
0.0
  0
SPLINE
  5
1E1
100
AcDbEntity
  8
0
370
     5
 62
     1
100
AcDbSpline
210
0.0
220
0.0
230
1.0
 70
     0
 71
     3
 72
     8
 73
     4
 74
     0
 42
0.0000000001
 43
0.0000000001
 40
0.0
 40
0.0
 40
0.0
 40
0.0
 40
1.0
 40
1.0
 40
1.0
 40
1.0
 10
177.74080000000001
 20
-66.494399999999999
 30
0.0
 10
175.05630000000002
 20
-64.216200000000001
 30
0.0
 10
173.143
 20
-64.009
 30
0.0
 10
169.9091
 20
-64.216400000000007
 30
0.0
  0
SPLINE
  5
1E2
100
AcDbEntity
  8
0
370
     5
 62
     1
100
AcDbSpline
210
0.0
220
0.0
230
1.0
 70
     0
 71
     3
 72
     8
 73
     4
 74
     0
 42
0.0000000001
 43
0.0000000001
 40
0.0
 40
0.0
 40
0.0
 40
0.0
 40
1.0
 40
1.0
 40
1.0
 40
1.0
 10
169.9091
 20
-64.216400000000007
 30
0.0
 10
154.81650000000002
 20
-63.890500000000003
 30
0.0
 10
139.7242
 20
-66.871000000000009
 30
0.0
 10
124.63210000000001
 20
-73.996300000000005
 30
0.0
  0
SPLINE
  5
1E3
100
AcDbEntity
  8
0
370
     5
 62
     1
100
AcDbSpline
210
0.0
220
0.0
230
1.0
 70
     0
 71
     3
 72
     8
 73
     4
 74
     0
 42
0.0000000001
 43
0.0000000001
 40
0.0
 40
0.0
 40
0.0
 40
0.0
 40
1.0
 40
1.0
 40
1.0
 40
1.0
 10
124.63210000000001
 20
-73.996300000000005
 30
0.0
 10
109.60090000000001
 20
-82.736400000000003
 30
0.0
 10
99.3797
 20
-90.519600000000011
 30
0.0
 10
107.30380000000001
 20
-109.4834
 30
0.0
  0
SPLINE
  5
1E4
100
AcDbEntity
  8
0
370
     5
 62
     1
100
AcDbSpline
210
0.0
220
0.0
230
1.0
 70
     0
 71
     3
 72
     8
 73
     4
 74
     0
 42
0.0000000001
 43
0.0000000001
 40
0.0
 40
0.0
 40
0.0
 40
0.0
 40
1.0
 40
1.0
 40
1.0
 40
1.0
 10
107.30380000000001
 20
-109.4834
 30
0.0
 10
113.06150000000001
 20
-119.8601
 30
0.0
 10
109.5262
 20
-123.9299
 30
0.0
 10
108.4218
 20
-128.7637
 30
0.0
  0
SPLINE
  5
1E5
100
AcDbEntity
  8
0
370
     5
 62
     1
100
AcDbSpline
210
0.0
220
0.0
230
1.0
 70
     0
 71
     3
 72
     8
 73
     4
 74
     0
 42
0.0000000001
 43
0.0000000001
 40
0.0
 40
0.0
 40
0.0
 40
0.0
 40
1.0
 40
1.0
 40
1.0
 40
1.0
 10
108.4218
 20
-128.7637
 30
0.0
 10
107.56230000000001
 20
-134.1011
 30
0.0
 10
111.6735
 20
-147.5599
 30
0.0
 10
123.944
 20
-150.2937
 30
0.0
  0
SPLINE
  5
1E6
100
AcDbEntity
  8
0
370
     5
 62
     1
100
AcDbSpline
210
0.0
220
0.0
230
1.0
 70
     0
 71
     3
 72
     8
 73
     4
 74
     0
 42
0.0000000001
 43
0.0000000001
 40
0.0
 40
0.0
 40
0.0
 40
0.0
 40
1.0
 40
1.0
 40
1.0
 40
1.0
 10
123.944
 20
-150.2937
 30
0.0
 10
144.21340000000001
 20
-159.55680000000001
 30
0.0
 10
181.2534
 20
-154.89870000000002
 30
0.0
 10
187.59910000000002
 20
-144.49090000000001
 30
0.0
  0
SPLINE
  5
1E7
100
AcDbEntity
  8
0
370
     5
 62
     1
100
AcDbSpline
210
0.0
220
0.0
230
1.0
 70
     0
 71
     3
 72
     8
 73
     4
 74
     0
 42
0.0000000001
 43
0.0000000001
 40
0.0
 40
0.0
 40
0.0
 40
0.0
 40
1.0
 40
1.0
 40
1.0
 40
1.0
 10
187.59910000000002
 20
-144.49090000000001
 30
0.0
 10
187.59910000000002
 20
-144.49090000000001
 30
0.0
 10
160.43810000000002
 20
-144.64070000000001
 30
0.0
 10
160.43810000000002
 20
-144.64070000000001
 30
0.0
  0
SPLINE
  5
1E8
100
AcDbEntity
  8
0
370
     5
 62
     1
100
AcDbSpline
210
0.0
220
0.0
230
1.0
 70
     0
 71
     3
 72
     8
 73
     4
 74
     0
 42
0.0000000001
 43
0.0000000001
 40
0.0
 40
0.0
 40
0.0
 40
0.0
 40
1.0
 40
1.0
 40
1.0
 40
1.0
 10
160.43810000000002
 20
-144.64070000000001
 30
0.0
 10
158.0737
 20
-144.5385
 30
0.0
 10
158.08010000000002
 20
-140.42400000000001
 30
0.0
 10
160.41480000000001
 20
-140.41070000000002
 30
0.0
  0
SPLINE
  5
1E9
100
AcDbEntity
  8
0
370
     5
 62
     1
100
AcDbSpline
210
0.0
220
0.0
230
1.0
 70
     0
 71
     3
 72
     8
 73
     4
 74
     0
 42
0.0000000001
 43
0.0000000001
 40
0.0
 40
0.0
 40
0.0
 40
0.0
 40
1.0
 40
1.0
 40
1.0
 40
1.0
 10
160.41480000000001
 20
-140.41070000000002
 30
0.0
 10
160.41480000000001
 20
-140.41070000000002
 30
0.0
 10
193.50380000000001
 20
-140.227
 30
0.0
 10
193.50380000000001
 20
-140.227
 30
0.0
  0
SPLINE
  5
1EA
100
AcDbEntity
  8
0
370
     5
 62
     1
100
AcDbSpline
210
0.0
220
0.0
230
1.0
 70
     0
 71
     3
 72
     8
 73
     4
 74
     0
 42
0.0000000001
 43
0.0000000001
 40
0.0
 40
0.0
 40
0.0
 40
0.0
 40
1.0
 40
1.0
 40
1.0
 40
1.0
 10
-164.16980000000001
 20
-132.21080000000001
 30
0.0
 10
-153.01750000000001
 20
-139.19290000000001
 30
0.0
 10
-144.88760000000002
 20
-131.3775
 30
0.0
 10
-155.41470000000001
 20
-123.14490000000001
 30
0.0
  0
SPLINE
  5
1EB
100
AcDbEntity
  8
0
370
     5
 62
     1
100
AcDbSpline
210
0.0
220
0.0
230
1.0
 70
     0
 71
     3
 72
     8
 73
     4
 74
     0
 42
0.0000000001
 43
0.0000000001
 40
0.0
 40
0.0
 40
0.0
 40
0.0
 40
1.0
 40
1.0
 40
1.0
 40
1.0
 10
-155.41470000000001
 20
-123.14490000000001
 30
0.0
 10
-164.50890000000001
 20
-114.75630000000001
 30
0.0
 10
-170.08520000000001
 20
-102.46010000000001
 30
0.0
 10
-164.16980000000001
 20
-90.632199999999997
 30
0.0
  0
SPLINE
  5
1EC
100
AcDbEntity
  8
0
370
     5
 62
     1
100
AcDbSpline
210
0.0
220
0.0
230
1.0
 70
     0
 71
     3
 72
     8
 73
     4
 74
     0
 42
0.0000000001
 43
0.0000000001
 40
0.0
 40
0.0
 40
0.0
 40
0.0
 40
1.0
 40
1.0
 40
1.0
 40
1.0
 10
-164.16980000000001
 20
-90.632199999999997
 30
0.0
 10
-160.5761
 20
-85.564800000000005
 30
0.0
 10
-156.47490000000002
 20
-81.866700000000009
 30
0.0
 10
-151.84220000000002
 20
-79.608400000000003
 30
0.0
  0
SPLINE
  5
1ED
100
AcDbEntity
  8
0
370
     5
 62
     1
100
AcDbSpline
210
0.0
220
0.0
230
1.0
 70
     0
 71
     3
 72
     8
 73
     4
 74
     0
 42
0.0000000001
 43
0.0000000001
 40
0.0
 40
0.0
 40
0.0
 40
0.0
 40
1.0
 40
1.0
 40
1.0
 40
1.0
 10
-151.84220000000002
 20
-79.608400000000003
 30
0.0
 10
-151.84220000000002
 20
-79.608400000000003
 30
0.0
 10
-153.7022
 20
-73.088300000000004
 30
0.0
 10
-153.7022
 20
-73.088300000000004
 30
0.0
  0
SPLINE
  5
1EE
100
AcDbEntity
  8
0
370
     5
 62
     1
100
AcDbSpline
210
0.0
220
0.0
230
1.0
 70
     0
 71
     3
 72
     8
 73
     4
 74
     0
 42
0.0000000001
 43
0.0000000001
 40
0.0
 40
0.0
 40
0.0
 40
0.0
 40
1.0
 40
1.0
 40
1.0
 40
1.0
 10
-153.7022
 20
-73.088300000000004
 30
0.0
 10
-154.23940000000002
 20
-70.783900000000003
 30
0.0
 10
-150.27290000000002
 20
-69.682900000000004
 30
0.0
 10
-149.63290000000001
 20
-71.927700000000002
 30
0.0
  0
SPLINE
  5
1EF
100
AcDbEntity
  8
0
370
     5
 62
     1
100
AcDbSpline
210
0.0
220
0.0
230
1.0
 70
     0
 71
     3
 72
     8
 73
     4
 74
     0
 42
0.0000000001
 43
0.0000000001
 40
0.0
 40
0.0
 40
0.0
 40
0.0
 40
1.0
 40
1.0
 40
1.0
 40
1.0
 10
-149.63290000000001
 20
-71.927700000000002
 30
0.0
 10
-149.63290000000001
 20
-71.927700000000002
 30
0.0
 10
-147.88140000000001
 20
-78.067100000000011
 30
0.0
 10
-147.88140000000001
 20
-78.067100000000011
 30
0.0
  0
SPLINE
  5
1F0
100
AcDbEntity
  8
0
370
     5
 62
     1
100
AcDbSpline
210
0.0
220
0.0
230
1.0
 70
     0
 71
     3
 72
     8
 73
     4
 74
     0
 42
0.0000000001
 43
0.0000000001
 40
0.0
 40
0.0
 40
0.0
 40
0.0
 40
1.0
 40
1.0
 40
1.0
 40
1.0
 10
-147.88140000000001
 20
-78.067100000000011
 30
0.0
 10
-142.66670000000002
 20
-76.525500000000008
 30
0.0
 10
-136.84890000000001
 20
-76.620900000000006
 30
0.0
 10
-130.39950000000002
 20
-78.440100000000001
 30
0.0
  0
SPLINE
  5
1F1
100
AcDbEntity
  8
0
370
     5
 62
     1
100
AcDbSpline
210
0.0
220
0.0
230
1.0
 70
     0
 71
     3
 72
     8
 73
     4
 74
     0
 42
0.0000000001
 43
0.0000000001
 40
0.0
 40
0.0
 40
0.0
 40
0.0
 40
1.0
 40
1.0
 40
1.0
 40
1.0
 10
-130.39950000000002
 20
-78.440100000000001
 30
0.0
 10
-117.65740000000001
 20
-85.21350000000001
 30
0.0
 10
-113.12350000000001
 20
-98.86460000000001
 30
0.0
 10
-117.89190000000001
 20
-115.6418
 30
0.0
  0
SPLINE
  5
1F2
100
AcDbEntity
  8
0
370
     5
 62
     1
100
AcDbSpline
210
0.0
220
0.0
230
1.0
 70
     0
 71
     3
 72
     8
 73
     4
 74
     0
 42
0.0000000001
 43
0.0000000001
 40
0.0
 40
0.0
 40
0.0
 40
0.0
 40
1.0
 40
1.0
 40
1.0
 40
1.0
 10
-117.89190000000001
 20
-115.6418
 30
0.0
 10
-119.3511
 20
-121.99860000000001
 30
0.0
 10
-110.49160000000001
 20
-125.85430000000001
 30
0.0
 10
-106.3224
 20
-117.83030000000001
 30
0.0
  0
SPLINE
  5
1F3
100
AcDbEntity
  8
0
370
     5
 62
     1
100
AcDbSpline
210
0.0
220
0.0
230
1.0
 70
     0
 71
     3
 72
     8
 73
     4
 74
     0
 42
0.0000000001
 43
0.0000000001
 40
0.0
 40
0.0
 40
0.0
 40
0.0
 40
1.0
 40
1.0
 40
1.0
 40
1.0
 10
-106.3224
 20
-117.83030000000001
 30
0.0
 10
-99.02640000000001
 20
-96.129000000000005
 30
0.0
 10
-100.9025
 20
-80.446200000000005
 30
0.0
 10
-105.38430000000001
 20
-71.562399999999997
 30
0.0
  0
SPLINE
  5
1F4
100
AcDbEntity
  8
0
370
     5
 62
     1
100
AcDbSpline
210
0.0
220
0.0
230
1.0
 70
     0
 71
     3
 72
     8
 73
     4
 74
     0
 42
0.0000000001
 43
0.0000000001
 40
0.0
 40
0.0
 40
0.0
 40
0.0
 40
1.0
 40
1.0
 40
1.0
 40
1.0
 10
-105.38430000000001
 20
-71.562399999999997
 30
0.0
 10
-112.6024
 20
-58.302400000000006
 30
0.0
 10
-124.53710000000001
 20
-49.913800000000002
 30
0.0
 10
-136.9659
 20
-48.741
 30
0.0
  0
SPLINE
  5
1F5
100
AcDbEntity
  8
0
370
     5
 62
     1
100
AcDbSpline
210
0.0
220
0.0
230
1.0
 70
     0
 71
     3
 72
     8
 73
     4
 74
     0
 42
0.0000000001
 43
0.0000000001
 40
0.0
 40
0.0
 40
0.0
 40
0.0
 40
1.0
 40
1.0
 40
1.0
 40
1.0
 10
-136.9659
 20
-48.741
 30
0.0
 10
-153.95570000000001
 20
-48.741199999999999
 30
0.0
 10
-168.6516
 20
-54.1601
 30
0.0
 10
-179.49180000000001
 20
-64.997500000000002
 30
0.0
  0
SPLINE
  5
1F6
100
AcDbEntity
  8
0
370
     5
 62
     1
100
AcDbSpline
210
0.0
220
0.0
230
1.0
 70
     0
 71
     3
 72
     8
 73
     4
 74
     0
 42
0.0000000001
 43
0.0000000001
 40
0.0
 40
0.0
 40
0.0
 40
0.0
 40
1.0
 40
1.0
 40
1.0
 40
1.0
 10
-179.49180000000001
 20
-64.997500000000002
 30
0.0
 10
-185.43280000000001
 20
-72.500500000000002
 30
0.0
 10
-190.12290000000002
 20
-83.963099999999997
 30
0.0
 10
-188.5598
 20
-96.259500000000003
 30
0.0
  0
SPLINE
  5
1F7
100
AcDbEntity
  8
0
370
     5
 62
     1
100
AcDbSpline
210
0.0
220
0.0
230
1.0
 70
     0
 71
     3
 72
     8
 73
     4
 74
     0
 42
0.0000000001
 43
0.0000000001
 40
0.0
 40
0.0
 40
0.0
 40
0.0
 40
1.0
 40
1.0
 40
1.0
 40
1.0
 10
-188.5598
 20
-96.259500000000003
 30
0.0
 10
-186.7878
 20
-115.4336
 30
0.0
 10
-173.23760000000001
 20
-126.27070000000001
 30
0.0
 10
-164.16980000000001
 20
-132.21080000000001
 30
0.0
  0
SPLINE
  5
1F8
100
AcDbEntity
  8
0
370
     5
 62
     1
100
AcDbSpline
210
0.0
220
0.0
230
1.0
 70
     0
 71
     3
 72
     8
 73
     4
 74
     0
 42
0.0000000001
 43
0.0000000001
 40
0.0
 40
0.0
 40
0.0
 40
0.0
 40
1.0
 40
1.0
 40
1.0
 40
1.0
 10
-17.039400000000001
 20
-128.953
 30
0.0
 10
-9.4322999999999997
 20
-133.27850000000001
 30
0.0
 10
1.4144000000000001
 20
-119.68980000000001
 30
0.0
 10
-13.0434
 20
-116.718
 30
0.0
  0
SPLINE
  5
1F9
100
AcDbEntity
  8
0
370
     5
 62
     1
100
AcDbSpline
210
0.0
220
0.0
230
1.0
 70
     0
 71
     3
 72
     8
 73
     4
 74
     0
 42
0.0000000001
 43
0.0000000001
 40
0.0
 40
0.0
 40
0.0
 40
0.0
 40
1.0
 40
1.0
 40
1.0
 40
1.0
 10
-13.0434
 20
-116.718
 30
0.0
 10
-26.819800000000001
 20
-112.23950000000001
 30
0.0
 10
-44.629000000000005
 20
-96.9238
 30
0.0
 10
-34.022500000000001
 20
-76.26700000000001
 30
0.0
  0
SPLINE
  5
1FA
100
AcDbEntity
  8
0
370
     5
 62
     1
100
AcDbSpline
210
0.0
220
0.0
230
1.0
 70
     0
 71
     3
 72
     8
 73
     4
 74
     0
 42
0.0000000001
 43
0.0000000001
 40
0.0
 40
0.0
 40
0.0
 40
0.0
 40
1.0
 40
1.0
 40
1.0
 40
1.0
 10
-34.022500000000001
 20
-76.26700000000001
 30
0.0
 10
-33.0535
 20
-74.669600000000003
 30
0.0
 10
-31.902700000000003
 20
-73.253700000000009
 30
0.0
 10
-30.6021
 20
-71.988
 30
0.0
  0
SPLINE
  5
1FB
100
AcDbEntity
  8
0
370
     5
 62
     1
100
AcDbSpline
210
0.0
220
0.0
230
1.0
 70
     0
 71
     3
 72
     8
 73
     4
 74
     0
 42
0.0000000001
 43
0.0000000001
 40
0.0
 40
0.0
 40
0.0
 40
0.0
 40
1.0
 40
1.0
 40
1.0
 40
1.0
 10
-30.6021
 20
-71.988
 30
0.0
 10
-30.6021
 20
-71.988
 30
0.0
 10
-36.295900000000003
 20
-63.720300000000002
 30
0.0
 10
-36.295900000000003
 20
-63.720300000000002
 30
0.0
  0
SPLINE
  5
1FC
100
AcDbEntity
  8
0
370
     5
 62
     1
100
AcDbSpline
210
0.0
220
0.0
230
1.0
 70
     0
 71
     3
 72
     8
 73
     4
 74
     0
 42
0.0000000001
 43
0.0000000001
 40
0.0
 40
0.0
 40
0.0
 40
0.0
 40
1.0
 40
1.0
 40
1.0
 40
1.0
 10
-36.295900000000003
 20
-63.720300000000002
 30
0.0
 10
-37.736400000000003
 20
-61.214400000000005
 30
0.0
 10
-34.444500000000005
 20
-58.948300000000003
 30
0.0
 10
-32.810500000000005
 20
-61.321000000000005
 30
0.0
  0
SPLINE
  5
1FD
100
AcDbEntity
  8
0
370
     5
 62
     1
100
AcDbSpline
210
0.0
220
0.0
230
1.0
 70
     0
 71
     3
 72
     8
 73
     4
 74
     0
 42
0.0000000001
 43
0.0000000001
 40
0.0
 40
0.0
 40
0.0
 40
0.0
 40
1.0
 40
1.0
 40
1.0
 40
1.0
 10
-32.810500000000005
 20
-61.321000000000005
 30
0.0
 10
-32.810500000000005
 20
-61.321000000000005
 30
0.0
 10
-27.3172
 20
-69.29740000000001
 30
0.0
 10
-27.3172
 20
-69.29740000000001
 30
0.0
  0
SPLINE
  5
1FE
100
AcDbEntity
  8
0
370
     5
 62
     1
100
AcDbSpline
210
0.0
220
0.0
230
1.0
 70
     0
 71
     3
 72
     8
 73
     4
 74
     0
 42
0.0000000001
 43
0.0000000001
 40
0.0
 40
0.0
 40
0.0
 40
0.0
 40
1.0
 40
1.0
 40
1.0
 40
1.0
 10
-27.3172
 20
-69.29740000000001
 30
0.0
 10
-25.192600000000002
 20
-67.822500000000005
 30
0.0
 10
-22.820800000000002
 20
-66.594999999999999
 30
0.0
 10
-20.286200000000001
 20
-65.530200000000008
 30
0.0
  0
SPLINE
  5
1FF
100
AcDbEntity
  8
0
370
     5
 62
     1
100
AcDbSpline
210
0.0
220
0.0
230
1.0
 70
     0
 71
     3
 72
     8
 73
     4
 74
     0
 42
0.0000000001
 43
0.0000000001
 40
0.0
 40
0.0
 40
0.0
 40
0.0
 40
1.0
 40
1.0
 40
1.0
 40
1.0
 10
-20.286200000000001
 20
-65.530200000000008
 30
0.0
 10
-2.762
 20
-61.347700000000003
 30
0.0
 10
8.7263000000000002
 20
-71.044499999999999
 30
0.0
 10
12.930800000000001
 20
-97.491200000000006
 30
0.0
  0
SPLINE
  5
200
100
AcDbEntity
  8
0
370
     5
 62
     1
100
AcDbSpline
210
0.0
220
0.0
230
1.0
 70
     0
 71
     3
 72
     8
 73
     4
 74
     0
 42
0.0000000001
 43
0.0000000001
 40
0.0
 40
0.0
 40
0.0
 40
0.0
 40
1.0
 40
1.0
 40
1.0
 40
1.0
 10
12.930800000000001
 20
-97.491200000000006
 30
0.0
 10
16.0305
 20
-105.33590000000001
 30
0.0
 10
23.802700000000002
 20
-102.43860000000001
 30
0.0
 10
23.670000000000002
 20
-96.242699999999999
 30
0.0
  0
SPLINE
  5
201
100
AcDbEntity
  8
0
370
     5
 62
     1
100
AcDbSpline
210
0.0
220
0.0
230
1.0
 70
     0
 71
     3
 72
     8
 73
     4
 74
     0
 42
0.0000000001
 43
0.0000000001
 40
0.0
 40
0.0
 40
0.0
 40
0.0
 40
1.0
 40
1.0
 40
1.0
 40
1.0
 10
23.670000000000002
 20
-96.242699999999999
 30
0.0
 10
25.418500000000002
 20
-76.02770000000001
 30
0.0
 10
21.422700000000003
 20
-58.444900000000004
 30
0.0
 10
7.1865000000000006
 20
-45.554500000000004
 30
0.0
  0
SPLINE
  5
202
100
AcDbEntity
  8
0
370
     5
 62
     1
100
AcDbSpline
210
0.0
220
0.0
230
1.0
 70
     0
 71
     3
 72
     8
 73
     4
 74
     0
 42
0.0000000001
 43
0.0000000001
 40
0.0
 40
0.0
 40
0.0
 40
0.0
 40
1.0
 40
1.0
 40
1.0
 40
1.0
 10
7.1865000000000006
 20
-45.554500000000004
 30
0.0
 10
-9.5058000000000007
 20
-34.255600000000001
 30
0.0
 10
-25.406000000000002
 20
-35.212900000000005
 30
0.0
 10
-40.765799999999999
 20
-44.555700000000002
 30
0.0
  0
SPLINE
  5
203
100
AcDbEntity
  8
0
370
     5
 62
     1
100
AcDbSpline
210
0.0
220
0.0
230
1.0
 70
     0
 71
     3
 72
     8
 73
     4
 74
     0
 42
0.0000000001
 43
0.0000000001
 40
0.0
 40
0.0
 40
0.0
 40
0.0
 40
1.0
 40
1.0
 40
1.0
 40
1.0
 10
-40.765799999999999
 20
-44.555700000000002
 30
0.0
 10
-54.088100000000004
 20
-52.799800000000005
 30
0.0
 10
-59.831600000000002
 20
-64.359099999999998
 30
0.0
 10
-62.494
 20
-77.265799999999999
 30
0.0
  0
SPLINE
  5
204
100
AcDbEntity
  8
0
370
     5
 62
     1
100
AcDbSpline
210
0.0
220
0.0
230
1.0
 70
     0
 71
     3
 72
     8
 73
     4
 74
     0
 42
0.0000000001
 43
0.0000000001
 40
0.0
 40
0.0
 40
0.0
 40
0.0
 40
1.0
 40
1.0
 40
1.0
 40
1.0
 10
-62.494
 20
-77.265799999999999
 30
0.0
 10
-63.8264
 20
-92.019199999999998
 30
0.0
 10
-58.331800000000001
 20
-104.21250000000001
 30
0.0
 10
-49.0077
 20
-114.9701
 30
0.0
  0
SPLINE
  5
205
100
AcDbEntity
  8
0
370
     5
 62
     1
100
AcDbSpline
210
0.0
220
0.0
230
1.0
 70
     0
 71
     3
 72
     8
 73
     4
 74
     0
 42
0.0000000001
 43
0.0000000001
 40
0.0
 40
0.0
 40
0.0
 40
0.0
 40
1.0
 40
1.0
 40
1.0
 40
1.0
 10
-49.0077
 20
-114.9701
 30
0.0
 10
-40.974299999999999
 20
-121.5043
 30
0.0
 10
-29.735400000000002
 20
-125.74900000000001
 30
0.0
 10
-17.039400000000001
 20
-128.953
 30
0.0
  0
SPLINE
  5
206
100
AcDbEntity
  8
0
370
     5
 62
     1
100
AcDbSpline
210
0.0
220
0.0
230
1.0
 70
     0
 71
     3
 72
     8
 73
     4
 74
     0
 42
0.0000000001
 43
0.0000000001
 40
0.0
 40
0.0
 40
0.0
 40
0.0
 40
1.0
 40
1.0
 40
1.0
 40
1.0
 10
-7.1682000000000006
 20
-95.458200000000005
 30
0.0
 10
-7.3792
 20
-85.429900000000004
 30
0.0
 10
4.2484999999999999
 20
-82.588800000000006
 30
0.0
 10
4.9775999999999998
 20
-92.67540000000001
 30
0.0
  0
SPLINE
  5
207
100
AcDbEntity
  8
0
370
     5
 62
     1
100
AcDbSpline
210
0.0
220
0.0
230
1.0
 70
     0
 71
     3
 72
     8
 73
     4
 74
     0
 42
0.0000000001
 43
0.0000000001
 40
0.0
 40
0.0
 40
0.0
 40
0.0
 40
1.0
 40
1.0
 40
1.0
 40
1.0
 10
4.9775999999999998
 20
-92.67540000000001
 30
0.0
 10
6.4184000000000001
 20
-105.0026
 30
0.0
 10
15.310700000000001
 20
-117.667
 30
0.0
 10
24.573800000000002
 20
-119.23610000000001
 30
0.0
  0
SPLINE
  5
208
100
AcDbEntity
  8
0
370
     5
 62
     1
100
AcDbSpline
210
0.0
220
0.0
230
1.0
 70
     0
 71
     3
 72
     8
 73
     4
 74
     0
 42
0.0000000001
 43
0.0000000001
 40
0.0
 40
0.0
 40
0.0
 40
0.0
 40
1.0
 40
1.0
 40
1.0
 40
1.0
 10
24.573800000000002
 20
-119.23610000000001
 30
0.0
 10
32.073799999999999
 20
-119.90270000000001
 30
0.0
 10
38.7393
 20
-118.6254
 30
0.0
 10
44.2258
 20
-114.9028
 30
0.0
  0
SPLINE
  5
209
100
AcDbEntity
  8
0
370
     5
 62
     1
100
AcDbSpline
210
0.0
220
0.0
230
1.0
 70
     0
 71
     3
 72
     8
 73
     4
 74
     0
 42
0.0000000001
 43
0.0000000001
 40
0.0
 40
0.0
 40
0.0
 40
0.0
 40
1.0
 40
1.0
 40
1.0
 40
1.0
 10
44.2258
 20
-114.9028
 30
0.0
 10
44.2258
 20
-114.9028
 30
0.0
 10
48.6113
 20
-120.94460000000001
 30
0.0
 10
48.6113
 20
-120.94460000000001
 30
0.0
  0
SPLINE
  5
20A
100
AcDbEntity
  8
0
370
     5
 62
     1
100
AcDbSpline
210
0.0
220
0.0
230
1.0
 70
     0
 71
     3
 72
     8
 73
     4
 74
     0
 42
0.0000000001
 43
0.0000000001
 40
0.0
 40
0.0
 40
0.0
 40
0.0
 40
1.0
 40
1.0
 40
1.0
 40
1.0
 10
48.6113
 20
-120.94460000000001
 30
0.0
 10
50.304200000000002
 20
-123.2766
 30
0.0
 10
53.537800000000004
 20
-120.92960000000001
 30
0.0
 10
52.036300000000004
 20
-118.45910000000001
 30
0.0
  0
SPLINE
  5
20B
100
AcDbEntity
  8
0
370
     5
 62
     1
100
AcDbSpline
210
0.0
220
0.0
230
1.0
 70
     0
 71
     3
 72
     8
 73
     4
 74
     0
 42
0.0000000001
 43
0.0000000001
 40
0.0
 40
0.0
 40
0.0
 40
0.0
 40
1.0
 40
1.0
 40
1.0
 40
1.0
 10
52.036300000000004
 20
-118.45910000000001
 30
0.0
 10
52.036300000000004
 20
-118.45910000000001
 30
0.0
 10
47.518300000000004
 20
-112.2346
 30
0.0
 10
47.518300000000004
 20
-112.2346
 30
0.0
  0
SPLINE
  5
20C
100
AcDbEntity
  8
0
370
     5
 62
     1
100
AcDbSpline
210
0.0
220
0.0
230
1.0
 70
     0
 71
     3
 72
     8
 73
     4
 74
     0
 42
0.0000000001
 43
0.0000000001
 40
0.0
 40
0.0
 40
0.0
 40
0.0
 40
1.0
 40
1.0
 40
1.0
 40
1.0
 10
47.518300000000004
 20
-112.2346
 30
0.0
 10
51.104800000000004
 20
-108.7976
 30
0.0
 10
54.042000000000002
 20
-104.03580000000001
 30
0.0
 10
56.199000000000005
 20
-97.7607
 30
0.0
  0
SPLINE
  5
20D
100
AcDbEntity
  8
0
370
     5
 62
     1
100
AcDbSpline
210
0.0
220
0.0
230
1.0
 70
     0
 71
     3
 72
     8
 73
     4
 74
     0
 42
0.0000000001
 43
0.0000000001
 40
0.0
 40
0.0
 40
0.0
 40
0.0
 40
1.0
 40
1.0
 40
1.0
 40
1.0
 10
56.199000000000005
 20
-97.7607
 30
0.0
 10
58.011000000000003
 20
-83.764499999999998
 30
0.0
 10
48.365600000000001
 20
-75.168300000000002
 30
0.0
 10
33.5124
 20
-69.026800000000009
 30
0.0
  0
SPLINE
  5
20E
100
AcDbEntity
  8
0
370
     5
 62
     1
100
AcDbSpline
210
0.0
220
0.0
230
1.0
 70
     0
 71
     3
 72
     8
 73
     4
 74
     0
 42
0.0000000001
 43
0.0000000001
 40
0.0
 40
0.0
 40
0.0
 40
0.0
 40
1.0
 40
1.0
 40
1.0
 40
1.0
 10
33.5124
 20
-69.026800000000009
 30
0.0
 10
26.6815
 20
-65.424999999999997
 30
0.0
 10
30.062900000000003
 20
-57.396300000000004
 30
0.0
 10
36.134599999999999
 20
-58.059699999999999
 30
0.0
  0
SPLINE
  5
20F
100
AcDbEntity
  8
0
370
     5
 62
     1
100
AcDbSpline
210
0.0
220
0.0
230
1.0
 70
     0
 71
     3
 72
     8
 73
     4
 74
     0
 42
0.0000000001
 43
0.0000000001
 40
0.0
 40
0.0
 40
0.0
 40
0.0
 40
1.0
 40
1.0
 40
1.0
 40
1.0
 10
36.134599999999999
 20
-58.059699999999999
 30
0.0
 10
71.791700000000006
 20
-64.430599999999998
 30
0.0
 10
86.186999999999998
 20
-83.168800000000005
 30
0.0
 10
79.003799999999998
 20
-113.7351
 30
0.0
  0
SPLINE
  5
210
100
AcDbEntity
  8
0
370
     5
 62
     1
100
AcDbSpline
210
0.0
220
0.0
230
1.0
 70
     0
 71
     3
 72
     8
 73
     4
 74
     0
 42
0.0000000001
 43
0.0000000001
 40
0.0
 40
0.0
 40
0.0
 40
0.0
 40
1.0
 40
1.0
 40
1.0
 40
1.0
 10
79.003799999999998
 20
-113.7351
 30
0.0
 10
74.359000000000009
 20
-128.7115
 30
0.0
 10
52.419000000000004
 20
-147.50470000000001
 30
0.0
 10
30.393500000000003
 20
-145.1866
 30
0.0
  0
SPLINE
  5
211
100
AcDbEntity
  8
0
370
     5
 62
     1
100
AcDbSpline
210
0.0
220
0.0
230
1.0
 70
     0
 71
     3
 72
     8
 73
     4
 74
     0
 42
0.0000000001
 43
0.0000000001
 40
0.0
 40
0.0
 40
0.0
 40
0.0
 40
1.0
 40
1.0
 40
1.0
 40
1.0
 10
30.393500000000003
 20
-145.1866
 30
0.0
 10
8.002600000000001
 20
-141.90090000000001
 30
0.0
 10
-6.0594000000000001
 20
-126.71350000000001
 30
0.0
 10
-7.1682000000000006
 20
-95.458200000000005
 30
0.0
  0
SPLINE
  5
212
100
AcDbEntity
  8
0
370
     5
 62
     1
100
AcDbSpline
210
0.0
220
0.0
230
1.0
 70
     0
 71
     3
 72
     8
 73
     4
 74
     0
 42
0.0000000001
 43
0.0000000001
 40
0.0
 40
0.0
 40
0.0
 40
0.0
 40
1.0
 40
1.0
 40
1.0
 40
1.0
 10
-163.2833
 20
-181.90780000000001
 30
0.0
 10
-174.17680000000001
 20
-189.51930000000002
 30
0.0
 10
-187.62370000000001
 20
-188.2628
 30
0.0
 10
-194.35420000000002
 20
-177.96530000000001
 30
0.0
  0
SPLINE
  5
213
100
AcDbEntity
  8
0
370
     5
 62
     1
100
AcDbSpline
210
0.0
220
0.0
230
1.0
 70
     0
 71
     3
 72
     8
 73
     4
 74
     0
 42
0.0000000001
 43
0.0000000001
 40
0.0
 40
0.0
 40
0.0
 40
0.0
 40
1.0
 40
1.0
 40
1.0
 40
1.0
 10
-194.35420000000002
 20
-177.96530000000001
 30
0.0
 10
-198.2397
 20
-172.08970000000002
 30
0.0
 10
-200.16920000000002
 20
-165.28440000000001
 30
0.0
 10
-197.61340000000001
 20
-156.97390000000001
 30
0.0
  0
SPLINE
  5
214
100
AcDbEntity
  8
0
370
     5
 62
     1
100
AcDbSpline
210
0.0
220
0.0
230
1.0
 70
     0
 71
     3
 72
     8
 73
     4
 74
     0
 42
0.0000000001
 43
0.0000000001
 40
0.0
 40
0.0
 40
0.0
 40
0.0
 40
1.0
 40
1.0
 40
1.0
 40
1.0
 10
-197.61340000000001
 20
-156.97390000000001
 30
0.0
 10
-195.8391
 20
-154.04519999999999
 30
0.0
 10
-191.85680000000002
 20
-154.4316
 30
0.0
 10
-190.26500000000001
 20
-157.52760000000001
 30
0.0
  0
SPLINE
  5
215
100
AcDbEntity
  8
0
370
     5
 62
     1
100
AcDbSpline
210
0.0
220
0.0
230
1.0
 70
     0
 71
     3
 72
     8
 73
     4
 74
     0
 42
0.0000000001
 43
0.0000000001
 40
0.0
 40
0.0
 40
0.0
 40
0.0
 40
1.0
 40
1.0
 40
1.0
 40
1.0
 10
-190.26500000000001
 20
-157.52760000000001
 30
0.0
 10
-187.69570000000002
 20
-162.3297
 30
0.0
 10
-184.6823
 20
-166.38730000000001
 30
0.0
 10
-179.66460000000001
 20
-166.03050000000002
 30
0.0
  0
SPLINE
  5
216
100
AcDbEntity
  8
0
370
     5
 62
     1
100
AcDbSpline
210
0.0
220
0.0
230
1.0
 70
     0
 71
     3
 72
     8
 73
     4
 74
     0
 42
0.0000000001
 43
0.0000000001
 40
0.0
 40
0.0
 40
0.0
 40
0.0
 40
1.0
 40
1.0
 40
1.0
 40
1.0
 10
-179.66460000000001
 20
-166.03050000000002
 30
0.0
 10
-178.9496
 20
-166.0438
 30
0.0
 10
-178.27870000000001
 20
-165.9768
 30
0.0
 10
-177.65200000000002
 20
-165.8305
 30
0.0
  0
SPLINE
  5
217
100
AcDbEntity
  8
0
370
     5
 62
     1
100
AcDbSpline
210
0.0
220
0.0
230
1.0
 70
     0
 71
     3
 72
     8
 73
     4
 74
     0
 42
0.0000000001
 43
0.0000000001
 40
0.0
 40
0.0
 40
0.0
 40
0.0
 40
1.0
 40
1.0
 40
1.0
 40
1.0
 10
-177.65200000000002
 20
-165.8305
 30
0.0
 10
-177.65200000000002
 20
-165.8305
 30
0.0
 10
-173.6885
 20
-171.25640000000001
 30
0.0
 10
-173.6885
 20
-171.25640000000001
 30
0.0
  0
SPLINE
  5
218
100
AcDbEntity
  8
0
370
     5
 62
     1
100
AcDbSpline
210
0.0
220
0.0
230
1.0
 70
     0
 71
     3
 72
     8
 73
     4
 74
     0
 42
0.0000000001
 43
0.0000000001
 40
0.0
 40
0.0
 40
0.0
 40
0.0
 40
1.0
 40
1.0
 40
1.0
 40
1.0
 10
-173.6885
 20
-171.25640000000001
 30
0.0
 10
-171.79860000000002
 20
-173.44320000000002
 30
0.0
 10
-168.57150000000001
 20
-171.08629999999999
 30
0.0
 10
-170.2713
 20
-168.76050000000001
 30
0.0
  0
SPLINE
  5
219
100
AcDbEntity
  8
0
370
     5
 62
     1
100
AcDbSpline
210
0.0
220
0.0
230
1.0
 70
     0
 71
     3
 72
     8
 73
     4
 74
     0
 42
0.0000000001
 43
0.0000000001
 40
0.0
 40
0.0
 40
0.0
 40
0.0
 40
1.0
 40
1.0
 40
1.0
 40
1.0
 10
-170.2713
 20
-168.76050000000001
 30
0.0
 10
-170.2713
 20
-168.76050000000001
 30
0.0
 10
-174.054
 20
-163.5822
 30
0.0
 10
-174.054
 20
-163.5822
 30
0.0
  0
SPLINE
  5
21A
100
AcDbEntity
  8
0
370
     5
 62
     1
100
AcDbSpline
210
0.0
220
0.0
230
1.0
 70
     0
 71
     3
 72
     8
 73
     4
 74
     0
 42
0.0000000001
 43
0.0000000001
 40
0.0
 40
0.0
 40
0.0
 40
0.0
 40
1.0
 40
1.0
 40
1.0
 40
1.0
 10
-174.054
 20
-163.5822
 30
0.0
 10
-173.5444
 20
-162.97020000000001
 30
0.0
 10
-173.09780000000001
 20
-162.24340000000001
 30
0.0
 10
-172.71450000000002
 20
-161.40200000000002
 30
0.0
  0
SPLINE
  5
21B
100
AcDbEntity
  8
0
370
     5
 62
     1
100
AcDbSpline
210
0.0
220
0.0
230
1.0
 70
     0
 71
     3
 72
     8
 73
     4
 74
     0
 42
0.0000000001
 43
0.0000000001
 40
0.0
 40
0.0
 40
0.0
 40
0.0
 40
1.0
 40
1.0
 40
1.0
 40
1.0
 10
-172.71450000000002
 20
-161.40200000000002
 30
0.0
 10
-171.184
 20
-158.5368
 30
0.0
 10
-172.47190000000001
 20
-154.3518
 30
0.0
 10
-177.16660000000002
 20
-149.48480000000001
 30
0.0
  0
SPLINE
  5
21C
100
AcDbEntity
  8
0
370
     5
 62
     1
100
AcDbSpline
210
0.0
220
0.0
230
1.0
 70
     0
 71
     3
 72
     8
 73
     4
 74
     0
 42
0.0000000001
 43
0.0000000001
 40
0.0
 40
0.0
 40
0.0
 40
0.0
 40
1.0
 40
1.0
 40
1.0
 40
1.0
 10
-177.16660000000002
 20
-149.48480000000001
 30
0.0
 10
-180.62470000000002
 20
-145.4033
 30
0.0
 10
-178.47380000000001
 20
-141.31560000000002
 30
0.0
 10
-171.7303
 20
-141.3262
 30
0.0
  0
SPLINE
  5
21D
100
AcDbEntity
  8
0
370
     5
 62
     1
100
AcDbSpline
210
0.0
220
0.0
230
1.0
 70
     0
 71
     3
 72
     8
 73
     4
 74
     0
 42
0.0000000001
 43
0.0000000001
 40
0.0
 40
0.0
 40
0.0
 40
0.0
 40
1.0
 40
1.0
 40
1.0
 40
1.0
 10
-171.7303
 20
-141.3262
 30
0.0
 10
-166.56010000000001
 20
-142.69450000000001
 30
0.0
 10
-161.5831
 20
-145.8741
 30
0.0
 10
-156.9495
 20
-152.68430000000001
 30
0.0
  0
SPLINE
  5
21E
100
AcDbEntity
  8
0
370
     5
 62
     1
100
AcDbSpline
210
0.0
220
0.0
230
1.0
 70
     0
 71
     3
 72
     8
 73
     4
 74
     0
 42
0.0000000001
 43
0.0000000001
 40
0.0
 40
0.0
 40
0.0
 40
0.0
 40
1.0
 40
1.0
 40
1.0
 40
1.0
 10
-156.9495
 20
-152.68430000000001
 30
0.0
 10
-151.3288
 20
-159.76520000000002
 30
0.0
 10
-152.7653
 20
-174.3586
 30
0.0
 10
-163.2833
 20
-181.90780000000001
 30
0.0
  0
SPLINE
  5
21F
100
AcDbEntity
  8
0
370
     5
 62
     1
100
AcDbSpline
210
0.0
220
0.0
230
1.0
 70
     0
 71
     3
 72
     8
 73
     4
 74
     0
 42
0.0000000001
 43
0.0000000001
 40
0.0
 40
0.0
 40
0.0
 40
0.0
 40
1.0
 40
1.0
 40
1.0
 40
1.0
 10
54.7941
 20
108.2735
 30
0.0
 10
54.848100000000002
 20
108.16980000000001
 30
0.0
 10
54.903000000000006
 20
108.066
 30
0.0
 10
54.957000000000001
 20
107.9623
 30
0.0
  0
SPLINE
  5
220
100
AcDbEntity
  8
0
370
     5
 62
     1
100
AcDbSpline
210
0.0
220
0.0
230
1.0
 70
     0
 71
     3
 72
     8
 73
     4
 74
     0
 42
0.0000000001
 43
0.0000000001
 40
0.0
 40
0.0
 40
0.0
 40
0.0
 40
1.0
 40
1.0
 40
1.0
 40
1.0
 10
6.4911000000000003
 20
69.46050000000001
 30
0.0
 10
20.789300000000001
 20
66.911699999999996
 30
0.0
 10
22.086200000000002
 20
78.912199999999999
 30
0.0
 10
10.4916
 20
83.156300000000002
 30
0.0
  0
SPLINE
  5
221
100
AcDbEntity
  8
0
370
     5
 62
     1
100
AcDbSpline
210
0.0
220
0.0
230
1.0
 70
     0
 71
     3
 72
     8
 73
     4
 74
     0
 42
0.0000000001
 43
0.0000000001
 40
0.0
 40
0.0
 40
0.0
 40
0.0
 40
1.0
 40
1.0
 40
1.0
 40
1.0
 10
10.4916
 20
83.156300000000002
 30
0.0
 10
-3.6394000000000002
 20
88.281199999999998
 30
0.0
 10
-8.3248999999999995
 20
98.548500000000004
 30
0.0
 10
-2.2520000000000002
 20
112.6456
 30
0.0
  0
SPLINE
  5
222
100
AcDbEntity
  8
0
370
     5
 62
     1
100
AcDbSpline
210
0.0
220
0.0
230
1.0
 70
     0
 71
     3
 72
     8
 73
     4
 74
     0
 42
0.0000000001
 43
0.0000000001
 40
0.0
 40
0.0
 40
0.0
 40
0.0
 40
1.0
 40
1.0
 40
1.0
 40
1.0
 10
-2.2520000000000002
 20
112.6456
 30
0.0
 10
-2.2520000000000002
 20
112.6456
 30
0.0
 10
-2.7652000000000001
 20
112.9757
 30
0.0
 10
-2.7652000000000001
 20
112.9757
 30
0.0
  0
SPLINE
  5
223
100
AcDbEntity
  8
0
370
     5
 62
     1
100
AcDbSpline
210
0.0
220
0.0
230
1.0
 70
     0
 71
     3
 72
     8
 73
     4
 74
     0
 42
0.0000000001
 43
0.0000000001
 40
0.0
 40
0.0
 40
0.0
 40
0.0
 40
1.0
 40
1.0
 40
1.0
 40
1.0
 10
-2.7652000000000001
 20
112.9757
 30
0.0
 10
-2.7652000000000001
 20
112.9757
 30
0.0
 10
-11.0068
 20
117.70350000000001
 30
0.0
 10
-11.0068
 20
117.70350000000001
 30
0.0
  0
SPLINE
  5
224
100
AcDbEntity
  8
0
370
     5
 62
     1
100
AcDbSpline
210
0.0
220
0.0
230
1.0
 70
     0
 71
     3
 72
     8
 73
     4
 74
     0
 42
0.0000000001
 43
0.0000000001
 40
0.0
 40
0.0
 40
0.0
 40
0.0
 40
1.0
 40
1.0
 40
1.0
 40
1.0
 10
-11.0068
 20
117.70350000000001
 30
0.0
 10
-13.388500000000001
 20
119.34140000000001
 30
0.0
 10
-11.3993
 20
122.80640000000001
 30
0.0
 10
-8.8999000000000006
 20
121.37280000000001
 30
0.0
  0
SPLINE
  5
225
100
AcDbEntity
  8
0
370
     5
 62
     1
100
AcDbSpline
210
0.0
220
0.0
230
1.0
 70
     0
 71
     3
 72
     8
 73
     4
 74
     0
 42
0.0000000001
 43
0.0000000001
 40
0.0
 40
0.0
 40
0.0
 40
0.0
 40
1.0
 40
1.0
 40
1.0
 40
1.0
 10
-8.8999000000000006
 20
121.37280000000001
 30
0.0
 10
-8.8999000000000006
 20
121.37280000000001
 30
0.0
 10
-0.1033
 20
116.32640000000001
 30
0.0
 10
-0.1033
 20
116.32640000000001
 30
0.0
  0
SPLINE
  5
226
100
AcDbEntity
  8
0
370
     5
 62
     1
100
AcDbSpline
210
0.0
220
0.0
230
1.0
 70
     0
 71
     3
 72
     8
 73
     4
 74
     0
 42
0.0000000001
 43
0.0000000001
 40
0.0
 40
0.0
 40
0.0
 40
0.0
 40
1.0
 40
1.0
 40
1.0
 40
1.0
 10
-0.1033
 20
116.32640000000001
 30
0.0
 10
10.146700000000001
 20
129.16589999999999
 30
0.0
 10
22.474900000000002
 20
127.01050000000001
 30
0.0
 10
33.700299999999999
 20
116.78800000000001
 30
0.0
  0
SPLINE
  5
227
100
AcDbEntity
  8
0
370
     5
 62
     1
100
AcDbSpline
210
0.0
220
0.0
230
1.0
 70
     0
 71
     3
 72
     8
 73
     4
 74
     0
 42
0.0000000001
 43
0.0000000001
 40
0.0
 40
0.0
 40
0.0
 40
0.0
 40
1.0
 40
1.0
 40
1.0
 40
1.0
 10
33.700299999999999
 20
116.78800000000001
 30
0.0
 10
42.734500000000004
 20
108.7826
 30
0.0
 10
48.168100000000003
 20
117.15350000000001
 30
0.0
 10
43.283900000000003
 20
126.62430000000001
 30
0.0
  0
SPLINE
  5
228
100
AcDbEntity
  8
0
370
     5
 62
     1
100
AcDbSpline
210
0.0
220
0.0
230
1.0
 70
     0
 71
     3
 72
     8
 73
     4
 74
     0
 42
0.0000000001
 43
0.0000000001
 40
0.0
 40
0.0
 40
0.0
 40
0.0
 40
1.0
 40
1.0
 40
1.0
 40
1.0
 10
43.283900000000003
 20
126.62430000000001
 30
0.0
 10
36.235700000000001
 20
138.7182
 30
0.0
 10
32.879600000000003
 20
141.02600000000001
 30
0.0
 10
19.884800000000002
 20
146.1123
 30
0.0
  0
SPLINE
  5
229
100
AcDbEntity
  8
0
370
     5
 62
     1
100
AcDbSpline
210
0.0
220
0.0
230
1.0
 70
     0
 71
     3
 72
     8
 73
     4
 74
     0
 42
0.0000000001
 43
0.0000000001
 40
0.0
 40
0.0
 40
0.0
 40
0.0
 40
1.0
 40
1.0
 40
1.0
 40
1.0
 10
19.884800000000002
 20
146.1123
 30
0.0
 10
2.0489999999999999
 20
151.06730000000002
 30
0.0
 10
-15.2742
 20
144.95930000000001
 30
0.0
 10
-25.5153
 20
127.84230000000001
 30
0.0
  0
SPLINE
  5
22A
100
AcDbEntity
  8
0
370
     5
 62
     1
100
AcDbSpline
210
0.0
220
0.0
230
1.0
 70
     0
 71
     3
 72
     8
 73
     4
 74
     0
 42
0.0000000001
 43
0.0000000001
 40
0.0
 40
0.0
 40
0.0
 40
0.0
 40
1.0
 40
1.0
 40
1.0
 40
1.0
 10
-25.5153
 20
127.84230000000001
 30
0.0
 10
-32.072200000000002
 20
115.41430000000001
 30
0.0
 10
-32.539999999999999
 20
105.75120000000001
 30
0.0
 10
-28.523300000000003
 20
95.037100000000009
 30
0.0
  0
SPLINE
  5
22B
100
AcDbEntity
  8
0
370
     5
 62
     1
100
AcDbSpline
210
0.0
220
0.0
230
1.0
 70
     0
 71
     3
 72
     8
 73
     4
 74
     0
 42
0.0000000001
 43
0.0000000001
 40
0.0
 40
0.0
 40
0.0
 40
0.0
 40
1.0
 40
1.0
 40
1.0
 40
1.0
 10
-28.523300000000003
 20
95.037100000000009
 30
0.0
 10
-25.399700000000003
 20
84.152100000000004
 30
0.0
 10
-13.2399
 20
69.8249
 30
0.0
 10
6.4911000000000003
 20
69.46050000000001
 30
0.0
  0
SPLINE
  5
22C
100
AcDbEntity
  8
0
370
     5
 62
     1
100
AcDbSpline
210
0.0
220
0.0
230
1.0
 70
     0
 71
     3
 72
     8
 73
     4
 74
     0
 42
0.0000000001
 43
0.0000000001
 40
0.0
 40
0.0
 40
0.0
 40
0.0
 40
1.0
 40
1.0
 40
1.0
 40
1.0
 10
115.5001
 20
240.99780000000001
 30
0.0
 10
119.73740000000001
 20
244.57420000000002
 30
0.0
 10
126.804
 20
245.1472
 30
0.0
 10
138.0539
 20
243.82130000000001
 30
0.0
  0
SPLINE
  5
22D
100
AcDbEntity
  8
0
370
     5
 62
     1
100
AcDbSpline
210
0.0
220
0.0
230
1.0
 70
     0
 71
     3
 72
     8
 73
     4
 74
     0
 42
0.0000000001
 43
0.0000000001
 40
0.0
 40
0.0
 40
0.0
 40
0.0
 40
1.0
 40
1.0
 40
1.0
 40
1.0
 10
138.0539
 20
243.82130000000001
 30
0.0
 10
147.5651
 20
242.70020000000002
 30
0.0
 10
160.09370000000001
 20
239.9796
 30
0.0
 10
172.8998
 20
234.9417
 30
0.0
  0
SPLINE
  5
22E
100
AcDbEntity
  8
0
370
     5
 62
     1
100
AcDbSpline
210
0.0
220
0.0
230
1.0
 70
     0
 71
     3
 72
     8
 73
     4
 74
     0
 42
0.0000000001
 43
0.0000000001
 40
0.0
 40
0.0
 40
0.0
 40
0.0
 40
1.0
 40
1.0
 40
1.0
 40
1.0
 10
172.8998
 20
234.9417
 30
0.0
 10
194.3425
 20
226.26300000000001
 30
0.0
 10
194.75190000000001
 20
217.0924
 30
0.0
 10
182.86440000000002
 20
202.85170000000002
 30
0.0
  0
SPLINE
  5
22F
100
AcDbEntity
  8
0
370
     5
 62
     1
100
AcDbSpline
210
0.0
220
0.0
230
1.0
 70
     0
 71
     3
 72
     8
 73
     4
 74
     0
 42
0.0000000001
 43
0.0000000001
 40
0.0
 40
0.0
 40
0.0
 40
0.0
 40
1.0
 40
1.0
 40
1.0
 40
1.0
 10
182.86440000000002
 20
202.85170000000002
 30
0.0
 10
154.8409
 20
171.2157
 30
0.0
 10
113.0655
 20
190.08540000000002
 30
0.0
 10
109.99050000000001
 20
224.48840000000001
 30
0.0
  0
SPLINE
  5
230
100
AcDbEntity
  8
0
370
     5
 62
     1
100
AcDbSpline
210
0.0
220
0.0
230
1.0
 70
     0
 71
     3
 72
     8
 73
     4
 74
     0
 42
0.0000000001
 43
0.0000000001
 40
0.0
 40
0.0
 40
0.0
 40
0.0
 40
1.0
 40
1.0
 40
1.0
 40
1.0
 10
109.99050000000001
 20
224.48840000000001
 30
0.0
 10
110.21130000000001
 20
230.05530000000002
 30
0.0
 10
111.0022
 20
234.27440000000001
 30
0.0
 10
112.6302
 20
237.3683
 30
0.0
  0
SPLINE
  5
231
100
AcDbEntity
  8
0
370
     5
 62
     1
100
AcDbSpline
210
0.0
220
0.0
230
1.0
 70
     0
 71
     3
 72
     8
 73
     4
 74
     0
 42
0.0000000001
 43
0.0000000001
 40
0.0
 40
0.0
 40
0.0
 40
0.0
 40
1.0
 40
1.0
 40
1.0
 40
1.0
 10
112.6302
 20
237.3683
 30
0.0
 10
112.6302
 20
237.3683
 30
0.0
 10
144.10339999999999
 20
229.19500000000002
 30
0.0
 10
144.10339999999999
 20
229.19500000000002
 30
0.0
  0
SPLINE
  5
232
100
AcDbEntity
  8
0
370
     5
 62
     1
100
AcDbSpline
210
0.0
220
0.0
230
1.0
 70
     0
 71
     3
 72
     8
 73
     4
 74
     0
 42
0.0000000001
 43
0.0000000001
 40
0.0
 40
0.0
 40
0.0
 40
0.0
 40
1.0
 40
1.0
 40
1.0
 40
1.0
 10
144.10339999999999
 20
229.19500000000002
 30
0.0
 10
146.9547
 20
228.6978
 30
0.0
 10
147.9598
 20
232.5686
 30
0.0
 10
145.16849999999999
 20
233.29330000000002
 30
0.0
  0
SPLINE
  5
233
100
AcDbEntity
  8
0
370
     5
 62
     1
100
AcDbSpline
210
0.0
220
0.0
230
1.0
 70
     0
 71
     3
 72
     8
 73
     4
 74
     0
 42
0.0000000001
 43
0.0000000001
 40
0.0
 40
0.0
 40
0.0
 40
0.0
 40
1.0
 40
1.0
 40
1.0
 40
1.0
 10
145.16849999999999
 20
233.29330000000002
 30
0.0
 10
145.16849999999999
 20
233.29330000000002
 30
0.0
 10
115.5001
 20
240.99780000000001
 30
0.0
 10
115.5001
 20
240.99780000000001
 30
0.0
  0
SPLINE
  5
234
100
AcDbEntity
  8
0
370
     5
 62
     1
100
AcDbSpline
210
0.0
220
0.0
230
1.0
 70
     0
 71
     3
 72
     8
 73
     4
 74
     0
 42
0.0000000001
 43
0.0000000001
 40
0.0
 40
0.0
 40
0.0
 40
0.0
 40
1.0
 40
1.0
 40
1.0
 40
1.0
 10
-68.701999999999998
 20
275.55450000000002
 30
0.0
 10
-68.700299999999999
 20
275.4701
 30
0.0
 10
-68.6999
 20
275.38670000000002
 30
0.0
 10
-68.6999
 20
275.30410000000001
 30
0.0
  0
SPLINE
  5
235
100
AcDbEntity
  8
0
370
     5
 62
     1
100
AcDbSpline
210
0.0
220
0.0
230
1.0
 70
     0
 71
     3
 72
     8
 73
     4
 74
     0
 42
0.0000000001
 43
0.0000000001
 40
0.0
 40
0.0
 40
0.0
 40
0.0
 40
1.0
 40
1.0
 40
1.0
 40
1.0
 10
-68.6999
 20
275.30410000000001
 30
0.0
 10
-68.103499999999997
 20
268.49010000000004
 30
0.0
 10
-63.794400000000003
 20
266.38139999999999
 30
0.0
 10
-56.786100000000005
 20
265.97520000000003
 30
0.0
  0
SPLINE
  5
236
100
AcDbEntity
  8
0
370
     5
 62
     1
100
AcDbSpline
210
0.0
220
0.0
230
1.0
 70
     0
 71
     3
 72
     8
 73
     4
 74
     0
 42
0.0000000001
 43
0.0000000001
 40
0.0
 40
0.0
 40
0.0
 40
0.0
 40
1.0
 40
1.0
 40
1.0
 40
1.0
 10
-56.786100000000005
 20
265.97520000000003
 30
0.0
 10
-50.1661
 20
266.07589999999999
 30
0.0
 10
-49.240200000000002
 20
262.93209999999999
 30
0.0
 10
-52.491400000000006
 20
257.30270000000002
 30
0.0
  0
SPLINE
  5
237
100
AcDbEntity
  8
0
370
     5
 62
     1
100
AcDbSpline
210
0.0
220
0.0
230
1.0
 70
     0
 71
     3
 72
     8
 73
     4
 74
     0
 42
0.0000000001
 43
0.0000000001
 40
0.0
 40
0.0
 40
0.0
 40
0.0
 40
1.0
 40
1.0
 40
1.0
 40
1.0
 10
-52.491400000000006
 20
257.30270000000002
 30
0.0
 10
-57.506900000000002
 20
244.4821
 30
0.0
 10
-52.4876
 20
235.95760000000001
 30
0.0
 10
-44.761099999999999
 20
232.99810000000002
 30
0.0
  0
SPLINE
  5
238
100
AcDbEntity
  8
0
370
     5
 62
     1
100
AcDbSpline
210
0.0
220
0.0
230
1.0
 70
     0
 71
     3
 72
     8
 73
     4
 74
     0
 42
0.0000000001
 43
0.0000000001
 40
0.0
 40
0.0
 40
0.0
 40
0.0
 40
1.0
 40
1.0
 40
1.0
 40
1.0
 10
-44.761099999999999
 20
232.99810000000002
 30
0.0
 10
-32.203099999999999
 20
230.42680000000001
 30
0.0
 10
-30.223200000000002
 20
225.21470000000002
 30
0.0
 10
-21.247500000000002
 20
221.24380000000002
 30
0.0
  0
SPLINE
  5
239
100
AcDbEntity
  8
0
370
     5
 62
     1
100
AcDbSpline
210
0.0
220
0.0
230
1.0
 70
     0
 71
     3
 72
     8
 73
     4
 74
     0
 42
0.0000000001
 43
0.0000000001
 40
0.0
 40
0.0
 40
0.0
 40
0.0
 40
1.0
 40
1.0
 40
1.0
 40
1.0
 10
-21.247500000000002
 20
221.24380000000002
 30
0.0
 10
-8.241200000000001
 20
218.4907
 30
0.0
 10
3.5043000000000002
 20
220.29580000000001
 30
0.0
 10
18.284400000000002
 20
225.64230000000001
 30
0.0
  0
SPLINE
  5
23A
100
AcDbEntity
  8
0
370
     5
 62
     1
100
AcDbSpline
210
0.0
220
0.0
230
1.0
 70
     0
 71
     3
 72
     8
 73
     4
 74
     0
 42
0.0000000001
 43
0.0000000001
 40
0.0
 40
0.0
 40
0.0
 40
0.0
 40
1.0
 40
1.0
 40
1.0
 40
1.0
 10
18.284400000000002
 20
225.64230000000001
 30
0.0
 10
36.351500000000001
 20
232.56810000000002
 30
0.0
 10
43.768100000000004
 20
241.53110000000001
 30
0.0
 10
40.4206
 20
267.58680000000004
 30
0.0
  0
SPLINE
  5
23B
100
AcDbEntity
  8
0
370
     5
 62
     1
100
AcDbSpline
210
0.0
220
0.0
230
1.0
 70
     0
 71
     3
 72
     8
 73
     4
 74
     0
 42
0.0000000001
 43
0.0000000001
 40
0.0
 40
0.0
 40
0.0
 40
0.0
 40
1.0
 40
1.0
 40
1.0
 40
1.0
 10
40.4206
 20
267.58680000000004
 30
0.0
 10
40.4206
 20
267.58680000000004
 30
0.0
 10
4.1810999999999998
 20
261.87150000000003
 30
0.0
 10
4.1810999999999998
 20
261.87150000000003
 30
0.0
  0
SPLINE
  5
23C
100
AcDbEntity
  8
0
370
     5
 62
     1
100
AcDbSpline
210
0.0
220
0.0
230
1.0
 70
     0
 71
     3
 72
     8
 73
     4
 74
     0
 42
0.0000000001
 43
0.0000000001
 40
0.0
 40
0.0
 40
0.0
 40
0.0
 40
1.0
 40
1.0
 40
1.0
 40
1.0
 10
4.1810999999999998
 20
261.87150000000003
 30
0.0
 10
1.3338000000000001
 20
261.42230000000001
 30
0.0
 10
0.7114
 20
265.37440000000004
 30
0.0
 10
3.5227000000000004
 20
266.05580000000003
 30
0.0
  0
SPLINE
  5
23D
100
AcDbEntity
  8
0
370
     5
 62
     1
100
AcDbSpline
210
0.0
220
0.0
230
1.0
 70
     0
 71
     3
 72
     8
 73
     4
 74
     0
 42
0.0000000001
 43
0.0000000001
 40
0.0
 40
0.0
 40
0.0
 40
0.0
 40
1.0
 40
1.0
 40
1.0
 40
1.0
 10
3.5227000000000004
 20
266.05580000000003
 30
0.0
 10
3.5227000000000004
 20
266.05580000000003
 30
0.0
 10
39.853400000000001
 20
271.786
 30
0.0
 10
39.853400000000001
 20
271.786
 30
0.0
  0
SPLINE
  5
23E
100
AcDbEntity
  8
0
370
     5
 62
     1
100
AcDbSpline
210
0.0
220
0.0
230
1.0
 70
     0
 71
     3
 72
     8
 73
     4
 74
     0
 42
0.0000000001
 43
0.0000000001
 40
0.0
 40
0.0
 40
0.0
 40
0.0
 40
1.0
 40
1.0
 40
1.0
 40
1.0
 10
39.853400000000001
 20
271.786
 30
0.0
 10
36.520099999999999
 20
294.66120000000001
 30
0.0
 10
30.531200000000002
 20
293.3879
 30
0.0
 10
15.931100000000001
 20
292.97320000000002
 30
0.0
  0
SPLINE
  5
23F
100
AcDbEntity
  8
0
370
     5
 62
     1
100
AcDbSpline
210
0.0
220
0.0
230
1.0
 70
     0
 71
     3
 72
     8
 73
     4
 74
     0
 42
0.0000000001
 43
0.0000000001
 40
0.0
 40
0.0
 40
0.0
 40
0.0
 40
1.0
 40
1.0
 40
1.0
 40
1.0
 10
15.931100000000001
 20
292.97320000000002
 30
0.0
 10
15.931100000000001
 20
292.97320000000002
 30
0.0
 10
-10.335800000000001
 20
290.84559999999999
 30
0.0
 10
-10.335800000000001
 20
290.84559999999999
 30
0.0
  0
SPLINE
  5
240
100
AcDbEntity
  8
0
370
     5
 62
     1
100
AcDbSpline
210
0.0
220
0.0
230
1.0
 70
     0
 71
     3
 72
     8
 73
     4
 74
     0
 42
0.0000000001
 43
0.0000000001
 40
0.0
 40
0.0
 40
0.0
 40
0.0
 40
1.0
 40
1.0
 40
1.0
 40
1.0
 10
-10.335800000000001
 20
290.84559999999999
 30
0.0
 10
-20.389200000000002
 20
290.0317
 30
0.0
 10
-21.802700000000002
 20
295.11130000000003
 30
0.0
 10
-30.931100000000001
 20
293.60890000000001
 30
0.0
  0
SPLINE
  5
241
100
AcDbEntity
  8
0
370
     5
 62
     1
100
AcDbSpline
210
0.0
220
0.0
230
1.0
 70
     0
 71
     3
 72
     8
 73
     4
 74
     0
 42
0.0000000001
 43
0.0000000001
 40
0.0
 40
0.0
 40
0.0
 40
0.0
 40
1.0
 40
1.0
 40
1.0
 40
1.0
 10
-30.931100000000001
 20
293.60890000000001
 30
0.0
 10
-63.154200000000003
 20
293.0324
 30
0.0
 10
-69.161299999999997
 20
286.79930000000002
 30
0.0
 10
-68.949300000000008
 20
279.79200000000003
 30
0.0
  0
SPLINE
  5
242
100
AcDbEntity
  8
0
370
     5
 62
     1
100
AcDbSpline
210
0.0
220
0.0
230
1.0
 70
     0
 71
     3
 72
     8
 73
     4
 74
     0
 42
0.0000000001
 43
0.0000000001
 40
0.0
 40
0.0
 40
0.0
 40
0.0
 40
1.0
 40
1.0
 40
1.0
 40
1.0
 10
-68.949300000000008
 20
279.79200000000003
 30
0.0
 10
-68.949300000000008
 20
279.79200000000003
 30
0.0
 10
-45.850700000000003
 20
282.61259999999999
 30
0.0
 10
-45.850700000000003
 20
282.61259999999999
 30
0.0
  0
SPLINE
  5
243
100
AcDbEntity
  8
0
370
     5
 62
     1
100
AcDbSpline
210
0.0
220
0.0
230
1.0
 70
     0
 71
     3
 72
     8
 73
     4
 74
     0
 42
0.0000000001
 43
0.0000000001
 40
0.0
 40
0.0
 40
0.0
 40
0.0
 40
1.0
 40
1.0
 40
1.0
 40
1.0
 10
-45.850700000000003
 20
282.61259999999999
 30
0.0
 10
-45.054100000000005
 20
282.70980000000003
 30
0.0
 10
-44.462299999999999
 20
282.27940000000001
 30
0.0
 10
-44.130000000000003
 20
281.66059999999999
 30
0.0
  0
SPLINE
  5
244
100
AcDbEntity
  8
0
370
     5
 62
     1
100
AcDbSpline
210
0.0
220
0.0
230
1.0
 70
     0
 71
     3
 72
     8
 73
     4
 74
     0
 42
0.0000000001
 43
0.0000000001
 40
0.0
 40
0.0
 40
0.0
 40
0.0
 40
1.0
 40
1.0
 40
1.0
 40
1.0
 10
-44.130000000000003
 20
281.66059999999999
 30
0.0
 10
-43.988800000000005
 20
281.39710000000002
 30
0.0
 10
-43.893900000000002
 20
281.0994
 30
0.0
 10
-43.850100000000005
 20
280.79400000000004
 30
0.0
  0
SPLINE
  5
245
100
AcDbEntity
  8
0
370
     5
 62
     1
100
AcDbSpline
210
0.0
220
0.0
230
1.0
 70
     0
 71
     3
 72
     8
 73
     4
 74
     0
 42
0.0000000001
 43
0.0000000001
 40
0.0
 40
0.0
 40
0.0
 40
0.0
 40
1.0
 40
1.0
 40
1.0
 40
1.0
 10
-43.850100000000005
 20
280.79400000000004
 30
0.0
 10
-43.806699999999999
 20
280.48869999999999
 30
0.0
 10
-43.813500000000005
 20
280.1748
 30
0.0
 10
-43.875399999999999
 20
279.87860000000001
 30
0.0
  0
SPLINE
  5
246
100
AcDbEntity
  8
0
370
     5
 62
     1
100
AcDbSpline
210
0.0
220
0.0
230
1.0
 70
     0
 71
     3
 72
     8
 73
     4
 74
     0
 42
0.0000000001
 43
0.0000000001
 40
0.0
 40
0.0
 40
0.0
 40
0.0
 40
1.0
 40
1.0
 40
1.0
 40
1.0
 10
-43.875399999999999
 20
279.87860000000001
 30
0.0
 10
-44.024999999999999
 20
279.16430000000003
 30
0.0
 10
-44.493200000000002
 20
278.5532
 30
0.0
 10
-45.337600000000002
 20
278.40730000000002
 30
0.0
  0
SPLINE
  5
247
100
AcDbEntity
  8
0
370
     5
 62
     1
100
AcDbSpline
210
0.0
220
0.0
230
1.0
 70
     0
 71
     3
 72
     8
 73
     4
 74
     0
 42
0.0000000001
 43
0.0000000001
 40
0.0
 40
0.0
 40
0.0
 40
0.0
 40
1.0
 40
1.0
 40
1.0
 40
1.0
 10
-45.337600000000002
 20
278.40730000000002
 30
0.0
 10
-45.337600000000002
 20
278.40730000000002
 30
0.0
 10
-68.701999999999998
 20
275.55450000000002
 30
0.0
 10
-68.701999999999998
 20
275.55450000000002
 30
0.0
  0
SPLINE
  5
248
100
AcDbEntity
  8
0
370
     5
 62
     1
100
AcDbSpline
210
0.0
220
0.0
230
1.0
 70
     0
 71
     3
 72
     8
 73
     4
 74
     0
 42
0.0000000001
 43
0.0000000001
 40
0.0
 40
0.0
 40
0.0
 40
0.0
 40
1.0
 40
1.0
 40
1.0
 40
1.0
 10
-132.71639999999999
 20
123.12990000000001
 30
0.0
 10
-132.46460000000002
 20
111.81740000000001
 30
0.0
 10
-139.1771
 20
101.70270000000001
 30
0.0
 10
-144.59040000000002
 20
98.939700000000002
 30
0.0
  0
SPLINE
  5
249
100
AcDbEntity
  8
0
370
     5
 62
     1
100
AcDbSpline
210
0.0
220
0.0
230
1.0
 70
     0
 71
     3
 72
     8
 73
     4
 74
     0
 42
0.0000000001
 43
0.0000000001
 40
0.0
 40
0.0
 40
0.0
 40
0.0
 40
1.0
 40
1.0
 40
1.0
 40
1.0
 10
-144.59040000000002
 20
98.939700000000002
 30
0.0
 10
-152.435
 20
96.2941
 30
0.0
 10
-155.59380000000002
 20
91.546000000000006
 30
0.0
 10
-157.0624
 20
86.353400000000008
 30
0.0
  0
SPLINE
  5
24A
100
AcDbEntity
  8
0
370
     5
 62
     1
100
AcDbSpline
210
0.0
220
0.0
230
1.0
 70
     0
 71
     3
 72
     8
 73
     4
 74
     0
 42
0.0000000001
 43
0.0000000001
 40
0.0
 40
0.0
 40
0.0
 40
0.0
 40
1.0
 40
1.0
 40
1.0
 40
1.0
 10
-157.0624
 20
86.353400000000008
 30
0.0
 10
-159.93540000000002
 20
78.927500000000009
 30
0.0
 10
-160.70100000000002
 20
73.110799999999998
 30
0.0
 10
-152.0787
 20
69.055599999999998
 30
0.0
  0
SPLINE
  5
24B
100
AcDbEntity
  8
0
370
     5
 62
     1
100
AcDbSpline
210
0.0
220
0.0
230
1.0
 70
     0
 71
     3
 72
     8
 73
     4
 74
     0
 42
0.0000000001
 43
0.0000000001
 40
0.0
 40
0.0
 40
0.0
 40
0.0
 40
1.0
 40
1.0
 40
1.0
 40
1.0
 10
-152.0787
 20
69.055599999999998
 30
0.0
 10
-149.66560000000001
 20
67.749899999999997
 30
0.0
 10
-147.41679999999999
 20
66.73960000000001
 30
0.0
 10
-145.27450000000002
 20
65.979700000000008
 30
0.0
  0
SPLINE
  5
24C
100
AcDbEntity
  8
0
370
     5
 62
     1
100
AcDbSpline
210
0.0
220
0.0
230
1.0
 70
     0
 71
     3
 72
     8
 73
     4
 74
     0
 42
0.0000000001
 43
0.0000000001
 40
0.0
 40
0.0
 40
0.0
 40
0.0
 40
1.0
 40
1.0
 40
1.0
 40
1.0
 10
-145.27450000000002
 20
65.979700000000008
 30
0.0
 10
-145.27450000000002
 20
65.979700000000008
 30
0.0
 10
-139.149
 20
86.732900000000001
 30
0.0
 10
-139.149
 20
86.732900000000001
 30
0.0
  0
SPLINE
  5
24D
100
AcDbEntity
  8
0
370
     5
 62
     1
100
AcDbSpline
210
0.0
220
0.0
230
1.0
 70
     0
 71
     3
 72
     8
 73
     4
 74
     0
 42
0.0000000001
 43
0.0000000001
 40
0.0
 40
0.0
 40
0.0
 40
0.0
 40
1.0
 40
1.0
 40
1.0
 40
1.0
 10
-139.149
 20
86.732900000000001
 30
0.0
 10
-138.33430000000001
 20
89.496200000000002
 30
0.0
 10
-134.50020000000001
 20
88.3673
 30
0.0
 10
-135.08969999999999
 20
85.538300000000007
 30
0.0
  0
SPLINE
  5
24E
100
AcDbEntity
  8
0
370
     5
 62
     1
100
AcDbSpline
210
0.0
220
0.0
230
1.0
 70
     0
 71
     3
 72
     8
 73
     4
 74
     0
 42
0.0000000001
 43
0.0000000001
 40
0.0
 40
0.0
 40
0.0
 40
0.0
 40
1.0
 40
1.0
 40
1.0
 40
1.0
 10
-135.08969999999999
 20
85.538300000000007
 30
0.0
 10
-135.08969999999999
 20
85.538300000000007
 30
0.0
 10
-141.2097
 20
64.802400000000006
 30
0.0
 10
-141.2097
 20
64.802400000000006
 30
0.0
  0
SPLINE
  5
24F
100
AcDbEntity
  8
0
370
     5
 62
     1
100
AcDbSpline
210
0.0
220
0.0
230
1.0
 70
     0
 71
     3
 72
     8
 73
     4
 74
     0
 42
0.0000000001
 43
0.0000000001
 40
0.0
 40
0.0
 40
0.0
 40
0.0
 40
1.0
 40
1.0
 40
1.0
 40
1.0
 10
-141.2097
 20
64.802400000000006
 30
0.0
 10
-138.0462
 20
64.097700000000003
 30
0.0
 10
-135.05190000000002
 20
63.933900000000001
 30
0.0
 10
-132.00820000000002
 20
64.145899999999997
 30
0.0
  0
SPLINE
  5
250
100
AcDbEntity
  8
0
370
     5
 62
     1
100
AcDbSpline
210
0.0
220
0.0
230
1.0
 70
     0
 71
     3
 72
     8
 73
     4
 74
     0
 42
0.0000000001
 43
0.0000000001
 40
0.0
 40
0.0
 40
0.0
 40
0.0
 40
1.0
 40
1.0
 40
1.0
 40
1.0
 10
-132.00820000000002
 20
64.145899999999997
 30
0.0
 10
-125.7714
 20
64.766900000000007
 30
0.0
 10
-122.5142
 20
69.53070000000001
 30
0.0
 10
-121.37220000000001
 20
75.83720000000001
 30
0.0
  0
SPLINE
  5
251
100
AcDbEntity
  8
0
370
     5
 62
     1
100
AcDbSpline
210
0.0
220
0.0
230
1.0
 70
     0
 71
     3
 72
     8
 73
     4
 74
     0
 42
0.0000000001
 43
0.0000000001
 40
0.0
 40
0.0
 40
0.0
 40
0.0
 40
1.0
 40
1.0
 40
1.0
 40
1.0
 10
-121.37220000000001
 20
75.83720000000001
 30
0.0
 10
-120.64570000000001
 20
81.724000000000004
 30
0.0
 10
-121.03200000000001
 20
87.43610000000001
 30
0.0
 10
-123.86640000000001
 20
92.765000000000001
 30
0.0
  0
SPLINE
  5
252
100
AcDbEntity
  8
0
370
     5
 62
     1
100
AcDbSpline
210
0.0
220
0.0
230
1.0
 70
     0
 71
     3
 72
     8
 73
     4
 74
     0
 42
0.0000000001
 43
0.0000000001
 40
0.0
 40
0.0
 40
0.0
 40
0.0
 40
1.0
 40
1.0
 40
1.0
 40
1.0
 10
-123.86640000000001
 20
92.765000000000001
 30
0.0
 10
-127.19670000000001
 20
97.86460000000001
 30
0.0
 10
-127.6049
 20
103.06740000000001
 30
0.0
 10
-126.0728
 20
108.82640000000001
 30
0.0
  0
SPLINE
  5
253
100
AcDbEntity
  8
0
370
     5
 62
     1
100
AcDbSpline
210
0.0
220
0.0
230
1.0
 70
     0
 71
     3
 72
     8
 73
     4
 74
     0
 42
0.0000000001
 43
0.0000000001
 40
0.0
 40
0.0
 40
0.0
 40
0.0
 40
1.0
 40
1.0
 40
1.0
 40
1.0
 10
-126.0728
 20
108.82640000000001
 30
0.0
 10
-125.12390000000001
 20
113.12740000000001
 30
0.0
 10
-123.13980000000001
 20
117.2865
 30
0.0
 10
-120.2355
 20
122.04520000000001
 30
0.0
  0
SPLINE
  5
254
100
AcDbEntity
  8
0
370
     5
 62
     1
100
AcDbSpline
210
0.0
220
0.0
230
1.0
 70
     0
 71
     3
 72
     8
 73
     4
 74
     0
 42
0.0000000001
 43
0.0000000001
 40
0.0
 40
0.0
 40
0.0
 40
0.0
 40
1.0
 40
1.0
 40
1.0
 40
1.0
 10
-120.2355
 20
122.04520000000001
 30
0.0
 10
-118.33330000000001
 20
126.57170000000001
 30
0.0
 10
-120.7582
 20
128.47050000000002
 30
0.0
 10
-125.1498
 20
129.1756
 30
0.0
  0
SPLINE
  5
255
100
AcDbEntity
  8
0
370
     5
 62
     1
100
AcDbSpline
210
0.0
220
0.0
230
1.0
 70
     0
 71
     3
 72
     8
 73
     4
 74
     0
 42
0.0000000001
 43
0.0000000001
 40
0.0
 40
0.0
 40
0.0
 40
0.0
 40
1.0
 40
1.0
 40
1.0
 40
1.0
 10
-125.1498
 20
129.1756
 30
0.0
 10
-131.37980000000002
 20
130.45439999999999
 30
0.0
 10
-133.07810000000001
 20
127.7073
 30
0.0
 10
-132.71639999999999
 20
123.12990000000001
 30
0.0
  0
SPLINE
  5
256
100
AcDbEntity
  8
0
370
     5
 62
     1
100
AcDbSpline
210
0.0
220
0.0
230
1.0
 70
     0
 71
     3
 72
     8
 73
     4
 74
     0
 42
0.0000000001
 43
0.0000000001
 40
0.0
 40
0.0
 40
0.0
 40
0.0
 40
1.0
 40
1.0
 40
1.0
 40
1.0
 10
-135.29390000000001
 20
242.25230000000002
 30
0.0
 10
-142.63249999999999
 20
233.07740000000001
 30
0.0
 10
-151.20060000000001
 20
236.88410000000002
 30
0.0
 10
-147.18010000000001
 20
246.50530000000001
 30
0.0
  0
SPLINE
  5
257
100
AcDbEntity
  8
0
370
     5
 62
     1
100
AcDbSpline
210
0.0
220
0.0
230
1.0
 70
     0
 71
     3
 72
     8
 73
     4
 74
     0
 42
0.0000000001
 43
0.0000000001
 40
0.0
 40
0.0
 40
0.0
 40
0.0
 40
1.0
 40
1.0
 40
1.0
 40
1.0
 10
-147.18010000000001
 20
246.50530000000001
 30
0.0
 10
-143.49620000000002
 20
256.36279999999999
 30
0.0
 10
-145.88920000000002
 20
266.50870000000003
 30
0.0
 10
-154.21770000000001
 20
270.21050000000002
 30
0.0
  0
SPLINE
  5
258
100
AcDbEntity
  8
0
370
     5
 62
     1
100
AcDbSpline
210
0.0
220
0.0
230
1.0
 70
     0
 71
     3
 72
     8
 73
     4
 74
     0
 42
0.0000000001
 43
0.0000000001
 40
0.0
 40
0.0
 40
0.0
 40
0.0
 40
1.0
 40
1.0
 40
1.0
 40
1.0
 10
-154.21770000000001
 20
270.21050000000002
 30
0.0
 10
-154.21770000000001
 20
270.21050000000002
 30
0.0
 10
-152.91890000000001
 20
276.06549999999999
 30
0.0
 10
-152.91890000000001
 20
276.06549999999999
 30
0.0
  0
SPLINE
  5
259
100
AcDbEntity
  8
0
370
     5
 62
     1
100
AcDbSpline
210
0.0
220
0.0
230
1.0
 70
     0
 71
     3
 72
     8
 73
     4
 74
     0
 42
0.0000000001
 43
0.0000000001
 40
0.0
 40
0.0
 40
0.0
 40
0.0
 40
1.0
 40
1.0
 40
1.0
 40
1.0
 10
-152.91890000000001
 20
276.06549999999999
 30
0.0
 10
-152.4136
 20
278.3442
 30
0.0
 10
-156.42670000000001
 20
279.26280000000003
 30
0.0
 10
-157.0506
 20
276.98160000000001
 30
0.0
  0
SPLINE
  5
25A
100
AcDbEntity
  8
0
370
     5
 62
     1
100
AcDbSpline
210
0.0
220
0.0
230
1.0
 70
     0
 71
     3
 72
     8
 73
     4
 74
     0
 42
0.0000000001
 43
0.0000000001
 40
0.0
 40
0.0
 40
0.0
 40
0.0
 40
1.0
 40
1.0
 40
1.0
 40
1.0
 10
-157.0506
 20
276.98160000000001
 30
0.0
 10
-157.0506
 20
276.98160000000001
 30
0.0
 10
-158.2757
 20
271.45859999999999
 30
0.0
 10
-158.2757
 20
271.45859999999999
 30
0.0
  0
SPLINE
  5
25B
100
AcDbEntity
  8
0
370
     5
 62
     1
100
AcDbSpline
210
0.0
220
0.0
230
1.0
 70
     0
 71
     3
 72
     8
 73
     4
 74
     0
 42
0.0000000001
 43
0.0000000001
 40
0.0
 40
0.0
 40
0.0
 40
0.0
 40
1.0
 40
1.0
 40
1.0
 40
1.0
 10
-158.2757
 20
271.45859999999999
 30
0.0
 10
-167.63150000000002
 20
273.18880000000001
 30
0.0
 10
-176.08000000000001
 20
267.05880000000002
 30
0.0
 10
-177.2295
 20
258.2045
 30
0.0
  0
SPLINE
  5
25C
100
AcDbEntity
  8
0
370
     5
 62
     1
100
AcDbSpline
210
0.0
220
0.0
230
1.0
 70
     0
 71
     3
 72
     8
 73
     4
 74
     0
 42
0.0000000001
 43
0.0000000001
 40
0.0
 40
0.0
 40
0.0
 40
0.0
 40
1.0
 40
1.0
 40
1.0
 40
1.0
 10
-177.2295
 20
258.2045
 30
0.0
 10
-177.4786
 20
248.5925
 30
0.0
 10
-186.39250000000001
 20
248.46700000000001
 30
0.0
 10
-189.25390000000002
 20
256.4599
 30
0.0
  0
SPLINE
  5
25D
100
AcDbEntity
  8
0
370
     5
 62
     1
100
AcDbSpline
210
0.0
220
0.0
230
1.0
 70
     0
 71
     3
 72
     8
 73
     4
 74
     0
 42
0.0000000001
 43
0.0000000001
 40
0.0
 40
0.0
 40
0.0
 40
0.0
 40
1.0
 40
1.0
 40
1.0
 40
1.0
 10
-189.25390000000002
 20
256.4599
 30
0.0
 10
-192.41410000000002
 20
280.65770000000003
 30
0.0
 10
-173.76150000000001
 20
299.3229
 30
0.0
 10
-151.251
 20
295.44200000000001
 30
0.0
  0
SPLINE
  5
25E
100
AcDbEntity
  8
0
370
     5
 62
     1
100
AcDbSpline
210
0.0
220
0.0
230
1.0
 70
     0
 71
     3
 72
     8
 73
     4
 74
     0
 42
0.0000000001
 43
0.0000000001
 40
0.0
 40
0.0
 40
0.0
 40
0.0
 40
1.0
 40
1.0
 40
1.0
 40
1.0
 10
-151.251
 20
295.44200000000001
 30
0.0
 10
-127.71210000000001
 20
289.03649999999999
 30
0.0
 10
-118.40470000000001
 20
261.01480000000004
 30
0.0
 10
-135.29390000000001
 20
242.25230000000002
 30
0.0
  0
SPLINE
  5
25F
100
AcDbEntity
  8
0
370
     5
 62
     1
100
AcDbSpline
210
0.0
220
0.0
230
1.0
 70
     0
 71
     3
 72
     8
 73
     4
 74
     0
 42
0.0000000001
 43
0.0000000001
 40
0.0
 40
0.0
 40
0.0
 40
0.0
 40
1.0
 40
1.0
 40
1.0
 40
1.0
 10
-72.023300000000006
 20
231.18190000000001
 30
0.0
 10
-72.4619
 20
233.94830000000002
 30
0.0
 10
-72.888900000000007
 20
236.66670000000002
 30
0.0
 10
-73.310500000000005
 20
239.3493
 30
0.0
  0
SPLINE
  5
260
100
AcDbEntity
  8
0
370
     5
 62
     1
100
AcDbSpline
210
0.0
220
0.0
230
1.0
 70
     0
 71
     3
 72
     8
 73
     4
 74
     0
 42
0.0000000001
 43
0.0000000001
 40
0.0
 40
0.0
 40
0.0
 40
0.0
 40
1.0
 40
1.0
 40
1.0
 40
1.0
 10
-73.310500000000005
 20
239.3493
 30
0.0
 10
-74.767800000000008
 20
248.6183
 30
0.0
 10
-76.165000000000006
 20
257.46160000000003
 30
0.0
 10
-77.783500000000004
 20
266.39190000000002
 30
0.0
  0
SPLINE
  5
261
100
AcDbEntity
  8
0
370
     5
 62
     1
100
AcDbSpline
210
0.0
220
0.0
230
1.0
 70
     0
 71
     3
 72
     8
 73
     4
 74
     0
 42
0.0000000001
 43
0.0000000001
 40
0.0
 40
0.0
 40
0.0
 40
0.0
 40
1.0
 40
1.0
 40
1.0
 40
1.0
 10
-77.783500000000004
 20
266.39190000000002
 30
0.0
 10
-79.755800000000008
 20
272.40410000000003
 30
0.0
 10
-79.055500000000009
 20
278.30970000000002
 30
0.0
 10
-76.697100000000006
 20
284.1497
 30
0.0
  0
SPLINE
  5
262
100
AcDbEntity
  8
0
370
     5
 62
     1
100
AcDbSpline
210
0.0
220
0.0
230
1.0
 70
     0
 71
     3
 72
     8
 73
     4
 74
     0
 42
0.0000000001
 43
0.0000000001
 40
0.0
 40
0.0
 40
0.0
 40
0.0
 40
1.0
 40
1.0
 40
1.0
 40
1.0
 10
-76.697100000000006
 20
284.1497
 30
0.0
 10
-75.831400000000002
 20
288.57810000000001
 30
0.0
 10
-76.939800000000005
 20
292.64920000000001
 30
0.0
 10
-82.346900000000005
 20
295.94400000000002
 30
0.0
  0
SPLINE
  5
263
100
AcDbEntity
  8
0
370
     5
 62
     1
100
AcDbSpline
210
0.0
220
0.0
230
1.0
 70
     0
 71
     3
 72
     8
 73
     4
 74
     0
 42
0.0000000001
 43
0.0000000001
 40
0.0
 40
0.0
 40
0.0
 40
0.0
 40
1.0
 40
1.0
 40
1.0
 40
1.0
 10
-82.346900000000005
 20
295.94400000000002
 30
0.0
 10
-82.346900000000005
 20
295.94400000000002
 30
0.0
 10
-85.031100000000009
 20
283.91890000000001
 30
0.0
 10
-85.031100000000009
 20
283.91890000000001
 30
0.0
  0
SPLINE
  5
264
100
AcDbEntity
  8
0
370
     5
 62
     1
100
AcDbSpline
210
0.0
220
0.0
230
1.0
 70
     0
 71
     3
 72
     8
 73
     4
 74
     0
 42
0.0000000001
 43
0.0000000001
 40
0.0
 40
0.0
 40
0.0
 40
0.0
 40
1.0
 40
1.0
 40
1.0
 40
1.0
 10
-85.031100000000009
 20
283.91890000000001
 30
0.0
 10
-85.658799999999999
 20
281.10599999999999
 30
0.0
 10
-89.557700000000011
 20
281.97790000000003
 30
0.0
 10
-89.159300000000002
 20
284.8417
 30
0.0
  0
SPLINE
  5
265
100
AcDbEntity
  8
0
370
     5
 62
     1
100
AcDbSpline
210
0.0
220
0.0
230
1.0
 70
     0
 71
     3
 72
     8
 73
     4
 74
     0
 42
0.0000000001
 43
0.0000000001
 40
0.0
 40
0.0
 40
0.0
 40
0.0
 40
1.0
 40
1.0
 40
1.0
 40
1.0
 10
-89.159300000000002
 20
284.8417
 30
0.0
 10
-89.159300000000002
 20
284.8417
 30
0.0
 10
-86.353200000000001
 20
297.41250000000002
 30
0.0
 10
-86.353200000000001
 20
297.41250000000002
 30
0.0
  0
SPLINE
  5
266
100
AcDbEntity
  8
0
370
     5
 62
     1
100
AcDbSpline
210
0.0
220
0.0
230
1.0
 70
     0
 71
     3
 72
     8
 73
     4
 74
     0
 42
0.0000000001
 43
0.0000000001
 40
0.0
 40
0.0
 40
0.0
 40
0.0
 40
1.0
 40
1.0
 40
1.0
 40
1.0
 10
-86.353200000000001
 20
297.41250000000002
 30
0.0
 10
-91.468800000000002
 20
298.60230000000001
 30
0.0
 10
-94.331699999999998
 20
296.40890000000002
 30
0.0
 10
-95.711800000000011
 20
292.13290000000001
 30
0.0
  0
SPLINE
  5
267
100
AcDbEntity
  8
0
370
     5
 62
     1
100
AcDbSpline
210
0.0
220
0.0
230
1.0
 70
     0
 71
     3
 72
     8
 73
     4
 74
     0
 42
0.0000000001
 43
0.0000000001
 40
0.0
 40
0.0
 40
0.0
 40
0.0
 40
1.0
 40
1.0
 40
1.0
 40
1.0
 10
-95.711800000000011
 20
292.13290000000001
 30
0.0
 10
-97.139499999999998
 20
286.36490000000003
 30
0.0
 10
-103.38800000000001
 20
283.35270000000003
 30
0.0
 10
-98.221000000000004
 20
273.26760000000002
 30
0.0
  0
SPLINE
  5
268
100
AcDbEntity
  8
0
370
     5
 62
     1
100
AcDbSpline
210
0.0
220
0.0
230
1.0
 70
     0
 71
     3
 72
     8
 73
     4
 74
     0
 42
0.0000000001
 43
0.0000000001
 40
0.0
 40
0.0
 40
0.0
 40
0.0
 40
1.0
 40
1.0
 40
1.0
 40
1.0
 10
-98.221000000000004
 20
273.26760000000002
 30
0.0
 10
-93.153500000000008
 20
262.54230000000001
 30
0.0
 10
-88.547800000000009
 20
249.86940000000001
 30
0.0
 10
-85.096699999999998
 20
234.86920000000001
 30
0.0
  0
SPLINE
  5
269
100
AcDbEntity
  8
0
370
     5
 62
     1
100
AcDbSpline
210
0.0
220
0.0
230
1.0
 70
     0
 71
     3
 72
     8
 73
     4
 74
     0
 42
0.0000000001
 43
0.0000000001
 40
0.0
 40
0.0
 40
0.0
 40
0.0
 40
1.0
 40
1.0
 40
1.0
 40
1.0
 10
-85.096699999999998
 20
234.86920000000001
 30
0.0
 10
-83.977500000000006
 20
228.4127
 30
0.0
 10
-88.340699999999998
 20
226.15400000000002
 30
0.0
 10
-96.615400000000008
 20
226.67410000000001
 30
0.0
  0
SPLINE
  5
26A
100
AcDbEntity
  8
0
370
     5
 62
     1
100
AcDbSpline
210
0.0
220
0.0
230
1.0
 70
     0
 71
     3
 72
     8
 73
     4
 74
     0
 42
0.0000000001
 43
0.0000000001
 40
0.0
 40
0.0
 40
0.0
 40
0.0
 40
1.0
 40
1.0
 40
1.0
 40
1.0
 10
-96.615400000000008
 20
226.67410000000001
 30
0.0
 10
-121.23490000000001
 20
227.06400000000002
 30
0.0
 10
-142.1533
 20
223.66460000000001
 30
0.0
 10
-162.85120000000001
 20
212.21220000000002
 30
0.0
  0
SPLINE
  5
26B
100
AcDbEntity
  8
0
370
     5
 62
     1
100
AcDbSpline
210
0.0
220
0.0
230
1.0
 70
     0
 71
     3
 72
     8
 73
     4
 74
     0
 42
0.0000000001
 43
0.0000000001
 40
0.0
 40
0.0
 40
0.0
 40
0.0
 40
1.0
 40
1.0
 40
1.0
 40
1.0
 10
-162.85120000000001
 20
212.21220000000002
 30
0.0
 10
-184.82430000000002
 20
201.24690000000001
 30
0.0
 10
-197.45250000000001
 20
187.19710000000001
 30
0.0
 10
-196.1687
 20
173.7791
 30
0.0
  0
SPLINE
  5
26C
100
AcDbEntity
  8
0
370
     5
 62
     1
100
AcDbSpline
210
0.0
220
0.0
230
1.0
 70
     0
 71
     3
 72
     8
 73
     4
 74
     0
 42
0.0000000001
 43
0.0000000001
 40
0.0
 40
0.0
 40
0.0
 40
0.0
 40
1.0
 40
1.0
 40
1.0
 40
1.0
 10
-196.1687
 20
173.7791
 30
0.0
 10
-196.8108
 20
166.21870000000001
 30
0.0
 10
-189.8159
 20
165.3082
 30
0.0
 10
-189.06360000000001
 20
171.6018
 30
0.0
  0
SPLINE
  5
26D
100
AcDbEntity
  8
0
370
     5
 62
     1
100
AcDbSpline
210
0.0
220
0.0
230
1.0
 70
     0
 71
     3
 72
     8
 73
     4
 74
     0
 42
0.0000000001
 43
0.0000000001
 40
0.0
 40
0.0
 40
0.0
 40
0.0
 40
1.0
 40
1.0
 40
1.0
 40
1.0
 10
-189.06360000000001
 20
171.6018
 30
0.0
 10
-187.98350000000002
 20
181.41300000000001
 30
0.0
 10
-183.1336
 20
189.53380000000001
 30
0.0
 10
-173.9426
 20
195.53450000000001
 30
0.0
  0
SPLINE
  5
26E
100
AcDbEntity
  8
0
370
     5
 62
     1
100
AcDbSpline
210
0.0
220
0.0
230
1.0
 70
     0
 71
     3
 72
     8
 73
     4
 74
     0
 42
0.0000000001
 43
0.0000000001
 40
0.0
 40
0.0
 40
0.0
 40
0.0
 40
1.0
 40
1.0
 40
1.0
 40
1.0
 10
-173.9426
 20
195.53450000000001
 30
0.0
 10
-161.3734
 20
203.74100000000001
 30
0.0
 10
-142.44669999999999
 20
213.41040000000001
 30
0.0
 10
-129.62530000000001
 20
213.96440000000001
 30
0.0
  0
SPLINE
  5
26F
100
AcDbEntity
  8
0
370
     5
 62
     1
100
AcDbSpline
210
0.0
220
0.0
230
1.0
 70
     0
 71
     3
 72
     8
 73
     4
 74
     0
 42
0.0000000001
 43
0.0000000001
 40
0.0
 40
0.0
 40
0.0
 40
0.0
 40
1.0
 40
1.0
 40
1.0
 40
1.0
 10
-129.62530000000001
 20
213.96440000000001
 30
0.0
 10
-112.5124
 20
214.73350000000002
 30
0.0
 10
-97.376200000000011
 20
213.98660000000001
 30
0.0
 10
-79.467399999999998
 20
215.35670000000002
 30
0.0
  0
SPLINE
  5
270
100
AcDbEntity
  8
0
370
     5
 62
     1
100
AcDbSpline
210
0.0
220
0.0
230
1.0
 70
     0
 71
     3
 72
     8
 73
     4
 74
     0
 42
0.0000000001
 43
0.0000000001
 40
0.0
 40
0.0
 40
0.0
 40
0.0
 40
1.0
 40
1.0
 40
1.0
 40
1.0
 10
-79.467399999999998
 20
215.35670000000002
 30
0.0
 10
-72.089100000000002
 20
215.93720000000002
 30
0.0
 10
-70.708799999999997
 20
221.93470000000002
 30
0.0
 10
-72.023300000000006
 20
231.18190000000001
 30
0.0
  0
SPLINE
  5
271
100
AcDbEntity
  8
0
370
     5
 62
     1
100
AcDbSpline
210
0.0
220
0.0
230
1.0
 70
     0
 71
     3
 72
     8
 73
     4
 74
     0
 42
0.0000000001
 43
0.0000000001
 40
0.0
 40
0.0
 40
0.0
 40
0.0
 40
1.0
 40
1.0
 40
1.0
 40
1.0
 10
130.29050000000001
 20
279.91980000000001
 30
0.0
 10
126.98870000000001
 20
275.72840000000002
 30
0.0
 10
125.0163
 20
272.15899999999999
 30
0.0
 10
124.11970000000001
 20
269.09350000000001
 30
0.0
  0
SPLINE
  5
272
100
AcDbEntity
  8
0
370
     5
 62
     1
100
AcDbSpline
210
0.0
220
0.0
230
1.0
 70
     0
 71
     3
 72
     8
 73
     4
 74
     0
 42
0.0000000001
 43
0.0000000001
 40
0.0
 40
0.0
 40
0.0
 40
0.0
 40
1.0
 40
1.0
 40
1.0
 40
1.0
 10
124.11970000000001
 20
269.09350000000001
 30
0.0
 10
124.11970000000001
 20
269.09350000000001
 30
0.0
 10
137.9717
 20
264.57960000000003
 30
0.0
 10
137.9717
 20
264.57960000000003
 30
0.0
  0
SPLINE
  5
273
100
AcDbEntity
  8
0
370
     5
 62
     1
100
AcDbSpline
210
0.0
220
0.0
230
1.0
 70
     0
 71
     3
 72
     8
 73
     4
 74
     0
 42
0.0000000001
 43
0.0000000001
 40
0.0
 40
0.0
 40
0.0
 40
0.0
 40
1.0
 40
1.0
 40
1.0
 40
1.0
 10
137.9717
 20
264.57960000000003
 30
0.0
 10
140.18360000000001
 20
263.73610000000002
 30
0.0
 10
138.88120000000001
 20
259.83390000000003
 30
0.0
 10
136.66150000000002
 20
260.55770000000001
 30
0.0
  0
SPLINE
  5
274
100
AcDbEntity
  8
0
370
     5
 62
     1
100
AcDbSpline
210
0.0
220
0.0
230
1.0
 70
     0
 71
     3
 72
     8
 73
     4
 74
     0
 42
0.0000000001
 43
0.0000000001
 40
0.0
 40
0.0
 40
0.0
 40
0.0
 40
1.0
 40
1.0
 40
1.0
 40
1.0
 10
136.66150000000002
 20
260.55770000000001
 30
0.0
 10
136.66150000000002
 20
260.55770000000001
 30
0.0
 10
123.55410000000001
 20
264.82910000000004
 30
0.0
 10
123.55410000000001
 20
264.82910000000004
 30
0.0
  0
SPLINE
  5
275
100
AcDbEntity
  8
0
370
     5
 62
     1
100
AcDbSpline
210
0.0
220
0.0
230
1.0
 70
     0
 71
     3
 72
     8
 73
     4
 74
     0
 42
0.0000000001
 43
0.0000000001
 40
0.0
 40
0.0
 40
0.0
 40
0.0
 40
1.0
 40
1.0
 40
1.0
 40
1.0
 10
123.55410000000001
 20
264.82910000000004
 30
0.0
 10
123.8593
 20
258.69589999999999
 30
0.0
 10
129.54080000000002
 20
255.0796
 30
0.0
 10
137.31229999999999
 20
252.44200000000001
 30
0.0
  0
SPLINE
  5
276
100
AcDbEntity
  8
0
370
     5
 62
     1
100
AcDbSpline
210
0.0
220
0.0
230
1.0
 70
     0
 71
     3
 72
     8
 73
     4
 74
     0
 42
0.0000000001
 43
0.0000000001
 40
0.0
 40
0.0
 40
0.0
 40
0.0
 40
1.0
 40
1.0
 40
1.0
 40
1.0
 10
137.31229999999999
 20
252.44200000000001
 30
0.0
 10
150.58350000000002
 20
246.89890000000003
 30
0.0
 10
163.70820000000001
 20
242.93600000000001
 30
0.0
 10
176.6857
 20
240.55270000000002
 30
0.0
  0
SPLINE
  5
277
100
AcDbEntity
  8
0
370
     5
 62
     1
100
AcDbSpline
210
0.0
220
0.0
230
1.0
 70
     0
 71
     3
 72
     8
 73
     4
 74
     0
 42
0.0000000001
 43
0.0000000001
 40
0.0
 40
0.0
 40
0.0
 40
0.0
 40
1.0
 40
1.0
 40
1.0
 40
1.0
 10
176.6857
 20
240.55270000000002
 30
0.0
 10
187.88130000000001
 20
239.54500000000002
 30
0.0
 10
192.70180000000002
 20
245.56990000000002
 30
0.0
 10
193.9462
 20
255.53970000000001
 30
0.0
  0
SPLINE
  5
278
100
AcDbEntity
  8
0
370
     5
 62
     1
100
AcDbSpline
210
0.0
220
0.0
230
1.0
 70
     0
 71
     3
 72
     8
 73
     4
 74
     0
 42
0.0000000001
 43
0.0000000001
 40
0.0
 40
0.0
 40
0.0
 40
0.0
 40
1.0
 40
1.0
 40
1.0
 40
1.0
 10
193.9462
 20
255.53970000000001
 30
0.0
 10
195.8853
 20
275.53440000000001
 30
0.0
 10
187.51850000000002
 20
288.6241
 30
0.0
 10
168.846
 20
294.80889999999999
 30
0.0
  0
SPLINE
  5
279
100
AcDbEntity
  8
0
370
     5
 62
     1
100
AcDbSpline
210
0.0
220
0.0
230
1.0
 70
     0
 71
     3
 72
     8
 73
     4
 74
     0
 42
0.0000000001
 43
0.0000000001
 40
0.0
 40
0.0
 40
0.0
 40
0.0
 40
1.0
 40
1.0
 40
1.0
 40
1.0
 10
168.846
 20
294.80889999999999
 30
0.0
 10
153.23920000000001
 20
298.24619999999999
 30
0.0
 10
140.554
 20
292.77410000000003
 30
0.0
 10
130.29050000000001
 20
279.91980000000001
 30
0.0
  0
SPLINE
  5
27A
100
AcDbEntity
  8
0
370
     5
 62
     1
100
AcDbSpline
210
0.0
220
0.0
230
1.0
 70
     0
 71
     3
 72
     8
 73
     4
 74
     0
 42
0.0000000001
 43
0.0000000001
 40
0.0
 40
0.0
 40
0.0
 40
0.0
 40
1.0
 40
1.0
 40
1.0
 40
1.0
 10
143.81040000000002
 20
282.84629999999999
 30
0.0
 10
134.65810000000002
 20
274.74709999999999
 30
0.0
 10
134.9785
 20
271.16430000000003
 30
0.0
 10
145.4555
 20
266.02590000000004
 30
0.0
  0
SPLINE
  5
27B
100
AcDbEntity
  8
0
370
     5
 62
     1
100
AcDbSpline
210
0.0
220
0.0
230
1.0
 70
     0
 71
     3
 72
     8
 73
     4
 74
     0
 42
0.0000000001
 43
0.0000000001
 40
0.0
 40
0.0
 40
0.0
 40
0.0
 40
1.0
 40
1.0
 40
1.0
 40
1.0
 10
145.4555
 20
266.02590000000004
 30
0.0
 10
154.7165
 20
261.59890000000001
 30
0.0
 10
164.57830000000001
 20
258.7149
 30
0.0
 10
175.04060000000001
 20
257.37310000000002
 30
0.0
  0
SPLINE
  5
27C
100
AcDbEntity
  8
0
370
     5
 62
     1
100
AcDbSpline
210
0.0
220
0.0
230
1.0
 70
     0
 71
     3
 72
     8
 73
     4
 74
     0
 42
0.0000000001
 43
0.0000000001
 40
0.0
 40
0.0
 40
0.0
 40
0.0
 40
1.0
 40
1.0
 40
1.0
 40
1.0
 10
175.04060000000001
 20
257.37310000000002
 30
0.0
 10
185.90100000000001
 20
256.89260000000002
 30
0.0
 10
189.01680000000002
 20
261.96270000000004
 30
0.0
 10
184.3877
 20
272.58269999999999
 30
0.0
  0
SPLINE
  5
27D
100
AcDbEntity
  8
0
370
     5
 62
     1
100
AcDbSpline
210
0.0
220
0.0
230
1.0
 70
     0
 71
     3
 72
     8
 73
     4
 74
     0
 42
0.0000000001
 43
0.0000000001
 40
0.0
 40
0.0
 40
0.0
 40
0.0
 40
1.0
 40
1.0
 40
1.0
 40
1.0
 10
184.3877
 20
272.58269999999999
 30
0.0
 10
177.14230000000001
 20
289.68760000000003
 30
0.0
 10
156.77800000000002
 20
293.01480000000004
 30
0.0
 10
143.81040000000002
 20
282.84629999999999
 30
0.0
  0
SPLINE
  5
27E
100
AcDbEntity
  8
0
370
     5
 62
     1
100
AcDbSpline
210
0.0
220
0.0
230
1.0
 70
     0
 71
     3
 72
     8
 73
     4
 74
     0
 42
0.0000000001
 43
0.0000000001
 40
0.0
 40
0.0
 40
0.0
 40
0.0
 40
1.0
 40
1.0
 40
1.0
 40
1.0
 10
48.785700000000006
 20
-169.51609999999999
 30
0.0
 10
62.807200000000002
 20
-166.91930000000002
 30
0.0
 10
67.97120000000001
 20
-158.2415
 30
0.0
 10
78.041899999999998
 20
-146.88130000000001
 30
0.0
  0
SPLINE
  5
27F
100
AcDbEntity
  8
0
370
     5
 62
     1
100
AcDbSpline
210
0.0
220
0.0
230
1.0
 70
     0
 71
     3
 72
     8
 73
     4
 74
     0
 42
0.0000000001
 43
0.0000000001
 40
0.0
 40
0.0
 40
0.0
 40
0.0
 40
1.0
 40
1.0
 40
1.0
 40
1.0
 10
78.041899999999998
 20
-146.88130000000001
 30
0.0
 10
81.854300000000009
 20
-142.2764
 30
0.0
 10
86.022500000000008
 20
-140.95420000000001
 30
0.0
 10
90.9726
 20
-146.85300000000001
 30
0.0
  0
SPLINE
  5
280
100
AcDbEntity
  8
0
370
     5
 62
     1
100
AcDbSpline
210
0.0
220
0.0
230
1.0
 70
     0
 71
     3
 72
     8
 73
     4
 74
     0
 42
0.0000000001
 43
0.0000000001
 40
0.0
 40
0.0
 40
0.0
 40
0.0
 40
1.0
 40
1.0
 40
1.0
 40
1.0
 10
90.9726
 20
-146.85300000000001
 30
0.0
 10
99.834400000000002
 20
-156.13310000000001
 30
0.0
 10
101.32390000000001
 20
-156.48330000000001
 30
0.0
 10
98.767700000000005
 20
-167.23269999999999
 30
0.0
  0
SPLINE
  5
281
100
AcDbEntity
  8
0
370
     5
 62
     1
100
AcDbSpline
210
0.0
220
0.0
230
1.0
 70
     0
 71
     3
 72
     8
 73
     4
 74
     0
 42
0.0000000001
 43
0.0000000001
 40
0.0
 40
0.0
 40
0.0
 40
0.0
 40
1.0
 40
1.0
 40
1.0
 40
1.0
 10
98.767700000000005
 20
-167.23269999999999
 30
0.0
 10
99.025900000000007
 20
-171.702
 30
0.0
 10
101.5753
 20
-175.32400000000001
 30
0.0
 10
104.9933
 20
-175.43640000000002
 30
0.0
  0
SPLINE
  5
282
100
AcDbEntity
  8
0
370
     5
 62
     1
100
AcDbSpline
210
0.0
220
0.0
230
1.0
 70
     0
 71
     3
 72
     8
 73
     4
 74
     0
 42
0.0000000001
 43
0.0000000001
 40
0.0
 40
0.0
 40
0.0
 40
0.0
 40
1.0
 40
1.0
 40
1.0
 40
1.0
 10
104.9933
 20
-175.43640000000002
 30
0.0
 10
108.238
 20
-174.7304
 30
0.0
 10
110.0836
 20
-179.3553
 30
0.0
 10
112.4298
 20
-180.40980000000002
 30
0.0
  0
SPLINE
  5
283
100
AcDbEntity
  8
0
370
     5
 62
     1
100
AcDbSpline
210
0.0
220
0.0
230
1.0
 70
     0
 71
     3
 72
     8
 73
     4
 74
     0
 42
0.0000000001
 43
0.0000000001
 40
0.0
 40
0.0
 40
0.0
 40
0.0
 40
1.0
 40
1.0
 40
1.0
 40
1.0
 10
112.4298
 20
-180.40980000000002
 30
0.0
 10
115.23450000000001
 20
-182.66370000000001
 30
0.0
 10
118.94370000000001
 20
-181.89680000000001
 30
0.0
 10
122.10590000000001
 20
-179.77260000000001
 30
0.0
  0
SPLINE
  5
284
100
AcDbEntity
  8
0
370
     5
 62
     1
100
AcDbSpline
210
0.0
220
0.0
230
1.0
 70
     0
 71
     3
 72
     8
 73
     4
 74
     0
 42
0.0000000001
 43
0.0000000001
 40
0.0
 40
0.0
 40
0.0
 40
0.0
 40
1.0
 40
1.0
 40
1.0
 40
1.0
 10
122.10590000000001
 20
-179.77260000000001
 30
0.0
 10
122.10590000000001
 20
-179.77260000000001
 30
0.0
 10
114.3022
 20
-170.93430000000001
 30
0.0
 10
114.3022
 20
-170.93430000000001
 30
0.0
  0
SPLINE
  5
285
100
AcDbEntity
  8
0
370
     5
 62
     1
100
AcDbSpline
210
0.0
220
0.0
230
1.0
 70
     0
 71
     3
 72
     8
 73
     4
 74
     0
 42
0.0000000001
 43
0.0000000001
 40
0.0
 40
0.0
 40
0.0
 40
0.0
 40
1.0
 40
1.0
 40
1.0
 40
1.0
 10
114.3022
 20
-170.93430000000001
 30
0.0
 10
112.75660000000001
 20
-169.18370000000002
 30
0.0
 10
115.8219
 20
-166.43900000000002
 30
0.0
 10
117.47240000000001
 20
-168.13470000000001
 30
0.0
  0
SPLINE
  5
286
100
AcDbEntity
  8
0
370
     5
 62
     1
100
AcDbSpline
210
0.0
220
0.0
230
1.0
 70
     0
 71
     3
 72
     8
 73
     4
 74
     0
 42
0.0000000001
 43
0.0000000001
 40
0.0
 40
0.0
 40
0.0
 40
0.0
 40
1.0
 40
1.0
 40
1.0
 40
1.0
 10
117.47240000000001
 20
-168.13470000000001
 30
0.0
 10
117.47240000000001
 20
-168.13470000000001
 30
0.0
 10
125.2834
 20
-176.98090000000002
 30
0.0
 10
125.2834
 20
-176.98090000000002
 30
0.0
  0
SPLINE
  5
287
100
AcDbEntity
  8
0
370
     5
 62
     1
100
AcDbSpline
210
0.0
220
0.0
230
1.0
 70
     0
 71
     3
 72
     8
 73
     4
 74
     0
 42
0.0000000001
 43
0.0000000001
 40
0.0
 40
0.0
 40
0.0
 40
0.0
 40
1.0
 40
1.0
 40
1.0
 40
1.0
 10
125.2834
 20
-176.98090000000002
 30
0.0
 10
127.744
 20
-174.20780000000002
 30
0.0
 10
129.2175
 20
-170.74680000000001
 30
0.0
 10
128.42440000000002
 20
-168.0556
 30
0.0
  0
SPLINE
  5
288
100
AcDbEntity
  8
0
370
     5
 62
     1
100
AcDbSpline
210
0.0
220
0.0
230
1.0
 70
     0
 71
     3
 72
     8
 73
     4
 74
     0
 42
0.0000000001
 43
0.0000000001
 40
0.0
 40
0.0
 40
0.0
 40
0.0
 40
1.0
 40
1.0
 40
1.0
 40
1.0
 10
128.42440000000002
 20
-168.0556
 30
0.0
 10
121.82910000000001
 20
-155.84829999999999
 30
0.0
 10
109.6328
 20
-143.24000000000001
 30
0.0
 10
89.250799999999998
 20
-130.04320000000001
 30
0.0
  0
SPLINE
  5
289
100
AcDbEntity
  8
0
370
     5
 62
     1
100
AcDbSpline
210
0.0
220
0.0
230
1.0
 70
     0
 71
     3
 72
     8
 73
     4
 74
     0
 42
0.0000000001
 43
0.0000000001
 40
0.0
 40
0.0
 40
0.0
 40
0.0
 40
1.0
 40
1.0
 40
1.0
 40
1.0
 10
89.250799999999998
 20
-130.04320000000001
 30
0.0
 10
85.611100000000008
 20
-126.93900000000001
 30
0.0
 10
81.379000000000005
 20
-127.6387
 30
0.0
 10
76.55510000000001
 20
-132.142
 30
0.0
  0
SPLINE
  5
28A
100
AcDbEntity
  8
0
370
     5
 62
     1
100
AcDbSpline
210
0.0
220
0.0
230
1.0
 70
     0
 71
     3
 72
     8
 73
     4
 74
     0
 42
0.0000000001
 43
0.0000000001
 40
0.0
 40
0.0
 40
0.0
 40
0.0
 40
1.0
 40
1.0
 40
1.0
 40
1.0
 10
76.55510000000001
 20
-132.142
 30
0.0
 10
69.701099999999997
 20
-139.84950000000001
 30
0.0
 10
63.598100000000002
 20
-148.97390000000001
 30
0.0
 10
57.666700000000006
 20
-154.6643
 30
0.0
  0
SPLINE
  5
28B
100
AcDbEntity
  8
0
370
     5
 62
     1
100
AcDbSpline
210
0.0
220
0.0
230
1.0
 70
     0
 71
     3
 72
     8
 73
     4
 74
     0
 42
0.0000000001
 43
0.0000000001
 40
0.0
 40
0.0
 40
0.0
 40
0.0
 40
1.0
 40
1.0
 40
1.0
 40
1.0
 10
57.666700000000006
 20
-154.6643
 30
0.0
 10
42.263800000000003
 20
-169.4316
 30
0.0
 10
13.397600000000001
 20
-162.4616
 30
0.0
 10
-1.1318000000000001
 20
-149.51410000000001
 30
0.0
  0
SPLINE
  5
28C
100
AcDbEntity
  8
0
370
     5
 62
     1
100
AcDbSpline
210
0.0
220
0.0
230
1.0
 70
     0
 71
     3
 72
     8
 73
     4
 74
     0
 42
0.0000000001
 43
0.0000000001
 40
0.0
 40
0.0
 40
0.0
 40
0.0
 40
1.0
 40
1.0
 40
1.0
 40
1.0
 10
-1.1318000000000001
 20
-149.51410000000001
 30
0.0
 10
-7.5473000000000008
 20
-140.3381
 30
0.0
 10
-12.650400000000001
 20
-145.74250000000001
 30
0.0
 10
-6.8888000000000007
 20
-153.2997
 30
0.0
  0
SPLINE
  5
28D
100
AcDbEntity
  8
0
370
     5
 62
     1
100
AcDbSpline
210
0.0
220
0.0
230
1.0
 70
     0
 71
     3
 72
     8
 73
     4
 74
     0
 42
0.0000000001
 43
0.0000000001
 40
0.0
 40
0.0
 40
0.0
 40
0.0
 40
1.0
 40
1.0
 40
1.0
 40
1.0
 10
-6.8888000000000007
 20
-153.2997
 30
0.0
 10
5.3062000000000005
 20
-169.1474
 30
0.0
 10
29.999700000000001
 20
-173.6292
 30
0.0
 10
48.785700000000006
 20
-169.51609999999999
 30
0.0
  0
SPLINE
  5
28E
100
AcDbEntity
  8
0
370
     5
 62
     1
100
AcDbSpline
210
0.0
220
0.0
230
1.0
 70
     0
 71
     3
 72
     8
 73
     4
 74
     0
 42
0.0000000001
 43
0.0000000001
 40
0.0
 40
0.0
 40
0.0
 40
0.0
 40
1.0
 40
1.0
 40
1.0
 40
1.0
 10
90.825900000000004
 20
154.61270000000002
 30
0.0
 10
51.971900000000005
 20
161.25880000000001
 30
0.0
 10
40.741600000000005
 20
167.79260000000002
 30
0.0
 10
21.2256
 20
185.76390000000001
 30
0.0
  0
SPLINE
  5
28F
100
AcDbEntity
  8
0
370
     5
 62
     1
100
AcDbSpline
210
0.0
220
0.0
230
1.0
 70
     0
 71
     3
 72
     8
 73
     4
 74
     0
 42
0.0000000001
 43
0.0000000001
 40
0.0
 40
0.0
 40
0.0
 40
0.0
 40
1.0
 40
1.0
 40
1.0
 40
1.0
 10
21.2256
 20
185.76390000000001
 30
0.0
 10
12.4701
 20
194.96630000000002
 30
0.0
 10
9.7282000000000011
 20
203.06720000000001
 30
0.0
 10
20.2164
 20
208.74430000000001
 30
0.0
  0
SPLINE
  5
290
100
AcDbEntity
  8
0
370
     5
 62
     1
100
AcDbSpline
210
0.0
220
0.0
230
1.0
 70
     0
 71
     3
 72
     8
 73
     4
 74
     0
 42
0.0000000001
 43
0.0000000001
 40
0.0
 40
0.0
 40
0.0
 40
0.0
 40
1.0
 40
1.0
 40
1.0
 40
1.0
 10
20.2164
 20
208.74430000000001
 30
0.0
 10
28.036800000000003
 20
213.23580000000001
 30
0.0
 10
34.286799999999999
 20
218.0112
 30
0.0
 10
39.3339
 20
223.00410000000002
 30
0.0
  0
SPLINE
  5
291
100
AcDbEntity
  8
0
370
     5
 62
     1
100
AcDbSpline
210
0.0
220
0.0
230
1.0
 70
     0
 71
     3
 72
     8
 73
     4
 74
     0
 42
0.0000000001
 43
0.0000000001
 40
0.0
 40
0.0
 40
0.0
 40
0.0
 40
1.0
 40
1.0
 40
1.0
 40
1.0
 10
39.3339
 20
223.00410000000002
 30
0.0
 10
39.3339
 20
223.00410000000002
 30
0.0
 10
63.342600000000004
 20
200.87980000000002
 30
0.0
 10
63.342600000000004
 20
200.87980000000002
 30
0.0
  0
SPLINE
  5
292
100
AcDbEntity
  8
0
370
     5
 62
     1
100
AcDbSpline
210
0.0
220
0.0
230
1.0
 70
     0
 71
     3
 72
     8
 73
     4
 74
     0
 42
0.0000000001
 43
0.0000000001
 40
0.0
 40
0.0
 40
0.0
 40
0.0
 40
1.0
 40
1.0
 40
1.0
 40
1.0
 10
63.342600000000004
 20
200.87980000000002
 30
0.0
 10
65.05980000000001
 20
199.29750000000001
 30
0.0
 10
67.868400000000008
 20
202.30460000000002
 30
0.0
 10
66.207900000000009
 20
203.99120000000002
 30
0.0
  0
SPLINE
  5
293
100
AcDbEntity
  8
0
370
     5
 62
     1
100
AcDbSpline
210
0.0
220
0.0
230
1.0
 70
     0
 71
     3
 72
     8
 73
     4
 74
     0
 42
0.0000000001
 43
0.0000000001
 40
0.0
 40
0.0
 40
0.0
 40
0.0
 40
1.0
 40
1.0
 40
1.0
 40
1.0
 10
66.207900000000009
 20
203.99120000000002
 30
0.0
 10
66.207900000000009
 20
203.99120000000002
 30
0.0
 10
42.256300000000003
 20
226.0642
 30
0.0
 10
42.256300000000003
 20
226.0642
 30
0.0
  0
SPLINE
  5
294
100
AcDbEntity
  8
0
370
     5
 62
     1
100
AcDbSpline
210
0.0
220
0.0
230
1.0
 70
     0
 71
     3
 72
     8
 73
     4
 74
     0
 42
0.0000000001
 43
0.0000000001
 40
0.0
 40
0.0
 40
0.0
 40
0.0
 40
1.0
 40
1.0
 40
1.0
 40
1.0
 10
42.256300000000003
 20
226.0642
 30
0.0
 10
47.455500000000001
 20
231.83590000000001
 30
0.0
 10
51.195800000000006
 20
237.87180000000001
 30
0.0
 10
54.014700000000005
 20
244.07400000000001
 30
0.0
  0
SPLINE
  5
295
100
AcDbEntity
  8
0
370
     5
 62
     1
100
AcDbSpline
210
0.0
220
0.0
230
1.0
 70
     0
 71
     3
 72
     8
 73
     4
 74
     0
 42
0.0000000001
 43
0.0000000001
 40
0.0
 40
0.0
 40
0.0
 40
0.0
 40
1.0
 40
1.0
 40
1.0
 40
1.0
 10
54.014700000000005
 20
244.07400000000001
 30
0.0
 10
63.034400000000005
 20
260.57920000000001
 30
0.0
 10
69.085999999999999
 20
253.63640000000001
 30
0.0
 10
77.778199999999998
 20
246.4967
 30
0.0
  0
SPLINE
  5
296
100
AcDbEntity
  8
0
370
     5
 62
     1
100
AcDbSpline
210
0.0
220
0.0
230
1.0
 70
     0
 71
     3
 72
     8
 73
     4
 74
     0
 42
0.0000000001
 43
0.0000000001
 40
0.0
 40
0.0
 40
0.0
 40
0.0
 40
1.0
 40
1.0
 40
1.0
 40
1.0
 10
77.778199999999998
 20
246.4967
 30
0.0
 10
98.454300000000003
 20
230.46560000000002
 30
0.0
 10
118.35290000000001
 20
186.24299999999999
 30
0.0
 10
113.3058
 20
171.86190000000002
 30
0.0
  0
SPLINE
  5
297
100
AcDbEntity
  8
0
370
     5
 62
     1
100
AcDbSpline
210
0.0
220
0.0
230
1.0
 70
     0
 71
     3
 72
     8
 73
     4
 74
     0
 42
0.0000000001
 43
0.0000000001
 40
0.0
 40
0.0
 40
0.0
 40
0.0
 40
1.0
 40
1.0
 40
1.0
 40
1.0
 10
113.3058
 20
171.86190000000002
 30
0.0
 10
113.4735
 20
166.44630000000001
 30
0.0
 10
101.39800000000001
 20
154.75480000000002
 30
0.0
 10
90.825900000000004
 20
154.61270000000002
 30
0.0
  0
ENDSEC
  0
SECTION
  2
OBJECTS
  0
DICTIONARY
  5
19
100
AcDbDictionary
280
     0
281
     1
  3
ACAD_GROUP
350
1A
  3
ACAD_MLINESTYLE
350
1B
  3
ACAD_LAYOUT
350
1E
  3
ACAD_PLOTSETTINGS
350
22
  3
ACAD_PLOTSTYLENAME
350
1F
  3
ACAD_WIPEOUT_VARS
350
23
  0
DICTIONARY
  5
1A
102
{ACAD_REACTORS
330
19
102
}
100
AcDbDictionary
280
     0
281
     1
  0
DICTIONARY
  5
1B
102
{ACAD_REACTORS
330
19
102
}
100
AcDbDictionary
280
     0
281
     1
  3
Standard
350
1C
  0
MLINESTYLE
  5
1C
102
{ACAD_REACTORS
330
1B
102
}
100
AcDbMlineStyle
  2
Standard
 70
     0
  3

 62
     0
 51
90.0
 52
90.0
 71
     2
 49
0.5
 62
   256
  6
BYLAYER
 49
-0.5
 62
   256
  6
BYLAYER
  0
ACDBDICTIONARYWDFLT
  5
1F
102
{ACAD_REACTORS
330
19
102
}
100
AcDbDictionary
281
     1
  3
Normal
350
1D
100
AcDbDictionaryWithDefault
340
1D
  0
ACDBPLACEHOLDER
  5
1D
102
{ACAD_REACTORS
330
1F
102
}
  0
LAYOUT
  5
20
102
{ACAD_REACTORS
330
1E
102
}
100
AcDbPlotSettings
  1

  2

  4

  6

 40
0.0
 41
0.0
 42
0.0
 43
0.0
 44
0.0
 45
0.0
 46
0.0
 47
0.0
 48
0.0
 49
0.0
140
0.0
141
0.0
142
1.0
143
1.0
 70
  1024
 72
     0
 73
     0
 74
     0
  7

 75
     0
147
1.0
148
0.0
149
0.0
100
AcDbLayout
  1
Model
 70
     0
 71
     0
 10
0.0
 20
0.0
 11
0.0
 21
0.0
 12
0.0
 22
0.0
 32
0.0
 14
0.0
 24
0.0
 34
0.0
 15
0.0
 25
0.0
 35
0.0
146
0.0
 13
0.0
 23
0.0
 33
0.0
 16
0.0
 26
0.0
 36
0.0
 17
0.0
 27
0.0
 37
0.0
 76
     0
330
A
331
0
345
0
346
0
  0
LAYOUT
  5
21
102
{ACAD_REACTORS
330
1E
102
}
100
AcDbPlotSettings
  1

  2

  4

  6

 40
0.0
 41
0.0
 42
0.0
 43
0.0
 44
0.0
 45
0.0
 46
0.0
 47
0.0
 48
0.0
 49
0.0
140
0.0
141
0.0
142
1.0
143
1.0
 70
     0
 72
     0
 73
     0
 74
     0
  7

 75
     0
147
1.0
148
0.0
149
0.0
100
AcDbLayout
  1
Layout1
 70
     0
 71
     0
 10
0.0
 20
0.0
 11
0.0
 21
0.0
 12
0.0
 22
0.0
 32
0.0
 14
0.0
 24
0.0
 34
0.0
 15
0.0
 25
0.0
 35
0.0
146
0.0
 13
0.0
 23
0.0
 33
0.0
 16
0.0
 26
0.0
 36
0.0
 17
0.0
 27
0.0
 37
0.0
 76
     0
330
B
331
0
345
0
346
0
  0
DICTIONARY
  5
1E
102
{ACAD_REACTORS
330
19
102
}
100
AcDbDictionary
280
     0
281
     1
  3
Layout1
350
21
  3
Model
350
20
  0
DICTIONARY
  5
22
102
{ACAD_REACTORS
330
19
102
}
100
AcDbDictionary
280
     0
281
     1
  0
WIPEOUTVARIABLES
  5
23
100
AcDbWipeoutVariables
 70
     1
  0
ENDSEC
  0
EOF
