  0
SECTION
  2
HEADER
  9
$ACADVER
  1
AC1015
  9
$ACADMAINTVER
 70
     6
  9
$DWGCODEPAGE
  3
ANSI_1252
  9
$INSBASE
 10
0.0
 20
0.0
 30
0.0
  9
$EXTMIN
 10
1.000000E+20
 20
1.000000E+20
 30
1.000000E+20
  9
$EXTMAX
 10
-1.000000E+20
 20
-1.000000E+20
 30
-1.000000E+20
  9
$LIMMIN
 10
0.0
 20
0.0
  9
$LIMMAX
 10
420.0
 20
297.0
  9
$ORTHOMODE
 70
     0
  9
$REGENMODE
 70
     1
  9
$FILLMODE
 70
     1
  9
$QTEXTMODE
 70
     0
  9
$MIRRTEXT
 70
     1
  9
$LTSCALE
 40
1.0
  9
$ATTMODE
 70
     1
  9
$TEXTSIZE
 40
2.5
  9
$TRACEWID
 40
1.0
  9
$TEXTSTYLE
  7
Standard
  9
$CLAYER
  8
0
  9
$CELTYPE
  6
ByLayer
  9
$CECOLOR
 62
   256
  9
$CELTSCALE
 40
1.0
  9
$DISPSILH
 70
     0
  9
$DIMSCALE
 40
1.0
  9
$DIMASZ
 40
2.5
  9
$DIMEXO
 40
0.625
  9
$DIMDLI
 40
3.75
  9
$DIMRND
 40
0.0
  9
$DIMDLE
 40
0.0
  9
$DIMEXE
 40
1.25
  9
$DIMTP
 40
0.0
  9
$DIMTM
 40
0.0
  9
$DIMTXT
 40
2.5
  9
$DIMCEN
 40
2.5
  9
$DIMTSZ
 40
0.0
  9
$DIMTOL
 70
     0
  9
$DIMLIM
 70
     0
  9
$DIMTIH
 70
     0
  9
$DIMTOH
 70
     0
  9
$DIMSE1
 70
     0
  9
$DIMSE2
 70
     0
  9
$DIMTAD
 70
     1
  9
$DIMZIN
 70
     8
  9
$DIMBLK
  1

  9
$DIMASO
 70
     1
  9
$DIMSHO
 70
     1
  9
$DIMPOST
  1

  9
$DIMAPOST
  1

  9
$DIMALT
 70
     0
  9
$DIMALTD
 70
     3
  9
$DIMALTF
 40
0.03937
  9
$DIMLFAC
 40
1.0
  9
$DIMTOFL
 70
     1
  9
$DIMTVP
 40
0.0
  9
$DIMTIX
 70
     0
  9
$DIMSOXD
 70
     0
  9
$DIMSAH
 70
     0
  9
$DIMBLK1
  1

  9
$DIMBLK2
  1

  9
$DIMSTYLE
  2
ISO-25
  9
$DIMCLRD
 70
     0
  9
$DIMCLRE
 70
     0
  9
$DIMCLRT
 70
     0
  9
$DIMTFAC
 40
1.0
  9
$DIMGAP
 40
0.625
  9
$DIMJUST
 70
     0
  9
$DIMSD1
 70
     0
  9
$DIMSD2
 70
     0
  9
$DIMTOLJ
 70
     0
  9
$DIMTZIN
 70
     8
  9
$DIMALTZ
 70
     0
  9
$DIMALTTZ
 70
     0
  9
$DIMUPT
 70
     0
  9
$DIMDEC
 70
     2
  9
$DIMTDEC
 70
     2
  9
$DIMALTU
 70
     2
  9
$DIMALTTD
 70
     3
  9
$DIMTXSTY
  7
Standard
  9
$DIMAUNIT
 70
     0
  9
$DIMADEC
 70
     0
  9
$DIMALTRND
 40
0.0
  9
$DIMAZIN
 70
     0
  9
$DIMDSEP
 70
    44
  9
$DIMATFIT
 70
     3
  9
$DIMFRAC
 70
     0
  9
$DIMLDRBLK
  1

  9
$DIMLUNIT
 70
     2
  9
$DIMLWD
 70
    -2
  9
$DIMLWE
 70
    -2
  9
$DIMTMOVE
 70
     0
  9
$LUNITS
 70
     2
  9
$LUPREC
 70
     4
  9
$SKETCHINC
 40
1.0
  9
$FILLETRAD
 40
10.0
  9
$AUNITS
 70
     0
  9
$AUPREC
 70
     0
  9
$MENU
  1
.
  9
$ELEVATION
 40
0.0
  9
$PELEVATION
 40
0.0
  9
$THICKNESS
 40
0.0
  9
$LIMCHECK
 70
     0
  9
$CHAMFERA
 40
10.0
  9
$CHAMFERB
 40
10.0
  9
$CHAMFERC
 40
20.0
  9
$CHAMFERD
 40
0.0
  9
$SKPOLY
 70
     0
  9
$TDCREATE
 40
2455270.088643842
  9
$TDUCREATE
 40
2455269.546977176
  9
$TDUPDATE
 40
2455270.088643854
  9
$TDUUPDATE
 40
2455269.546977188
  9
$TDINDWG
 40
0.0000000116
  9
$TDUSRTIMER
 40
0.0000000116
  9
$USRTIMER
 70
     1
  9
$ANGBASE
 50
0.0
  9
$ANGDIR
 70
     0
  9
$PDMODE
 70
     3
  9
$PDSIZE
 40
-0.7
  9
$PLINEWID
 40
0.0
  9
$SPLFRAME
 70
     0
  9
$SPLINETYPE
 70
     6
  9
$SPLINESEGS
 70
     8
  9
$HANDSEED
  5
3A
  9
$SURFTAB1
 70
     6
  9
$SURFTAB2
 70
     6
  9
$SURFTYPE
 70
     6
  9
$SURFU
 70
     6
  9
$SURFV
 70
     6
  9
$UCSBASE
  2

  9
$UCSNAME
  2

  9
$UCSORG
 10
0.0
 20
0.0
 30
0.0
  9
$UCSXDIR
 10
1.0
 20
0.0
 30
0.0
  9
$UCSYDIR
 10
0.0
 20
1.0
 30
0.0
  9
$UCSORTHOREF
  2

  9
$UCSORTHOVIEW
 70
     0
  9
$UCSORGTOP
 10
0.0
 20
0.0
 30
0.0
  9
$UCSORGBOTTOM
 10
0.0
 20
0.0
 30
0.0
  9
$UCSORGLEFT
 10
0.0
 20
0.0
 30
0.0
  9
$UCSORGRIGHT
 10
0.0
 20
0.0
 30
0.0
  9
$UCSORGFRONT
 10
0.0
 20
0.0
 30
0.0
  9
$UCSORGBACK
 10
0.0
 20
0.0
 30
0.0
  9
$PUCSBASE
  2

  9
$PUCSNAME
  2

  9
$PUCSORG
 10
0.0
 20
0.0
 30
0.0
  9
$PUCSXDIR
 10
1.0
 20
0.0
 30
0.0
  9
$PUCSYDIR
 10
0.0
 20
1.0
 30
0.0
  9
$PUCSORTHOREF
  2

  9
$PUCSORTHOVIEW
 70
     0
  9
$PUCSORGTOP
 10
0.0
 20
0.0
 30
0.0
  9
$PUCSORGBOTTOM
 10
0.0
 20
0.0
 30
0.0
  9
$PUCSORGLEFT
 10
0.0
 20
0.0
 30
0.0
  9
$PUCSORGRIGHT
 10
0.0
 20
0.0
 30
0.0
  9
$PUCSORGFRONT
 10
0.0
 20
0.0
 30
0.0
  9
$PUCSORGBACK
 10
0.0
 20
0.0
 30
0.0
  9
$USERI1
 70
     0
  9
$USERI2
 70
     0
  9
$USERI3
 70
     0
  9
$USERI4
 70
     0
  9
$USERI5
 70
     0
  9
$USERR1
 40
0.0
  9
$USERR2
 40
0.0
  9
$USERR3
 40
0.0
  9
$USERR4
 40
0.0
  9
$USERR5
 40
0.0
  9
$WORLDVIEW
 70
     1
  9
$SHADEDGE
 70
     3
  9
$SHADEDIF
 70
    70
  9
$TILEMODE
 70
     1
  9
$MAXACTVP
 70
    64
  9
$PINSBASE
 10
0.0
 20
0.0
 30
0.0
  9
$PLIMCHECK
 70
     0
  9
$PEXTMIN
 10
1.000000E+20
 20
1.000000E+20
 30
1.000000E+20
  9
$PEXTMAX
 10
-1.000000E+20
 20
-1.000000E+20
 30
-1.000000E+20
  9
$PLIMMIN
 10
0.0
 20
0.0
  9
$PLIMMAX
 10
420.0
 20
297.0
  9
$UNITMODE
 70
     0
  9
$VISRETAIN
 70
     1
  9
$PLINEGEN
 70
     0
  9
$PSLTSCALE
 70
     1
  9
$TREEDEPTH
 70
  3020
  9
$CMLSTYLE
  2
Standard
  9
$CMLJUST
 70
     1
  9
$CMLSCALE
 40
1.0
  9
$PROXYGRAPHICS
 70
     1
  9
$MEASUREMENT
 70
     1
  9
$CELWEIGHT
370
    -1
  9
$ENDCAPS
280
     0
  9
$JOINSTYLE
280
     0
  9
$LWDISPLAY
290
     0
  9
$INSUNITS
 70
     4
  9
$HYPERLINKBASE
  1

  9
$STYLESHEET
  1

  9
$XEDIT
290
     1
  9
$CEPSNTYPE
380
     0
  9
$PSTYLEMODE
290
     1
  9
$FINGERPRINTGUID
  2
{FAEB1C30-E019-11D5-929B-00C0DF256EC4}
  9
$VERSIONGUID
  2
{FAEB1C32-E019-11D5-929B-00C0DF256EC4}
  9
$EXTNAMES
290
     1
  9
$PSVPSCALE
 40
0.0
  9
$OLESTARTUP
290
     0
  0
ENDSEC
  0
SECTION
  2
CLASSES
  0
CLASS
  1
ACDBDICTIONARYWDFLT
  2
AcDbDictionaryWithDefault
  3
ObjectDBX Classes
 90
        0
280
     0
281
     0
  0
CLASS
  1
ACDBPLACEHOLDER
  2
AcDbPlaceHolder
  3
ObjectDBX Classes
 90
        0
280
     0
281
     0
  0
CLASS
  1
LAYOUT
  2
AcDbLayout
  3
ObjectDBX Classes
 90
        0
280
     0
281
     0
  0
ENDSEC
  0
SECTION
  2
TABLES
  0
TABLE
  2
VPORT
  5
8
330
0
100
AcDbSymbolTable
 70
     2
  0
VPORT
  5
29
330
8
100
AcDbSymbolTableRecord
100
AcDbViewportTableRecord
  2
*Active
 70
     0
 10
0.0
 20
0.0
 11
1.0
 21
1.0
 12
50.0
 22
50.0
 13
0.0
 23
0.0
 14
10.0
 24
10.0
 15
10.0
 25
10.0
 16
0.0
 26
0.0
 36
1.0
 17
0.0
 27
0.0
 37
0.0
 40
103.921569
 41
1.0
 42
50.0
 43
0.0
 44
0.0
 50
0.0
 51
0.0
 71
     0
 72
   100
 73
     1
 74
     3
 75
     0
 76
     0
 77
     0
 78
     0
281
     0
 65
     1
110
0.0
120
0.0
130
0.0
111
1.0
121
0.0
131
0.0
112
0.0
122
1.0
132
0.0
 79
     0
146
0.0
  0
ENDTAB
  0
TABLE
  2
LTYPE
  5
5
330
0
100
AcDbSymbolTable
 70
     1
  0
LTYPE
  5
14
330
5
100
AcDbSymbolTableRecord
100
AcDbLinetypeTableRecord
  2
ByBlock
 70
     0
  3

 72
    65
 73
     0
 40
0.0
  0
LTYPE
  5
15
330
5
100
AcDbSymbolTableRecord
100
AcDbLinetypeTableRecord
  2
ByLayer
 70
     0
  3

 72
    65
 73
     0
 40
0.0
  0
LTYPE
  5
16
330
5
100
AcDbSymbolTableRecord
100
AcDbLinetypeTableRecord
  2
Continuous
 70
     0
  3

 72
    65
 73
     0
 40
0.0
  0
ENDTAB
  0
TABLE
  2
LAYER
  5
2
330
0
100
AcDbSymbolTable
 70
     1
  0
LAYER
  5
10
330
2
100
AcDbSymbolTableRecord
100
AcDbLayerTableRecord
  2
0
 70
     0
 62
     7
  6
Continuous
370
    -3
390
F
  0
ENDTAB
  0
TABLE
  2
STYLE
  5
3
330
0
100
AcDbSymbolTable
 70
     1
  0
STYLE
  5
11
330
3
100
AcDbSymbolTableRecord
100
AcDbTextStyleTableRecord
  2
Standard
 70
     0
 40
1.0
 41
1.0
 50
0.0
 71
     0
 42
2.5
  3
RomanS
  4

  0
ENDTAB
  0
TABLE
  2
VIEW
  5
6
330
0
100
AcDbSymbolTable
 70
     0
  0
ENDTAB
  0
TABLE
  2
UCS
  5
7
330
0
100
AcDbSymbolTable
 70
     0
  0
ENDTAB
  0
TABLE
  2
APPID
  5
9
330
0
100
AcDbSymbolTable
 70
     1
  0
APPID
  5
12
330
9
100
AcDbSymbolTableRecord
100
AcDbRegAppTableRecord
  2
ACAD
 70
     0
  0
ENDTAB
  0
TABLE
  2
DIMSTYLE
  5
A
330
0
100
AcDbSymbolTable
 70
     1
100
AcDbDimStyleTable
  0
DIMSTYLE
105
27
330
A
100
AcDbSymbolTableRecord
100
AcDbDimStyleTableRecord
  2
ISO-25
 70
     0
 41
2.5
 42
0.625
 44
1.25
 73
     0
 74
     0
 77
     1
 78
     8
 79
     2
140
2.5
141
2.5
146
0.0
147
0.625
271
     2
272
     0
273
     0
274
     0
278
    44
283
     0
289
     0
340
11
  0
ENDTAB
  0
TABLE
  2
BLOCK_RECORD
  5
1
330
0
100
AcDbSymbolTable
 70
     1
  0
BLOCK_RECORD
  5
1F
330
1
100
AcDbSymbolTableRecord
100
AcDbBlockTableRecord
  2
*Model_Space
340
22
  0
BLOCK_RECORD
  5
1B
330
1
100
AcDbSymbolTableRecord
100
AcDbBlockTableRecord
  2
*Paper_Space
340
1E
  0
BLOCK_RECORD
  5
23
330
1
100
AcDbSymbolTableRecord
100
AcDbBlockTableRecord
  2
*Paper_Space0
340
26
  0
ENDTAB
  0
ENDSEC
  0
SECTION
  2
BLOCKS
  0
BLOCK
  5
20
330
1F
100
AcDbEntity
  8
0
100
AcDbBlockBegin
  2
*Model_Space
 70
     0
 71
     0
 10
0.0
 20
0.0
 30
0.0
  3
*Model_Space
  1

  0
ENDBLK
  5
21
330
1F
100
AcDbEntity
  8
0
100
AcDbBlockEnd
  0
BLOCK
  5
1C
330
1B
100
AcDbEntity
 67
     1
  8
0
100
AcDbBlockBegin
  2
*Paper_Space
 70
     0
 71
     0
 10
0.0
 20
0.0
 30
0.0
  3
*Paper_Space
  1

  0
ENDBLK
  5
1D
330
1B
100
AcDbEntity
 67
     1
  8
0
100
AcDbBlockEnd
  0
BLOCK
  5
24
330
23
100
AcDbEntity
  8
0
100
AcDbBlockBegin
  2
*Paper_Space0
 70
     0
 71
     0
 10
0.0
 20
0.0
 30
0.0
  3
*Paper_Space0
  1

  0
ENDBLK
  5
25
330
23
100
AcDbEntity
  8
0
100
AcDbBlockEnd
  0
ENDSEC
  0
SECTION
  2
ENTITIES
  0
LWPOLYLINE
  5
2A
330
1F
100
AcDbEntity
  8
0
100
AcDbPolyline
 90
      791
 70
   128
 43
0.0
 10
-1126.851481
 20
-225.499076
 10
-1126.848215
 20
-225.915742
 10
-1126.84772
 20
-225.981305
 10
-1126.847288
 20
-226.05275
 10
-1126.847031
 20
-226.129708
 10
-1126.847064
 20
-226.211811
 10
-1126.847498
 20
-226.29869
 10
-1126.848444
 20
-226.389977
 10
-1126.850017
 20
-226.485304
 10
-1126.852328
 20
-226.5843
 10
-1126.855491
 20
-226.686601
 10
-1126.859617
 20
-226.791834
 10
-1126.864819
 20
-226.899634
 10
-1126.87121
 20
-227.009631
 10
-1126.878901
 20
-227.121456
 10
-1126.888006
 20
-227.234742
 10
-1126.898637
 20
-227.349121
 10
-1126.910906
 20
-227.464222
 10
-1126.924927
 20
-227.579678
 10
-1126.94081
 20
-227.695122
 10
-1126.958671
 20
-227.810182
 10
-1126.978619
 20
-227.924494
 10
-1127.00086
 20
-228.037716
 10
-1127.025964
 20
-228.149625
 10
-1127.054597
 20
-228.260027
 10
-1127.087421
 20
-228.368729
 10
-1127.125097
 20
-228.475537
 10
-1127.168291
 20
-228.580257
 10
-1127.217665
 20
-228.682694
 10
-1127.273883
 20
-228.782655
 10
-1127.337607
 20
-228.879948
 10
-1127.409501
 20
-228.974376
 10
-1127.490228
 20
-229.065746
 10
-1127.58045
 20
-229.153865
 10
-1127.680833
 20
-229.238537
 10
-1127.792037
 20
-229.319572
 10
-1127.914728
 20
-229.396772
 10
-1128.049568
 20
-229.469945
 10
-1128.19722
 20
-229.538898
 10
-1128.358347
 20
-229.603435
 10
-1128.533613
 20
-229.663363
 10
-1128.72368
 20
-229.718489
 10
-1128.928826
 20
-229.768691
 10
-1129.147784
 20
-229.814139
 10
-1129.378897
 20
-229.855076
 10
-1129.620514
 20
-229.891747
 10
-1129.87098
 20
-229.924393
 10
-1130.12864
 20
-229.953257
 10
-1130.391839
 20
-229.978584
 10
-1130.658926
 20
-230.000616
 10
-1130.928244
 20
-230.019595
 10
-1131.198141
 20
-230.035766
 10
-1131.466962
 20
-230.049371
 10
-1131.733052
 20
-230.060654
 10
-1131.994759
 20
-230.069858
 10
-1132.250427
 20
-230.077225
 10
-1132.498403
 20
-230.082999
 10
-1132.737032
 20
-230.087422
 10
-1132.964661
 20
-230.090739
 10
-1133.179635
 20
-230.093191
 10
-1133.3803
 20
-230.095023
 10
-1134.739467
 20
-230.105452
 10
-1134.744311
 20
-230.105489
 10
-1134.778217
 20
-230.105748
 10
-1134.870248
 20
-230.106453
 10
-1135.049467
 20
-230.107826
 10
-1135.344937
 20
-230.110089
 10
-1135.785719
 20
-230.113465
 10
-1136.400877
 20
-230.118176
 10
-1137.219472
 20
-230.124446
 10
-1138.270568
 20
-230.132496
 10
-1139.583227
 20
-230.142549
 10
-1141.186512
 20
-230.154828
 10
-1143.109485
 20
-230.169555
 10
-1145.381207
 20
-230.186953
 10
-1148.030744
 20
-230.207245
 10
-1151.087157
 20
-230.230654
 10
-1154.579507
 20
-230.257401
 10
-1158.536859
 20
-230.287709
 10
-1162.988275
 20
-230.321801
 10
-1167.962817
 20
-230.3599
 10
-1173.489547
 20
-230.402227
 10
-1179.582996
 20
-230.448895
 10
-1186.199572
 20
-230.499569
 10
-1193.28115
 20
-230.553805
 10
-1200.769602
 20
-230.611157
 10
-1208.606805
 20
-230.671179
 10
-1216.734635
 20
-230.733428
 10
-1225.094965
 20
-230.797457
 10
-1233.62967
 20
-230.862821
 10
-1242.280625
 20
-230.929077
 10
-1250.989706
 20
-230.995776
 10
-1259.698786
 20
-231.062477
 10
-1268.349741
 20
-231.128732
 10
-1276.884446
 20
-231.194097
 10
-1285.244775
 20
-231.258126
 10
-1293.372605
 20
-231.320374
 10
-1301.209808
 20
-231.380397
 10
-1308.698261
 20
-231.437749
 10
-1315.779838
 20
-231.491985
 10
-1322.396415
 20
-231.542659
 10
-1328.489864
 20
-231.589326
 10
-1334.016594
 20
-231.631654
 10
-1338.991135
 20
-231.669752
 10
-1343.442552
 20
-231.703844
 10
-1347.399903
 20
-231.734153
 10
-1350.892254
 20
-231.7609
 10
-1353.948666
 20
-231.784308
 10
-1356.598203
 20
-231.804599
 10
-1358.869926
 20
-231.821998
 10
-1360.792899
 20
-231.836725
 10
-1362.396183
 20
-231.849005
 10
-1363.708842
 20
-231.859058
 10
-1364.759939
 20
-231.867108
 10
-1365.578534
 20
-231.873377
 10
-1366.193692
 20
-231.878088
 10
-1366.634474
 20
-231.881465
 10
-1366.929943
 20
-231.883727
 10
-1367.109162
 20
-231.8851
 10
-1367.201193
 20
-231.885804
 10
-1367.2351
 20
-231.886064
 10
-1367.239943
 20
-231.886101
 10
-1368.414378
 20
-231.895105
 10
-1368.59907
 20
-231.896478
 10
-1368.799696
 20
-231.897717
 10
-1369.014571
 20
-231.898556
 10
-1369.24201
 20
-231.898721
 10
-1369.480331
 20
-231.897949
 10
-1369.72785
 20
-231.895969
 10
-1369.982883
 20
-231.892511
 10
-1370.243746
 20
-231.887308
 10
-1370.508755
 20
-231.880092
 10
-1370.776227
 20
-231.870593
 10
-1371.044478
 20
-231.858543
 10
-1371.311825
 20
-231.843674
 10
-1371.576582
 20
-231.825716
 10
-1371.837066
 20
-231.8044
 10
-1372.091595
 20
-231.77946
 10
-1372.338484
 20
-231.750625
 10
-1372.576049
 20
-231.717628
 10
-1372.802606
 20
-231.680199
 10
-1373.016473
 20
-231.63807
 10
-1373.215964
 20
-231.590973
 10
-1373.399799
 20
-231.538717
 10
-1373.568302
 20
-231.481429
 10
-1373.722202
 20
-231.419311
 10
-1373.862224
 20
-231.352569
 10
-1373.989099
 20
-231.281409
 10
-1374.103551
 20
-231.206032
 10
-1374.20631
 20
-231.126646
 10
-1374.298102
 20
-231.043451
 10
-1374.379654
 20
-230.956656
 10
-1374.451696
 20
-230.866462
 10
-1374.514953
 20
-230.773075
 10
-1374.570153
 20
-230.676699
 10
-1374.618024
 20
-230.577538
 10
-1374.659293
 20
-230.475797
 10
-1374.694689
 20
-230.37168
 10
-1374.724936
 20
-230.265392
 10
-1374.750765
 20
-230.157136
 10
-1374.772902
 20
-230.047118
 10
-1374.792074
 20
-229.935541
 10
-1374.809009
 20
-229.822611
 10
-1374.824325
 20
-229.708557
 10
-1374.838205
 20
-229.593725
 10
-1374.850721
 20
-229.478484
 10
-1374.861947
 20
-229.363204
 10
-1374.871956
 20
-229.248254
 10
-1374.880821
 20
-229.134004
 10
-1374.888614
 20
-229.020825
 10
-1374.895409
 20
-228.909087
 10
-1374.901279
 20
-228.799161
 10
-1374.906298
 20
-228.691415
 10
-1374.910537
 20
-228.58622
 10
-1374.914071
 20
-228.483947
 10
-1374.916972
 20
-228.384964
 10
-1374.919313
 20
-228.289643
 10
-1374.921167
 20
-228.198354
 10
-1374.922608
 20
-228.111465
 10
-1374.923709
 20
-228.029349
 10
-1374.924542
 20
-227.952373
 10
-1374.925182
 20
-227.88091
 10
-1374.928909
 20
-227.398544
 10
-1374.932118
 20
-226.981818
 10
-1374.932604
 20
-226.916261
 10
-1374.933021
 20
-226.844919
 10
-1374.933252
 20
-226.768259
 10
-1374.93318
 20
-226.686744
 10
-1374.932687
 20
-226.600844
 10
-1374.931658
 20
-226.51102
 10
-1374.929974
 20
-226.417741
 10
-1374.927518
 20
-226.321473
 10
-1374.924174
 20
-226.222682
 10
-1374.919825
 20
-226.121831
 10
-1374.914353
 20
-226.019389
 10
-1374.907641
 20
-225.915821
 10
-1374.899573
 20
-225.811592
 10
-1374.890031
 20
-225.70717
 10
-1374.878897
 20
-225.603018
 10
-1374.866056
 20
-225.499603
 10
-1374.85139
 20
-225.397392
 10
-1374.834782
 20
-225.296849
 10
-1374.816114
 20
-225.198442
 10
-1374.79527
 20
-225.102636
 10
-1374.772049
 20
-225.009802
 10
-1374.745921
 20
-224.919937
 10
-1374.716266
 20
-224.832943
 10
-1374.682471
 20
-224.748722
 10
-1374.643922
 20
-224.667176
 10
-1374.6
 20
-224.588207
 10
-1374.550091
 20
-224.511716
 10
-1374.493579
 20
-224.437607
 10
-1374.429848
 20
-224.365781
 10
-1374.358284
 20
-224.29614
 10
-1374.278269
 20
-224.228587
 10
-1374.189189
 20
-224.163022
 10
-1374.090427
 20
-224.099349
 10
-1373.98137
 20
-224.03747
 10
-1373.8614
 20
-223.977285
 10
-1373.729902
 20
-223.918699
 10
-1373.58626
 20
-223.861612
 10
-1373.429859
 20
-223.805927
 10
-1373.260083
 20
-223.751544
 10
-1373.076316
 20
-223.698369
 10
-1372.878307
 20
-223.646324
 10
-1372.667266
 20
-223.595436
 10
-1372.444764
 20
-223.545754
 10
-1372.212374
 20
-223.497324
 10
-1371.97167
 20
-223.450195
 10
-1371.724224
 20
-223.404416
 10
-1371.471609
 20
-223.360036
 10
-1371.215398
 20
-223.317102
 10
-1370.957164
 20
-223.275664
 10
-1370.698478
 20
-223.23577
 10
-1370.440916
 20
-223.197467
 10
-1370.186051
 20
-223.160805
 10
-1369.935452
 20
-223.125832
 10
-1369.690695
 20
-223.092596
 10
-1369.453353
 20
-223.061146
 10
-1369.224997
 20
-223.031531
 10
-1369.007202
 20
-223.003798
 10
-1368.801539
 20
-222.977996
 10
-1368.609582
 20
-222.954174
 10
-1367.30947
 20
-222.793952
 10
-1364.208151
 20
-222.411635
 10
-1363.719564
 20
-222.351477
 10
-1363.183682
 20
-222.285928
 10
-1362.599728
 20
-222.215334
 10
-1361.966929
 20
-222.140037
 10
-1361.284507
 20
-222.060382
 10
-1360.551688
 20
-221.976712
 10
-1359.767697
 20
-221.889372
 10
-1358.931757
 20
-221.798707
 10
-1358.043094
 20
-221.705061
 10
-1357.10093
 20
-221.608777
 10
-1356.104492
 20
-221.510199
 10
-1355.053004
 20
-221.409673
 10
-1353.94569
 20
-221.30754
 10
-1352.781774
 20
-221.204148
 10
-1351.560481
 20
-221.099838
 10
-1350.281036
 20
-220.994956
 10
-1348.942663
 20
-220.889844
 10
-1347.544587
 20
-220.784849
 10
-1346.086031
 20
-220.680314
 10
-1344.566221
 20
-220.576583
 10
-1342.985544
 20
-220.473951
 10
-1341.349039
 20
-220.372515
 10
-1339.662906
 20
-220.272326
 10
-1337.933348
 20
-220.173434
 10
-1336.166565
 20
-220.075887
 10
-1334.36876
 20
-219.979735
 10
-1332.546133
 20
-219.885027
 10
-1330.704887
 20
-219.791812
 10
-1328.851223
 20
-219.70014
 10
-1326.991342
 20
-219.61006
 10
-1325.131444
 20
-219.521623
 10
-1323.277733
 20
-219.434875
 10
-1321.43641
 20
-219.349867
 10
-1319.613675
 20
-219.266649
 10
-1317.815731
 20
-219.18527
 10
-1316.048778
 20
-219.10578
 10
-1314.319019
 20
-219.028227
 10
-1312.632654
 20
-218.95266
 10
-1310.995886
 20
-218.87913
 10
-1309.414914
 20
-218.807685
 10
-1307.89478
 20
-218.73837
 10
-1306.435872
 20
-218.671205
 10
-1305.037419
 20
-218.606208
 10
-1303.698647
 20
-218.543392
 10
-1302.418785
 20
-218.482774
 10
-1301.197059
 20
-218.424371
 10
-1300.032699
 20
-218.368198
 10
-1298.924929
 20
-218.314271
 10
-1297.872981
 20
-218.262605
 10
-1296.876079
 20
-218.213217
 10
-1295.933452
 20
-218.166122
 10
-1295.044327
 20
-218.121336
 10
-1294.207934
 20
-218.078875
 10
-1293.423497
 20
-218.038756
 10
-1292.690245
 20
-218.000994
 10
-1292.007407
 20
-217.965603
 10
-1291.374209
 20
-217.932601
 10
-1290.789879
 20
-217.902003
 10
-1290.253643
 20
-217.873826
 10
-1286.661349
 20
-217.684629
 10
-1283.788057
 20
-217.10049
 10
-1283.336262
 20
-217.008229
 10
-1282.845861
 20
-216.905657
 10
-1282.321345
 20
-216.791224
 10
-1281.767208
 20
-216.663381
 10
-1281.187941
 20
-216.520579
 10
-1280.588037
 20
-216.361266
 10
-1279.97199
 20
-216.183897
 10
-1279.34429
 20
-215.986918
 10
-1278.709432
 20
-215.768783
 10
-1278.071907
 20
-215.527941
 10
-1277.436208
 20
-215.262843
 10
-1276.806828
 20
-214.971939
 10
-1276.188258
 20
-214.653681
 10
-1275.584993
 20
-214.306518
 10
-1275.001523
 20
-213.928902
 10
-1274.442342
 20
-213.519282
 10
-1273.911943
 20
-213.076111
 10
-1273.414817
 20
-212.597837
 10
-1272.955457
 20
-212.082913
 10
-1272.538357
 20
-211.529788
 10
-1272.166482
 20
-210.937863
 10
-1271.836702
 20
-210.310344
 10
-1271.544358
 20
-209.651389
 10
-1271.284792
 20
-208.965151
 10
-1271.053347
 20
-208.255788
 10
-1270.845367
 20
-207.527456
 10
-1270.656192
 20
-206.784311
 10
-1270.481166
 20
-206.03051
 10
-1270.315631
 20
-205.270208
 10
-1270.154928
 20
-204.507561
 10
-1269.994402
 20
-203.746725
 10
-1269.829394
 20
-202.991859
 10
-1269.655247
 20
-202.247116
 10
-1269.467302
 20
-201.516653
 10
-1269.260904
 20
-200.804626
 10
-1269.031392
 20
-200.115192
 10
-1268.774112
 20
-199.452507
 10
-1268.484405
 20
-198.820727
 10
-1268.157613
 20
-198.224007
 10
-1267.789078
 20
-197.666506
 10
-1267.375663
 20
-197.151366
 10
-1266.920305
 20
-196.677688
 10
-1266.427462
 20
-196.243559
 10
-1265.901593
 20
-195.847069
 10
-1265.347152
 20
-195.486306
 10
-1264.768598
 20
-195.159358
 10
-1264.170389
 20
-194.864312
 10
-1263.556983
 20
-194.599258
 10
-1262.932834
 20
-194.362283
 10
-1262.302403
 20
-194.151475
 10
-1261.670146
 20
-193.964924
 10
-1261.04052
 20
-193.800718
 10
-1260.417982
 20
-193.656944
 10
-1259.806992
 20
-193.53169
 10
-1259.212004
 20
-193.423046
 10
-1258.637478
 20
-193.3291
 10
-1258.087868
 20
-193.247938
 10
-1257.567637
 20
-193.177651
 10
-1257.081237
 20
-193.116326
 10
-1253.783274
 20
-192.719472
 10
-1253.78327
 20
-192.719897
 10
-1253.783247
 20
-192.722865
 10
-1253.783186
 20
-192.73092
 10
-1253.783066
 20
-192.746609
 10
-1253.782868
 20
-192.772473
 10
-1253.782574
 20
-192.811056
 10
-1253.782162
 20
-192.864904
 10
-1253.781614
 20
-192.93656
 10
-1253.780911
 20
-193.028567
 10
-1253.780032
 20
-193.143471
 10
-1253.778959
 20
-193.283814
 10
-1253.777673
 20
-193.452141
 10
-1253.776152
 20
-193.650997
 10
-1253.77438
 20
-193.882924
 10
-1253.772334
 20
-194.150467
 10
-1253.769997
 20
-194.45617
 10
-1253.767349
 20
-194.802576
 10
-1253.76437
 20
-195.192231
 10
-1253.761042
 20
-195.627677
 10
-1253.757343
 20
-196.111459
 10
-1253.753266
 20
-196.644849
 10
-1253.748838
 20
-197.224031
 10
-1253.7441
 20
-197.843917
 10
-1253.739088
 20
-198.499418
 10
-1253.733844
 20
-199.185447
 10
-1253.728406
 20
-199.896917
 10
-1253.722811
 20
-200.628737
 10
-1253.717099
 20
-201.375822
 10
-1253.711311
 20
-202.133084
 10
-1253.705483
 20
-202.895433
 10
-1253.699655
 20
-203.657781
 10
-1253.693866
 20
-204.415042
 10
-1253.688155
 20
-205.162128
 10
-1253.682561
 20
-205.893949
 10
-1253.677122
 20
-206.605419
 10
-1253.671878
 20
-207.291447
 10
-1253.666866
 20
-207.946949
 10
-1253.662128
 20
-208.566834
 10
-1253.6577
 20
-209.146016
 10
-1253.653623
 20
-209.679406
 10
-1253.649925
 20
-210.163188
 10
-1253.646596
 20
-210.598634
 10
-1253.643617
 20
-210.988289
 10
-1253.640969
 20
-211.334696
 10
-1253.638632
 20
-211.640398
 10
-1253.636587
 20
-211.907942
 10
-1253.634814
 20
-212.139869
 10
-1253.633294
 20
-212.338724
 10
-1253.632007
 20
-212.507051
 10
-1253.630934
 20
-212.647394
 10
-1253.630056
 20
-212.762298
 10
-1253.629353
 20
-212.854305
 10
-1253.628805
 20
-212.925962
 10
-1253.628393
 20
-212.979809
 10
-1253.628098
 20
-213.018393
 10
-1253.6279
 20
-213.044257
 10
-1253.627781
 20
-213.059945
 10
-1253.627718
 20
-213.068001
 10
-1253.627696
 20
-213.070968
 10
-1253.627693
 20
-213.071393
 10
-1253.626034
 20
-213.28816
 10
-1253.625751
 20
-213.32227
 10
-1253.625312
 20
-213.359437
 10
-1253.624586
 20
-213.399473
 10
-1253.623442
 20
-213.442184
 10
-1253.621748
 20
-213.487377
 10
-1253.619374
 20
-213.53486
 10
-1253.616188
 20
-213.584442
 10
-1253.612059
 20
-213.635931
 10
-1253.606858
 20
-213.689133
 10
-1253.600451
 20
-213.743857
 10
-1253.592707
 20
-213.79991
 10
-1253.583498
 20
-213.857101
 10
-1253.572689
 20
-213.915237
 10
-1253.560151
 20
-213.974127
 10
-1253.545753
 20
-214.033577
 10
-1253.529364
 20
-214.093395
 10
-1253.510852
 20
-214.153391
 10
-1253.490086
 20
-214.21337
 10
-1253.466935
 20
-214.273142
 10
-1253.441269
 20
-214.332513
 10
-1253.412993
 20
-214.391307
 10
-1253.382176
 20
-214.449404
 10
-1253.348919
 20
-214.506699
 10
-1253.313326
 20
-214.563089
 10
-1253.275504
 20
-214.618468
 10
-1253.235553
 20
-214.672732
 10
-1253.19358
 20
-214.725776
 10
-1253.149688
 20
-214.777495
 10
-1253.103979
 20
-214.827786
 10
-1253.056561
 20
-214.876543
 10
-1253.007534
 20
-214.923662
 10
-1252.957005
 20
-214.969039
 10
-1252.905077
 20
-215.012569
 10
-1252.851853
 20
-215.054146
 10
-1252.797438
 20
-215.093668
 10
-1252.741936
 20
-215.131028
 10
-1252.685451
 20
-215.166123
 10
-1252.628085
 20
-215.198847
 10
-1252.569946
 20
-215.229098
 10
-1252.511134
 20
-215.256769
 10
-1252.451771
 20
-215.281796
 10
-1252.392029
 20
-215.304274
 10
-1252.332102
 20
-215.324341
 10
-1252.272178
 20
-215.342129
 10
-1252.212448
 20
-215.357775
 10
-1252.153102
 20
-215.371415
 10
-1252.094331
 20
-215.383183
 10
-1252.036326
 20
-215.393216
 10
-1251.979275
 20
-215.401648
 10
-1251.92337
 20
-215.408615
 10
-1251.868801
 20
-215.414252
 10
-1251.815758
 20
-215.418695
 10
-1251.764433
 20
-215.422079
 10
-1251.715013
 20
-215.424541
 10
-1251.667692
 20
-215.426213
 10
-1251.622658
 20
-215.427235
 10
-1251.580102
 20
-215.427738
 10
-1251.540214
 20
-215.427859
 10
-1251.503185
 20
-215.427734
 10
-1251.253254
 20
-215.425862
 10
-1251.037304
 20
-215.424283
 10
-1251.003323
 20
-215.424011
 10
-1250.966296
 20
-215.423585
 10
-1250.926414
 20
-215.422871
 10
-1250.88387
 20
-215.421736
 10
-1250.838857
 20
-215.420049
 10
-1250.791566
 20
-215.417676
 10
-1250.74219
 20
-215.414488
 10
-1250.690921
 20
-215.41035
 10
-1250.637952
 20
-215.405131
 10
-1250.583475
 20
-215.398699
 10
-1250.527683
 20
-215.390922
 10
-1250.470767
 20
-215.381666
 10
-1250.412921
 20
-215.370801
 10
-1250.354336
 20
-215.358195
 10
-1250.295205
 20
-215.343713
 10
-1250.23572
 20
-215.327225
 10
-1250.176074
 20
-215.308599
 10
-1250.116459
 20
-215.287702
 10
-1250.057067
 20
-215.264401
 10
-1249.998092
 20
-215.238566
 10
-1249.939709
 20
-215.210103
 10
-1249.882038
 20
-215.179078
 10
-1249.825179
 20
-215.145595
 10
-1249.769235
 20
-215.109759
 10
-1249.714309
 20
-215.071675
 10
-1249.660503
 20
-215.031447
 10
-1249.60792
 20
-214.989182
 10
-1249.556662
 20
-214.944983
 10
-1249.506831
 20
-214.898955
 10
-1249.458531
 20
-214.851203
 10
-1249.411862
 20
-214.801831
 10
-1249.366928
 20
-214.750946
 10
-1249.323831
 20
-214.698651
 10
-1249.282673
 20
-214.645051
 10
-1249.243557
 20
-214.590251
 10
-1249.206586
 20
-214.534356
 10
-1249.17186
 20
-214.477471
 10
-1249.139485
 20
-214.419701
 10
-1249.109561
 20
-214.361148
 10
-1249.08219
 20
-214.301921
 10
-1249.057436
 20
-214.242138
 10
-1249.035205
 20
-214.181974
 10
-1249.015362
 20
-214.121623
 10
-1248.997772
 20
-214.061277
 10
-1248.982302
 20
-214.001125
 10
-1248.968819
 20
-213.94136
 10
-1248.957187
 20
-213.882175
 10
-1248.947273
 20
-213.82376
 10
-1248.938942
 20
-213.766308
 10
-1248.932062
 20
-213.710009
 10
-1248.926498
 20
-213.655055
 10
-1248.922114
 20
-213.601639
 10
-1248.918778
 20
-213.549952
 10
-1248.916355
 20
-213.500185
 10
-1248.914711
 20
-213.452531
 10
-1248.913713
 20
-213.407179
 10
-1248.913226
 20
-213.364323
 10
-1248.913115
 20
-213.324155
 10
-1248.913247
 20
-213.286865
 10
-1248.915166
 20
-213.035176
 10
-1248.915169
 20
-213.034751
 10
-1248.915193
 20
-213.031773
 10
-1248.915254
 20
-213.023689
 10
-1248.915375
 20
-213.007946
 10
-1248.915574
 20
-212.981992
 10
-1248.915871
 20
-212.943273
 10
-1248.916285
 20
-212.889237
 10
-1248.916835
 20
-212.817331
 10
-1248.917543
 20
-212.725002
 10
-1248.918426
 20
-212.609698
 10
-1248.919507
 20
-212.468865
 10
-1248.920801
 20
-212.299951
 10
-1248.922331
 20
-212.100401
 10
-1248.924114
 20
-211.867665
 10
-1248.926171
 20
-211.599187
 10
-1248.928522
 20
-211.292418
 10
-1248.931186
 20
-210.944803
 10
-1248.934183
 20
-210.553788
 10
-1248.937532
 20
-210.116823
 10
-1248.941253
 20
-209.631351
 10
-1248.945355
 20
-209.0961
 10
-1248.949809
 20
-208.514897
 10
-1248.954576
 20
-207.892848
 10
-1248.959618
 20
-207.235059
 10
-1248.964894
 20
-206.546635
 10
-1248.970366
 20
-205.832683
 10
-1248.975994
 20
-205.098308
 10
-1248.98174
 20
-204.348616
 10
-1248.987563
 20
-203.588712
 10
-1248.993427
 20
-202.823702
 10
-1248.99929
 20
-202.058693
 10
-1249.005113
 20
-201.298789
 10
-1249.01086
 20
-200.549097
 10
-1249.016488
 20
-199.814722
 10
-1249.021959
 20
-199.10077
 10
-1249.027235
 20
-198.412346
 10
-1249.032277
 20
-197.754557
 10
-1249.037044
 20
-197.132507
 10
-1249.041498
 20
-196.551304
 10
-1249.0456
 20
-196.016053
 10
-1249.049321
 20
-195.530582
 10
-1249.05267
 20
-195.093617
 10
-1249.055667
 20
-194.702602
 10
-1249.058331
 20
-194.354987
 10
-1249.060682
 20
-194.048218
 10
-1249.06274
 20
-193.779741
 10
-1249.064523
 20
-193.547004
 10
-1249.066052
 20
-193.347454
 10
-1249.067347
 20
-193.17854
 10
-1249.068427
 20
-193.037706
 10
-1249.06931
 20
-192.922402
 10
-1249.070018
 20
-192.830073
 10
-1249.070569
 20
-192.758167
 10
-1249.070982
 20
-192.704132
 10
-1249.071279
 20
-192.665413
 10
-1249.071478
 20
-192.639459
 10
-1249.071599
 20
-192.623717
 10
-1249.071661
 20
-192.615633
 10
-1249.071684
 20
-192.612654
 10
-1249.071688
 20
-192.612228
 10
-1246.191756
 20
-192.847382
 10
-1245.738985
 20
-192.884825
 10
-1245.247927
 20
-192.928233
 10
-1244.723492
 20
-192.980044
 10
-1244.170591
 20
-193.042695
 10
-1243.594137
 20
-193.118625
 10
-1242.99904
 20
-193.210271
 10
-1242.39021
 20
-193.32007
 10
-1241.772561
 20
-193.450461
 10
-1241.151002
 20
-193.603881
 10
-1240.530446
 20
-193.782768
 10
-1239.915802
 20
-193.989561
 10
-1239.311983
 20
-194.226694
 10
-1238.7239
 20
-194.49661
 10
-1238.156464
 20
-194.801742
 10
-1237.614585
 20
-195.14453
 10
-1237.103176
 20
-195.527412
 10
-1236.627147
 20
-195.952825
 10
-1236.19141
 20
-196.423207
 10
-1235.800876
 20
-196.940996
 10
-1235.460457
 20
-197.508628
 10
-1235.173273
 20
-198.127252
 10
-1234.935294
 20
-198.792847
 10
-1234.740698
 20
-199.500102
 10
-1234.583663
 20
-200.243708
 10
-1234.458369
 20
-201.018352
 10
-1234.358994
 20
-201.818725
 10
-1234.279716
 20
-202.639515
 10
-1234.214715
 20
-203.475413
 10
-1234.158169
 20
-204.321105
 10
-1234.104257
 20
-205.171283
 10
-1234.047157
 20
-206.020635
 10
-1233.981049
 20
-206.863851
 10
-1233.90011
 20
-207.69562
 10
-1233.798521
 20
-208.510631
 10
-1233.670459
 20
-209.303573
 10
-1233.510104
 20
-210.069135
 10
-1233.311633
 20
-210.802007
 10
-1233.069226
 20
-211.496879
 10
-1232.777062
 20
-212.148437
 10
-1232.429318
 20
-212.751374
 10
-1232.022069
 20
-213.301696
 10
-1231.558969
 20
-213.800687
 10
-1231.045566
 20
-214.250951
 10
-1230.487409
 20
-214.65509
 10
-1229.890047
 20
-215.015707
 10
-1229.259028
 20
-215.335405
 10
-1228.599902
 20
-215.616786
 10
-1227.918215
 20
-215.862455
 10
-1227.219518
 20
-216.075013
 10
-1226.50936
 20
-216.257063
 10
-1225.793287
 20
-216.411208
 10
-1225.076851
 20
-216.540052
 10
-1224.365599
 20
-216.646196
 10
-1223.665079
 20
-216.732244
 10
-1222.980842
 20
-216.8008
 10
-1222.318434
 20
-216.854465
 10
-1221.683405
 20
-216.895842
 10
-1221.081304
 20
-216.927535
 10
-1220.51768
 20
-216.952146
 10
-1216.693164
 20
-217.097346
 10
-1213.522835
 20
-217.211035
 10
-1213.023388
 20
-217.228937
 10
-1212.475662
 20
-217.248521
 10
-1211.878935
 20
-217.269768
 10
-1211.232482
 20
-217.29265
 10
-1210.53558
 20
-217.317149
 10
-1209.787506
 20
-217.343242
 10
-1208.987537
 20
-217.370904
 10
-1208.134949
 20
-217.400114
 10
-1207.229017
 20
-217.430851
 10
-1206.269021
 20
-217.46309
 10
-1205.254235
 20
-217.49681
 10
-1204.183935
 20
-217.531988
 10
-1203.057399
 20
-217.568602
 10
-1201.873904
 20
-217.60663
 10
-1200.632725
 20
-217.646048
 10
-1199.33314
 20
-217.686835
 10
-1197.974425
 20
-217.728967
 10
-1196.555855
 20
-217.772423
 10
-1195.076709
 20
-217.81718
 10
-1193.536262
 20
-217.863215
 10
-1191.934946
 20
-217.910519
 10
-1190.277806
 20
-217.959123
 10
-1188.571046
 20
-218.009074
 10
-1186.820865
 20
-218.060417
 10
-1185.033466
 20
-218.113198
 10
-1183.21505
 20
-218.167461
 10
-1181.371817
 20
-218.223252
 10
-1179.50997
 20
-218.280615
 10
-1177.63571
 20
-218.339599
 10
-1175.755237
 20
-218.400245
 10
-1173.874755
 20
-218.462601
 10
-1172.000463
 20
-218.526711
 10
-1170.138562
 20
-218.592621
 10
-1168.295255
 20
-218.660375
 10
-1166.476744
 20
-218.730021
 10
-1164.689228
 20
-218.801602
 10
-1162.938909
 20
-218.875164
 10
-1161.231989
 20
-218.950752
 10
-1159.574669
 20
-219.028412
 10
-1157.973151
 20
-219.108188
 10
-1156.432481
 20
-219.190059
 10
-1154.953094
 20
-219.273727
 10
-1153.534265
 20
-219.35883
 10
-1152.175275
 20
-219.445001
 10
-1150.875404
 20
-219.531877
 10
-1149.633928
 20
-219.619094
 10
-1148.450127
 20
-219.706288
 10
-1147.323279
 20
-219.793094
 10
-1146.252663
 20
-219.879147
 10
-1145.237559
 20
-219.964084
 10
-1144.277243
 20
-220.047541
 10
-1143.370995
 20
-220.129152
 10
-1142.518095
 20
-220.208555
 10
-1141.71782
 20
-220.285383
 10
-1140.969449
 20
-220.359274
 10
-1140.272261
 20
-220.429862
 10
-1139.625534
 20
-220.496785
 10
-1139.028548
 20
-220.559676
 10
-1138.48058
 20
-220.618172
 10
-1134.809165
 20
-221.013482
 10
-1133.683884
 20
-221.134654
 10
-1133.506909
 20
-221.153734
 10
-1133.314594
 20
-221.174608
 10
-1133.108479
 20
-221.19725
 10
-1132.890104
 20
-221.221636
 10
-1132.661007
 20
-221.247741
 10
-1132.422731
 20
-221.275541
 10
-1132.176811
 20
-221.305012
 10
-1131.924789
 20
-221.336129
 10
-1131.668205
 20
-221.368867
 10
-1131.408599
 20
-221.403202
 10
-1131.147508
 20
-221.439109
 10
-1130.886475
 20
-221.476564
 10
-1130.627036
 20
-221.515542
 10
-1130.370733
 20
-221.55602
 10
-1130.119104
 20
-221.59797
 10
-1129.87369
 20
-221.641372
 10
-1129.636031
 20
-221.686198
 10
-1129.407664
 20
-221.732424
 10
-1129.190131
 20
-221.780027
 10
-1128.984971
 20
-221.828982
 10
-1128.793375
 20
-221.879282
 10
-1128.615142
 20
-221.930999
 10
-1128.449722
 20
-221.984221
 10
-1128.296564
 20
-222.039036
 10
-1128.155121
 20
-222.095535
 10
-1128.024842
 20
-222.153807
 10
-1127.905176
 20
-222.213939
 10
-1127.795576
 20
-222.276021
 10
-1127.69549
 20
-222.340142
 10
-1127.60437
 20
-222.406391
 10
-1127.521665
 20
-222.474858
 10
-1127.446826
 20
-222.545631
 10
-1127.379303
 20
-222.618798
 10
-1127.318546
 20
-222.69445
 10
-1127.264007
 20
-222.772675
 10
-1127.215133
 20
-222.853562
 10
-1127.171379
 20
-222.937199
 10
-1127.132191
 20
-223.023678
 10
-1127.097022
 20
-223.113085
 10
-1127.065322
 20
-223.205511
 10
-1127.036606
 20
-223.300951
 10
-1127.010667
 20
-223.399029
 10
-1126.98736
 20
-223.499279
 10
-1126.966539
 20
-223.601233
 10
-1126.948065
 20
-223.704421
 10
-1126.93179
 20
-223.808377
 10
-1126.917574
 20
-223.912633
 10
-1126.905272
 20
-224.016721
 10
-1126.89474
 20
-224.120171
 10
-1126.885835
 20
-224.222518
 10
-1126.878413
 20
-224.323291
 10
-1126.872332
 20
-224.422025
 10
-1126.867446
 20
-224.51825
 10
-1126.863613
 20
-224.6115
 10
-1126.860691
 20
-224.701305
 10
-1126.858534
 20
-224.787198
 10
-1126.856998
 20
-224.868711
 10
-1126.855941
 20
-224.945376
 10
-1126.85522
 20
-225.016725
 10
-1126.851481
 20
-225.499076
  0
LWPOLYLINE
  5
2B
330
1F
100
AcDbEntity
  8
0
100
AcDbPolyline
 90
      791
 70
   128
 43
0.0
 10
-1127.69813
 20
-259.382509
 10
-1127.701279
 20
-258.96584
 10
-1127.701793
 20
-258.900277
 10
-1127.70246
 20
-258.828833
 10
-1127.703389
 20
-258.751879
 10
-1127.704685
 20
-258.669786
 10
-1127.706455
 20
-258.582924
 10
-1127.708805
 20
-258.491661
 10
-1127.711844
 20
-258.39637
 10
-1127.715676
 20
-258.29742
 10
-1127.720411
 20
-258.19518
 10
-1127.726153
 20
-258.090021
 10
-1127.733009
 20
-257.982314
 10
-1127.741087
 20
-257.872428
 10
-1127.750492
 20
-257.760733
 10
-1127.761333
 20
-257.647599
 10
-1127.773715
 20
-257.533397
 10
-1127.787745
 20
-257.418497
 10
-1127.80353
 20
-257.303269
 10
-1127.821177
 20
-257.188083
 10
-1127.840792
 20
-257.073308
 10
-1127.862482
 20
-256.959316
 10
-1127.886447
 20
-256.84645
 10
-1127.913253
 20
-256.734939
 10
-1127.943562
 20
-256.624987
 10
-1127.978035
 20
-256.516802
 10
-1128.017329
 20
-256.410584
 10
-1128.062108
 20
-256.306539
 10
-1128.113029
 20
-256.204871
 10
-1128.170756
 20
-256.105783
 10
-1128.235946
 20
-256.009479
 10
-1128.309261
 20
-255.916165
 10
-1128.391361
 20
-255.826044
 10
-1128.482905
 20
-255.739318
 10
-1128.584555
 20
-255.656195
 10
-1128.696972
 20
-255.576875
 10
-1128.820814
 20
-255.501565
 10
-1128.956742
 20
-255.430468
 10
-1129.105418
 20
-255.363787
 10
-1129.267499
 20
-255.301728
 10
-1129.443648
 20
-255.244494
 10
-1129.634526
 20
-255.19229
 10
-1129.840405
 20
-255.145239
 10
-1130.060021
 20
-255.103154
 10
-1130.291726
 20
-255.065765
 10
-1130.533867
 20
-255.032803
 10
-1130.784796
 20
-255.004002
 10
-1131.042861
 20
-254.979091
 10
-1131.306412
 20
-254.957803
 10
-1131.5738
 20
-254.939868
 10
-1131.843373
 20
-254.925021
 10
-1132.113483
 20
-254.91299
 10
-1132.382477
 20
-254.903507
 10
-1132.648707
 20
-254.896305
 10
-1132.910522
 20
-254.891116
 10
-1133.166271
 20
-254.88767
 10
-1133.414305
 20
-254.885698
 10
-1133.652973
 20
-254.884934
 10
-1133.880626
 20
-254.885108
 10
-1134.095612
 20
-254.885952
 10
-1134.296281
 20
-254.887197
 10
-1135.655447
 20
-254.897609
 10
-1135.66029
 20
-254.897645
 10
-1135.694196
 20
-254.897905
 10
-1135.786228
 20
-254.89861
 10
-1135.965446
 20
-254.899982
 10
-1136.260916
 20
-254.902244
 10
-1136.701699
 20
-254.90562
 10
-1137.316856
 20
-254.91033
 10
-1138.135451
 20
-254.916598
 10
-1139.186547
 20
-254.924647
 10
-1140.499207
 20
-254.934698
 10
-1142.102491
 20
-254.946974
 10
-1144.025463
 20
-254.961699
 10
-1146.297187
 20
-254.979094
 10
-1148.946724
 20
-254.999382
 10
-1152.003136
 20
-255.022786
 10
-1155.495488
 20
-255.049527
 10
-1159.45284
 20
-255.079829
 10
-1163.904255
 20
-255.113914
 10
-1168.878797
 20
-255.152006
 10
-1174.405527
 20
-255.194325
 10
-1180.498977
 20
-255.240983
 10
-1187.115553
 20
-255.291648
 10
-1194.197131
 20
-255.345873
 10
-1201.685585
 20
-255.403213
 10
-1209.522788
 20
-255.463224
 10
-1217.650617
 20
-255.525461
 10
-1226.010948
 20
-255.589477
 10
-1234.545652
 20
-255.654829
 10
-1243.196609
 20
-255.721071
 10
-1251.905689
 20
-255.787758
 10
-1260.61477
 20
-255.854445
 10
-1269.265725
 20
-255.920687
 10
-1277.800431
 20
-255.986038
 10
-1286.16076
 20
-256.050055
 10
-1294.28859
 20
-256.112291
 10
-1302.125794
 20
-256.172302
 10
-1309.614247
 20
-256.229642
 10
-1316.695824
 20
-256.283868
 10
-1323.312401
 20
-256.334532
 10
-1329.405851
 20
-256.38119
 10
-1334.932582
 20
-256.42351
 10
-1339.907123
 20
-256.461601
 10
-1344.358539
 20
-256.495686
 10
-1348.31589
 20
-256.525988
 10
-1351.808242
 20
-256.552729
 10
-1354.864654
 20
-256.576134
 10
-1357.514191
 20
-256.596421
 10
-1359.785914
 20
-256.613817
 10
-1361.708887
 20
-256.628541
 10
-1363.312172
 20
-256.640818
 10
-1364.624831
 20
-256.650869
 10
-1365.675927
 20
-256.658917
 10
-1366.494523
 20
-256.665186
 10
-1367.10968
 20
-256.669896
 10
-1367.550462
 20
-256.673271
 10
-1367.845931
 20
-256.675534
 10
-1368.02515
 20
-256.676905
 10
-1368.117182
 20
-256.67761
 10
-1368.151088
 20
-256.67787
 10
-1368.155932
 20
-256.677907
 10
-1369.330424
 20
-256.686912
 10
-1369.515126
 20
-256.68837
 10
-1369.715757
 20
-256.690207
 10
-1369.93063
 20
-256.692664
 10
-1370.158056
 20
-256.695985
 10
-1370.396349
 20
-256.700412
 10
-1370.64382
 20
-256.706188
 10
-1370.898783
 20
-256.713556
 10
-1371.159547
 20
-256.722758
 10
-1371.424427
 20
-256.734038
 10
-1371.691734
 20
-256.747637
 10
-1371.95978
 20
-256.7638
 10
-1372.226878
 20
-256.782769
 10
-1372.49134
 20
-256.804786
 10
-1372.751478
 20
-256.830095
 10
-1373.005605
 20
-256.858938
 10
-1373.252031
 20
-256.891557
 10
-1373.489071
 20
-256.928197
 10
-1373.715036
 20
-256.969098
 10
-1373.928237
 20
-257.014506
 10
-1374.126988
 20
-257.064661
 10
-1374.310003
 20
-257.119734
 10
-1374.47761
 20
-257.179605
 10
-1374.63054
 20
-257.244081
 10
-1374.769524
 20
-257.312967
 10
-1374.895292
 20
-257.386071
 10
-1375.008574
 20
-257.463201
 10
-1375.110101
 20
-257.544161
 10
-1375.200604
 20
-257.628759
 10
-1375.280813
 20
-257.716803
 10
-1375.351459
 20
-257.808098
 10
-1375.413274
 20
-257.902452
 10
-1375.466987
 20
-257.999669
 10
-1375.513328
 20
-258.099559
 10
-1375.553029
 20
-258.201929
 10
-1375.586819
 20
-258.306583
 10
-1375.615431
 20
-258.41333
 10
-1375.639595
 20
-258.521974
 10
-1375.66004
 20
-258.632325
 10
-1375.677497
 20
-258.744188
 10
-1375.692698
 20
-258.857371
 10
-1375.706265
 20
-258.971649
 10
-1375.718383
 20
-259.086684
 10
-1375.729133
 20
-259.202108
 10
-1375.738593
 20
-259.317552
 10
-1375.746841
 20
-259.432645
 10
-1375.753956
 20
-259.547019
 10
-1375.760018
 20
-259.660307
 10
-1375.765103
 20
-259.772138
 10
-1375.769293
 20
-259.882144
 10
-1375.772663
 20
-259.989956
 10
-1375.775295
 20
-260.095205
 10
-1375.777266
 20
-260.197521
 10
-1375.778654
 20
-260.296537
 10
-1375.77954
 20
-260.391884
 10
-1375.78
 20
-260.483192
 10
-1375.780114
 20
-260.570093
 10
-1375.779961
 20
-260.652217
 10
-1375.779619
 20
-260.729196
 10
-1375.779167
 20
-260.800661
 10
-1375.775532
 20
-261.283029
 10
-1375.772326
 20
-261.699638
 10
-1375.771803
 20
-261.765176
 10
-1375.771122
 20
-261.836496
 10
-1375.770173
 20
-261.91313
 10
-1375.768847
 20
-261.99461
 10
-1375.767033
 20
-262.080471
 10
-1375.764621
 20
-262.170243
 10
-1375.761502
 20
-262.26346
 10
-1375.757567
 20
-262.359653
 10
-1375.752704
 20
-262.458357
 10
-1375.746804
 20
-262.559102
 10
-1375.739759
 20
-262.661423
 10
-1375.731456
 20
-262.764851
 10
-1375.721787
 20
-262.868919
 10
-1375.710642
 20
-262.97316
 10
-1375.69791
 20
-263.077105
 10
-1375.683483
 20
-263.180288
 10
-1375.66725
 20
-263.282241
 10
-1375.649101
 20
-263.382497
 10
-1375.628927
 20
-263.480588
 10
-1375.606617
 20
-263.576048
 10
-1375.581978
 20
-263.6685
 10
-1375.554476
 20
-263.757941
 10
-1375.523495
 20
-263.84446
 10
-1375.488418
 20
-263.928144
 10
-1375.448626
 20
-264.009083
 10
-1375.403503
 20
-264.087365
 10
-1375.352433
 20
-264.163077
 10
-1375.294797
 20
-264.236309
 10
-1375.229979
 20
-264.307148
 10
-1375.157361
 20
-264.375685
 10
-1375.076326
 20
-264.442006
 10
-1374.986258
 20
-264.5062
 10
-1374.886539
 20
-264.568356
 10
-1374.776552
 20
-264.628563
 10
-1374.655679
 20
-264.686908
 10
-1374.523303
 20
-264.74348
 10
-1374.378809
 20
-264.798367
 10
-1374.221578
 20
-264.851659
 10
-1374.050993
 20
-264.903442
 10
-1373.866437
 20
-264.953807
 10
-1373.667658
 20
-265.002822
 10
-1373.455864
 20
-265.050482
 10
-1373.232628
 20
-265.096762
 10
-1372.999526
 20
-265.141637
 10
-1372.758129
 20
-265.185086
 10
-1372.510012
 20
-265.227081
 10
-1372.256747
 20
-265.267598
 10
-1371.999908
 20
-265.306614
 10
-1371.741069
 20
-265.344104
 10
-1371.481802
 20
-265.380044
 10
-1371.223684
 20
-265.414409
 10
-1370.968285
 20
-265.447175
 10
-1370.717179
 20
-265.478317
 10
-1370.471941
 20
-265.507811
 10
-1370.234143
 20
-265.535633
 10
-1370.005359
 20
-265.561758
 10
-1369.787163
 20
-265.586161
 10
-1369.581127
 20
-265.608819
 10
-1369.388827
 20
-265.629708
 10
-1368.086405
 20
-265.770057
 10
-1364.9796
 20
-266.104783
 10
-1364.490149
 20
-266.157443
 10
-1363.953328
 20
-266.214768
 10
-1363.368362
 20
-266.276402
 10
-1362.734485
 20
-266.34199
 10
-1362.050926
 20
-266.411174
 10
-1361.316913
 20
-266.4836
 10
-1360.531677
 20
-266.558911
 10
-1359.694448
 20
-266.636752
 10
-1358.804455
 20
-266.716767
 10
-1357.860929
 20
-266.798599
 10
-1356.8631
 20
-266.881893
 10
-1355.810196
 20
-266.966293
 10
-1354.701449
 20
-267.051443
 10
-1353.536088
 20
-267.136986
 10
-1352.313342
 20
-267.222568
 10
-1351.032442
 20
-267.307833
 10
-1349.692617
 20
-267.392423
 10
-1348.293097
 20
-267.475984
 10
-1346.833113
 20
-267.558159
 10
-1345.311893
 20
-267.638593
 10
-1343.72983
 20
-267.716997
 10
-1342.091963
 20
-267.793349
 10
-1340.404494
 20
-267.867695
 10
-1338.673624
 20
-267.94008
 10
-1336.905555
 20
-268.010551
 10
-1335.106488
 20
-268.079152
 10
-1333.282626
 20
-268.14593
 10
-1331.440167
 20
-268.21093
 10
-1329.585315
 20
-268.274197
 10
-1327.724272
 20
-268.335779
 10
-1325.863237
 20
-268.395718
 10
-1324.008414
 20
-268.454064
 10
-1322.166003
 20
-268.510859
 10
-1320.342207
 20
-268.56615
 10
-1318.543226
 20
-268.619982
 10
-1316.775262
 20
-268.672402
 10
-1315.044516
 20
-268.723456
 10
-1313.35719
 20
-268.773187
 10
-1311.719485
 20
-268.821643
 10
-1310.137604
 20
-268.868868
 10
-1308.616584
 20
-268.914896
 10
-1307.156817
 20
-268.959712
 10
-1305.757529
 20
-269.003289
 10
-1304.417951
 20
-269.045596
 10
-1303.137307
 20
-269.086609
 10
-1301.914829
 20
-269.126299
 10
-1300.749741
 20
-269.164637
 10
-1299.641274
 20
-269.201598
 10
-1298.588655
 20
-269.237152
 10
-1297.591111
 20
-269.271272
 10
-1296.647871
 20
-269.303929
 10
-1295.758162
 20
-269.335098
 10
-1294.921214
 20
-269.364749
 10
-1294.136252
 20
-269.392855
 10
-1293.402506
 20
-269.419389
 10
-1292.719204
 20
-269.444322
 10
-1292.085572
 20
-269.467627
 10
-1291.500839
 20
-269.489276
 10
-1290.964235
 20
-269.509242
 10
-1287.369452
 20
-269.643428
 10
-1284.487534
 20
-270.183528
 10
-1284.034377
 20
-270.268863
 10
-1283.542459
 20
-270.363918
 10
-1283.016249
 20
-270.47031
 10
-1282.460216
 20
-270.589658
 10
-1281.878827
 20
-270.723579
 10
-1281.276551
 20
-270.873692
 10
-1280.657854
 20
-271.041614
 10
-1280.027209
 20
-271.228964
 10
-1279.38908
 20
-271.437358
 10
-1278.747938
 20
-271.668417
 10
-1278.108249
 20
-271.923757
 10
-1277.474483
 20
-272.204997
 10
-1276.851108
 20
-272.513753
 10
-1276.242593
 20
-272.851646
 10
-1275.653404
 20
-273.220292
 10
-1275.088011
 20
-273.621308
 10
-1274.550883
 20
-274.056316
 10
-1274.046486
 20
-274.52693
 10
-1273.57929
 20
-275.034769
 10
-1273.153763
 20
-275.581452
 10
-1272.772864
 20
-276.167622
 10
-1272.433507
 20
-276.790027
 10
-1272.131103
 20
-277.444438
 10
-1271.861054
 20
-278.12663
 10
-1271.61877
 20
-278.832375
 10
-1271.399656
 20
-279.557447
 10
-1271.19912
 20
-280.297618
 10
-1271.012567
 20
-281.048661
 10
-1270.835405
 20
-281.806348
 10
-1270.663041
 20
-282.566454
 10
-1270.490881
 20
-283.324751
 10
-1270.31433
 20
-284.077012
 10
-1270.128798
 20
-284.81901
 10
-1269.929689
 20
-285.546517
 10
-1269.712411
 20
-286.255307
 10
-1269.472371
 20
-286.941153
 10
-1269.204974
 20
-287.599829
 10
-1268.905628
 20
-288.227105
 10
-1268.56974
 20
-288.818757
 10
-1268.192715
 20
-289.370555
 10
-1267.771465
 20
-289.879309
 10
-1267.308913
 20
-290.345963
 10
-1266.809486
 20
-290.772498
 10
-1266.277613
 20
-291.160892
 10
-1265.717721
 20
-291.513126
 10
-1265.134237
 20
-291.83118
 10
-1264.531588
 20
-292.117033
 10
-1263.914204
 20
-292.372665
 10
-1263.286509
 20
-292.600056
 10
-1262.652933
 20
-292.801187
 10
-1262.017903
 20
-292.978034
 10
-1261.385845
 20
-293.132582
 10
-1260.761189
 20
-293.266807
 10
-1260.148362
 20
-293.38269
 10
-1259.551789
 20
-293.48221
 10
-1258.9759
 20
-293.567349
 10
-1258.425122
 20
-293.640084
 10
-1257.903882
 20
-293.702397
 10
-1257.416609
 20
-293.756266
 10
-1254.113007
 20
-294.10257
 10
-1254.11301
 20
-294.102146
 10
-1254.113033
 20
-294.099178
 10
-1254.113094
 20
-294.091123
 10
-1254.113214
 20
-294.075434
 10
-1254.113412
 20
-294.04957
 10
-1254.113708
 20
-294.010986
 10
-1254.114119
 20
-293.957138
 10
-1254.114668
 20
-293.885481
 10
-1254.115372
 20
-293.793473
 10
-1254.116251
 20
-293.678568
 10
-1254.117325
 20
-293.538224
 10
-1254.118614
 20
-293.369895
 10
-1254.120136
 20
-293.171038
 10
-1254.121911
 20
-292.939109
 10
-1254.123958
 20
-292.671564
 10
-1254.126298
 20
-292.365858
 10
-1254.12895
 20
-292.019449
 10
-1254.131932
 20
-291.629792
 10
-1254.135264
 20
-291.194341
 10
-1254.138967
 20
-290.710555
 10
-1254.143048
 20
-290.177161
 10
-1254.147481
 20
-289.597974
 10
-1254.152226
 20
-288.978084
 10
-1254.157243
 20
-288.322576
 10
-1254.162493
 20
-287.636541
 10
-1254.167938
 20
-286.925066
 10
-1254.173539
 20
-286.193239
 10
-1254.179257
 20
-285.446148
 10
-1254.185053
 20
-284.68888
 10
-1254.190887
 20
-283.926524
 10
-1254.196722
 20
-283.164169
 10
-1254.202517
 20
-282.406902
 10
-1254.208235
 20
-281.659811
 10
-1254.213836
 20
-280.927983
 10
-1254.219281
 20
-280.216508
 10
-1254.224531
 20
-279.530473
 10
-1254.229548
 20
-278.874966
 10
-1254.234292
 20
-278.255075
 10
-1254.238724
 20
-277.675889
 10
-1254.242807
 20
-277.142494
 10
-1254.246509
 20
-276.658708
 10
-1254.249843
 20
-276.223258
 10
-1254.252824
 20
-275.8336
 10
-1254.255475
 20
-275.487191
 10
-1254.257815
 20
-275.181486
 10
-1254.259862
 20
-274.91394
 10
-1254.261638
 20
-274.682012
 10
-1254.263159
 20
-274.483154
 10
-1254.264448
 20
-274.314826
 10
-1254.265522
 20
-274.174481
 10
-1254.266401
 20
-274.059577
 10
-1254.267106
 20
-273.967568
 10
-1254.267653
 20
-273.895912
 10
-1254.268066
 20
-273.842063
 10
-1254.268361
 20
-273.803479
 10
-1254.26856
 20
-273.777615
 10
-1254.26868
 20
-273.761928
 10
-1254.268741
 20
-273.753871
 10
-1254.268764
 20
-273.750903
 10
-1254.268767
 20
-273.750479
 10
-1254.270424
 20
-273.53377
 10
-1254.270663
 20
-273.49967
 10
-1254.270792
 20
-273.462509
 10
-1254.270679
 20
-273.422477
 10
-1254.270189
 20
-273.379765
 10
-1254.269187
 20
-273.334563
 10
-1254.267541
 20
-273.28706
 10
-1254.265115
 20
-273.237446
 10
-1254.261777
 20
-273.185912
 10
-1254.257392
 20
-273.132648
 10
-1254.251826
 20
-273.077842
 10
-1254.244946
 20
-273.021687
 10
-1254.236616
 20
-272.96437
 10
-1254.226704
 20
-272.906083
 10
-1254.215074
 20
-272.847016
 10
-1254.201595
 20
-272.787358
 10
-1254.186132
 20
-272.7273
 10
-1254.168549
 20
-272.667032
 10
-1254.148714
 20
-272.606742
 10
-1254.126493
 20
-272.546623
 10
-1254.101751
 20
-272.486863
 10
-1254.074393
 20
-272.427639
 10
-1254.044484
 20
-272.36907
 10
-1254.012125
 20
-272.311264
 10
-1253.977419
 20
-272.254326
 10
-1253.940466
 20
-272.198363
 10
-1253.901369
 20
-272.143481
 10
-1253.860232
 20
-272.089787
 10
-1253.817155
 20
-272.037385
 10
-1253.772241
 20
-271.986383
 10
-1253.725592
 20
-271.936888
 10
-1253.677311
 20
-271.889005
 10
-1253.627499
 20
-271.842841
 10
-1253.576259
 20
-271.798502
 10
-1253.523692
 20
-271.756093
 10
-1253.469902
 20
-271.715722
 10
-1253.41499
 20
-271.677495
 10
-1253.359057
 20
-271.641518
 10
-1253.302208
 20
-271.607897
 10
-1253.244543
 20
-271.57674
 10
-1253.186165
 20
-271.54815
 10
-1253.127191
 20
-271.522195
 10
-1253.067799
 20
-271.498784
 10
-1253.008181
 20
-271.477783
 10
-1252.948529
 20
-271.45906
 10
-1252.889037
 20
-271.442482
 10
-1252.829896
 20
-271.427917
 10
-1252.771301
 20
-271.415232
 10
-1252.713442
 20
-271.404295
 10
-1252.656513
 20
-271.394973
 10
-1252.600705
 20
-271.387135
 10
-1252.546213
 20
-271.380646
 10
-1252.493229
 20
-271.375376
 10
-1252.441943
 20
-271.371192
 10
-1252.392551
 20
-271.367961
 10
-1252.345243
 20
-271.36555
 10
-1252.300214
 20
-271.363827
 10
-1252.257655
 20
-271.362661
 10
-1252.217758
 20
-271.361918
 10
-1252.180716
 20
-271.361465
 10
-1251.930688
 20
-271.359443
 10
-1251.714796
 20
-271.357807
 10
-1251.680825
 20
-271.357572
 10
-1251.643806
 20
-271.357447
 10
-1251.603929
 20
-271.357567
 10
-1251.561384
 20
-271.358069
 10
-1251.516362
 20
-271.359084
 10
-1251.469054
 20
-271.360751
 10
-1251.419648
 20
-271.363202
 10
-1251.368335
 20
-271.366574
 10
-1251.315307
 20
-271.371002
 10
-1251.260752
 20
-271.376618
 10
-1251.204863
 20
-271.38356
 10
-1251.147828
 20
-271.391962
 10
-1251.089837
 20
-271.401959
 10
-1251.031082
 20
-271.413686
 10
-1250.971753
 20
-271.427277
 10
-1250.912038
 20
-271.442868
 10
-1250.85213
 20
-271.460595
 10
-1250.792219
 20
-271.48059
 10
-1250.732494
 20
-271.502991
 10
-1250.673145
 20
-271.52793
 10
-1250.614349
 20
-271.555505
 10
-1250.556224
 20
-271.585652
 10
-1250.498874
 20
-271.618266
 10
-1250.442403
 20
-271.653247
 10
-1250.386915
 20
-271.690489
 10
-1250.332513
 20
-271.72989
 10
-1250.279301
 20
-271.771346
 10
-1250.227385
 20
-271.814755
 10
-1250.176867
 20
-271.860014
 10
-1250.12785
 20
-271.907019
 10
-1250.08044
 20
-271.955668
 10
-1250.03474
 20
-272.005857
 10
-1249.990854
 20
-272.057483
 10
-1249.948886
 20
-272.110442
 10
-1249.90894
 20
-272.164632
 10
-1249.871119
 20
-272.21995
 10
-1249.835528
 20
-272.276293
 10
-1249.802271
 20
-272.333557
 10
-1249.771451
 20
-272.391638
 10
-1249.743172
 20
-272.450436
 10
-1249.7175
 20
-272.50983
 10
-1249.694342
 20
-272.569642
 10
-1249.673568
 20
-272.629679
 10
-1249.655045
 20
-272.689747
 10
-1249.638644
 20
-272.749652
 10
-1249.624233
 20
-272.809201
 10
-1249.611683
 20
-272.868199
 10
-1249.60086
 20
-272.926453
 10
-1249.591636
 20
-272.98377
 10
-1249.583878
 20
-273.039956
 10
-1249.577454
 20
-273.094817
 10
-1249.572236
 20
-273.148159
 10
-1249.568092
 20
-273.199788
 10
-1249.564891
 20
-273.249511
 10
-1249.562501
 20
-273.297135
 10
-1249.560792
 20
-273.342464
 10
-1249.559634
 20
-273.385307
 10
-1249.558894
 20
-273.425469
 10
-1249.558441
 20
-273.462756
 10
-1249.556411
 20
-273.714443
 10
-1249.556408
 20
-273.714868
 10
-1249.556385
 20
-273.717847
 10
-1249.556323
 20
-273.725931
 10
-1249.556204
 20
-273.741673
 10
-1249.556005
 20
-273.767627
 10
-1249.555709
 20
-273.806346
 10
-1249.555297
 20
-273.86038
 10
-1249.554748
 20
-273.932286
 10
-1249.554043
 20
-274.024614
 10
-1249.553162
 20
-274.139917
 10
-1249.552086
 20
-274.28075
 10
-1249.550795
 20
-274.449663
 10
-1249.549272
 20
-274.649211
 10
-1249.547494
 20
-274.881945
 10
-1249.545443
 20
-275.15042
 10
-1249.5431
 20
-275.457187
 10
-1249.540444
 20
-275.8048
 10
-1249.537458
 20
-276.195811
 10
-1249.534121
 20
-276.632774
 10
-1249.530413
 20
-277.11824
 10
-1249.526325
 20
-277.653487
 10
-1249.521885
 20
-278.234685
 10
-1249.517134
 20
-278.85673
 10
-1249.51211
 20
-279.514514
 10
-1249.506852
 20
-280.202932
 10
-1249.501399
 20
-280.916878
 10
-1249.495789
 20
-281.651248
 10
-1249.490063
 20
-282.400934
 10
-1249.484259
 20
-283.160832
 10
-1249.478416
 20
-283.925835
 10
-1249.472573
 20
-284.690839
 10
-1249.466769
 20
-285.450738
 10
-1249.461042
 20
-286.200423
 10
-1249.455433
 20
-286.934793
 10
-1249.44998
 20
-287.648739
 10
-1249.444722
 20
-288.337157
 10
-1249.439697
 20
-288.994941
 10
-1249.434946
 20
-289.616985
 10
-1249.430507
 20
-290.198184
 10
-1249.426419
 20
-290.733431
 10
-1249.422711
 20
-291.218898
 10
-1249.419373
 20
-291.65586
 10
-1249.416387
 20
-292.046872
 10
-1249.413731
 20
-292.394484
 10
-1249.411389
 20
-292.701251
 10
-1249.409339
 20
-292.969726
 10
-1249.407561
 20
-293.202461
 10
-1249.406036
 20
-293.402009
 10
-1249.404746
 20
-293.570922
 10
-1249.40367
 20
-293.711754
 10
-1249.40279
 20
-293.827058
 10
-1249.402085
 20
-293.919385
 10
-1249.401535
 20
-293.991291
 10
-1249.401122
 20
-294.045326
 10
-1249.400826
 20
-294.084044
 10
-1249.400629
 20
-294.109999
 10
-1249.400509
 20
-294.125741
 10
-1249.400447
 20
-294.133825
 10
-1249.400424
 20
-294.136803
 10
-1249.40042
 20
-294.137229
 10
-1246.524325
 20
-293.858013
 10
-1246.072164
 20
-293.813642
 10
-1245.581811
 20
-293.762722
 10
-1245.058213
 20
-293.702888
 10
-1244.506317
 20
-293.63178
 10
-1243.931073
 20
-293.547034
 10
-1243.337429
 20
-293.446287
 10
-1242.730333
 20
-293.32718
 10
-1242.114733
 20
-293.187347
 10
-1241.495577
 20
-293.024428
 10
-1240.877815
 20
-292.83606
 10
-1240.266393
 20
-292.61988
 10
-1239.66626
 20
-292.373528
 10
-1239.082363
 20
-292.094639
 10
-1238.519654
 20
-291.780851
 10
-1237.983077
 20
-291.429803
 10
-1237.477582
 20
-291.039133
 10
-1237.008118
 20
-290.606478
 10
-1236.579632
 20
-290.129474
 10
-1236.197073
 20
-289.605761
 10
-1235.865389
 20
-289.032977
 10
-1235.587718
 20
-288.410022
 10
-1235.35997
 20
-287.740853
 10
-1235.17624
 20
-287.030692
 10
-1235.030627
 20
-286.284759
 10
-1234.917228
 20
-285.508278
 10
-1234.830141
 20
-284.706467
 10
-1234.763464
 20
-283.884548
 10
-1234.711296
 20
-283.047744
 10
-1234.667732
 20
-282.201273
 10
-1234.626874
 20
-281.350358
 10
-1234.582816
 20
-280.50022
 10
-1234.529657
 20
-279.656079
 10
-1234.461496
 20
-278.823157
 10
-1234.372429
 20
-278.006676
 10
-1234.256555
 20
-277.211856
 10
-1234.107972
 20
-276.443917
 10
-1233.920778
 20
-275.708082
 10
-1233.689069
 20
-275.009571
 10
-1233.406945
 20
-274.353607
 10
-1233.068502
 20
-273.745408
 10
-1232.669754
 20
-273.188908
 10
-1232.214375
 20
-272.682877
 10
-1231.70795
 20
-272.224799
 10
-1231.15607
 20
-271.812156
 10
-1230.56432
 20
-271.44243
 10
-1229.938291
 20
-271.113104
 10
-1229.283567
 20
-270.82166
 10
-1228.605741
 20
-270.56558
 10
-1227.910396
 20
-270.342346
 10
-1227.203124
 20
-270.149441
 10
-1226.489511
 20
-269.984348
 10
-1225.775145
 20
-269.844548
 10
-1225.065613
 20
-269.727524
 10
-1224.366505
 20
-269.630758
 10
-1223.683408
 20
-269.551734
 10
-1223.021909
 20
-269.487932
 10
-1222.387598
 20
-269.436836
 10
-1221.78606
 20
-269.395928
 10
-1221.222886
 20
-269.362689
 10
-1217.401092
 20
-269.158947
 10
-1214.232793
 20
-268.996784
 10
-1213.733666
 20
-268.971245
 10
-1213.18629
 20
-268.943284
 10
-1212.589942
 20
-268.912913
 10
-1211.943898
 20
-268.880141
 10
-1211.247435
 20
-268.84498
 10
-1210.499828
 20
-268.807441
 10
-1209.700355
 20
-268.767534
 10
-1208.84829
 20
-268.725269
 10
-1207.942911
 20
-268.680659
 10
-1206.983493
 20
-268.633713
 10
-1205.969313
 20
-268.584443
 10
-1204.899647
 20
-268.532858
 10
-1203.773771
 20
-268.47897
 10
-1202.590962
 20
-268.42279
 10
-1201.350495
 20
-268.364328
 10
-1200.051647
 20
-268.303596
 10
-1198.693695
 20
-268.240603
 10
-1197.275914
 20
-268.175361
 10
-1195.79758
 20
-268.107881
 10
-1194.257969
 20
-268.038173
 10
-1192.657514
 20
-267.966255
 10
-1191.00126
 20
-267.892171
 10
-1189.295409
 20
-267.815972
 10
-1187.546164
 20
-267.737711
 10
-1185.759726
 20
-267.657436
 10
-1183.942297
 20
-267.575203
 10
-1182.100079
 20
-267.491058
 10
-1180.239272
 20
-267.405055
 10
-1178.366081
 20
-267.317245
 10
-1176.486705
 20
-267.22768
 10
-1174.607346
 20
-267.136408
 10
-1172.734208
 20
-267.043484
 10
-1170.873491
 20
-266.948958
 10
-1169.031397
 20
-266.85288
 10
-1167.214127
 20
-266.755302
 10
-1165.427885
 20
-266.656276
 10
-1163.67887
 20
-266.555851
 10
-1161.973286
 20
-266.454081
 10
-1160.317334
 20
-266.351015
 10
-1158.717216
 20
-266.246707
 10
-1157.177977
 20
-266.141254
 10
-1155.700048
 20
-266.034962
 10
-1154.2827
 20
-265.92818
 10
-1152.925204
 20
-265.821261
 10
-1151.626835
 20
-265.714556
 10
-1150.386864
 20
-265.608417
 10
-1149.204566
 20
-265.503197
 10
-1148.079212
 20
-265.399244
 10
-1147.010074
 20
-265.296913
 10
-1145.996426
 20
-265.196556
 10
-1145.03754
 20
-265.098523
 10
-1144.132689
 20
-265.003167
 10
-1143.281146
 20
-264.910839
 10
-1142.482183
 20
-264.82189
 10
-1141.735073
 20
-264.736674
 10
-1141.039088
 20
-264.65554
 10
-1140.393501
 20
-264.578842
 10
-1139.797586
 20
-264.506931
 10
-1139.250615
 20
-264.440157
 10
-1135.585928
 20
-263.989407
 10
-1134.463274
 20
-263.85138
 10
-1134.286712
 20
-263.829648
 10
-1134.094849
 20
-263.805893
 10
-1133.889221
 20
-263.780163
 10
-1133.671365
 20
-263.752504
 10
-1133.44282
 20
-263.722964
 10
-1133.205124
 20
-263.69159
 10
-1132.959813
 20
-263.658429
 10
-1132.708425
 20
-263.623528
 10
-1132.452497
 20
-263.586936
 10
-1132.19357
 20
-263.548699
 10
-1131.933177
 20
-263.508864
 10
-1131.672859
 20
-263.467479
 10
-1131.414151
 20
-263.424591
 10
-1131.158593
 20
-263.380247
 10
-1130.90772
 20
-263.334496
 10
-1130.663072
 20
-263.287382
 10
-1130.426186
 20
-263.238956
 10
-1130.198599
 20
-263.189262
 10
-1129.981848
 20
-263.138349
 10
-1129.777472
 20
-263.086265
 10
-1129.58666
 20
-263.033032
 10
-1129.409214
 20
-262.978577
 10
-1129.244586
 20
-262.922805
 10
-1129.092229
 20
-262.865618
 10
-1128.951597
 20
-262.80692
 10
-1128.822144
 20
-262.746614
 10
-1128.703321
 20
-262.684605
 10
-1128.594583
 20
-262.620794
 10
-1128.495382
 20
-262.555086
 10
-1128.405172
 20
-262.487384
 10
-1128.323406
 20
-262.417591
 10
-1128.249537
 20
-262.345611
 10
-1128.183019
 20
-262.271346
 10
-1128.123304
 20
-262.194702
 10
-1128.069846
 20
-262.11558
 10
-1128.022098
 20
-262.033885
 10
-1127.979513
 20
-261.949519
 10
-1127.941545
 20
-261.862387
 10
-1127.907646
 20
-261.772391
 10
-1127.877269
 20
-261.679435
 10
-1127.849936
 20
-261.583516
 10
-1127.825427
 20
-261.485006
 10
-1127.80359
 20
-261.38437
 10
-1127.784277
 20
-261.282072
 10
-1127.767335
 20
-261.178581
 10
-1127.752613
 20
-261.07436
 10
-1127.739959
 20
-260.969874
 10
-1127.729223
 20
-260.86559
 10
-1127.720253
 20
-260.761973
 10
-1127.712899
 20
-260.659487
 10
-1127.707008
 20
-260.5586
 10
-1127.70243
 20
-260.459775
 10
-1127.699014
 20
-260.363478
 10
-1127.696608
 20
-260.270176
 10
-1127.695061
 20
-260.180332
 10
-1127.694222
 20
-260.094414
 10
-1127.693939
 20
-260.012885
 10
-1127.694062
 20
-259.936211
 10
-1127.69444
 20
-259.864859
 10
-1127.69813
 20
-259.382509
  0
LWPOLYLINE
  5
2C
330
1F
100
AcDbEntity
  8
0
100
AcDbPolyline
 90
      913
 70
   128
 43
0.0
 10
-1021.188716
 20
-405.306535
 10
-1023.063889
 20
-407.287005
 10
-1023.358975
 20
-407.598731
 10
-1023.680661
 20
-407.938978
 10
-1024.027426
 20
-408.306558
 10
-1024.397739
 20
-408.700283
 10
-1024.790078
 20
-409.118968
 10
-1025.202914
 20
-409.561425
 10
-1025.634725
 20
-410.026465
 10
-1026.083983
 20
-410.512905
 10
-1026.549162
 20
-411.019556
 10
-1027.028738
 20
-411.545231
 10
-1027.521184
 20
-412.088743
 10
-1028.024974
 20
-412.648904
 10
-1028.538583
 20
-413.224529
 10
-1029.060485
 20
-413.81443
 10
-1029.589154
 20
-414.41742
 10
-1030.123065
 20
-415.032311
 10
-1030.660691
 20
-415.657918
 10
-1031.200508
 20
-416.293053
 10
-1031.74099
 20
-416.936529
 10
-1032.280609
 20
-417.587159
 10
-1032.818223
 20
-418.24381
 10
-1033.354209
 20
-418.905568
 10
-1033.889332
 20
-419.571572
 10
-1034.424349
 20
-420.240961
 10
-1034.960022
 20
-420.912875
 10
-1035.497113
 20
-421.586455
 10
-1036.036382
 20
-422.260838
 10
-1036.57859
 20
-422.935165
 10
-1037.124498
 20
-423.608574
 10
-1037.674867
 20
-424.280206
 10
-1038.230457
 20
-424.9492
 10
-1038.79203
 20
-425.614696
 10
-1039.360346
 20
-426.275833
 10
-1039.936166
 20
-426.93175
 10
-1040.520251
 20
-427.581588
 10
-1041.113363
 20
-428.224485
 10
-1041.716261
 20
-428.859581
 10
-1042.329708
 20
-429.486016
 10
-1042.954462
 20
-430.10293
 10
-1043.591286
 20
-430.70946
 10
-1044.240385
 20
-431.304781
 10
-1044.899746
 20
-431.8882
 10
-1045.566796
 20
-432.459057
 10
-1046.238965
 20
-433.016694
 10
-1046.913686
 20
-433.560449
 10
-1047.588387
 20
-434.089664
 10
-1048.260497
 20
-434.603681
 10
-1048.927447
 20
-435.101839
 10
-1049.586668
 20
-435.583478
 10
-1050.235588
 20
-436.04794
 10
-1050.871638
 20
-436.494564
 10
-1051.492248
 20
-436.922692
 10
-1052.094847
 20
-437.331665
 10
-1052.676866
 20
-437.720822
 10
-1053.235736
 20
-438.089505
 10
-1053.768883
 20
-438.437053
 10
-1054.27374
 20
-438.762808
 10
-1054.747737
 20
-439.06611
 10
-1055.188303
 20
-439.346299
 10
-1058.164257
 20
-441.231464
 10
-1058.61332
 20
-441.515919
 10
-1058.684092
 20
-441.560669
 10
-1058.76187
 20
-441.609371
 10
-1058.846922
 20
-441.661714
 10
-1058.939517
 20
-441.717382
 10
-1059.039924
 20
-441.776062
 10
-1059.148414
 20
-441.83744
 10
-1059.265253
 20
-441.901204
 10
-1059.390713
 20
-441.967039
 10
-1059.525061
 20
-442.034631
 10
-1059.668568
 20
-442.103666
 10
-1059.821502
 20
-442.173833
 10
-1059.984132
 20
-442.244815
 10
-1060.156727
 20
-442.316301
 10
-1060.339558
 20
-442.387976
 10
-1060.532892
 20
-442.459526
 10
-1060.736999
 20
-442.530638
 10
-1060.952148
 20
-442.600998
 10
-1061.178608
 20
-442.670293
 10
-1061.416648
 20
-442.738208
 10
-1061.666538
 20
-442.804431
 10
-1061.928306
 20
-442.868618
 10
-1062.201015
 20
-442.930313
 10
-1062.483491
 20
-442.98903
 10
-1062.774557
 20
-443.044282
 10
-1063.073037
 20
-443.095584
 10
-1063.377754
 20
-443.14245
 10
-1063.687533
 20
-443.184393
 10
-1064.001197
 20
-443.220929
 10
-1064.31757
 20
-443.25157
 10
-1064.635476
 20
-443.275833
 10
-1064.953738
 20
-443.293228
 10
-1065.271181
 20
-443.303273
 10
-1065.586628
 20
-443.305479
 10
-1065.898904
 20
-443.299361
 10
-1066.206832
 20
-443.284434
 10
-1066.509235
 20
-443.260211
 10
-1066.804937
 20
-443.226207
 10
-1067.092764
 20
-443.181936
 10
-1067.371538
 20
-443.12691
 10
-1067.640083
 20
-443.060646
 10
-1067.89745
 20
-442.982914
 10
-1068.143612
 20
-442.894516
 10
-1068.378764
 20
-442.796512
 10
-1068.603104
 20
-442.689962
 10
-1068.81683
 20
-442.575924
 10
-1069.020139
 20
-442.455458
 10
-1069.213231
 20
-442.329624
 10
-1069.396301
 20
-442.199481
 10
-1069.569549
 20
-442.06609
 10
-1069.733172
 20
-441.930508
 10
-1069.887368
 20
-441.793796
 10
-1070.032334
 20
-441.657015
 10
-1070.168269
 20
-441.521221
 10
-1070.295369
 20
-441.387475
 10
-1070.413834
 20
-441.256839
 10
-1070.52386
 20
-441.130368
 10
-1070.625646
 20
-441.009126
 10
-1070.719389
 20
-440.89417
 10
-1070.805287
 20
-440.786559
 10
-1071.380162
 20
-440.056358
 10
-1071.876726
 20
-439.425363
 10
-1071.954807
 20
-439.325991
 10
-1072.039568
 20
-439.21721
 10
-1072.130243
 20
-439.099076
 10
-1072.226062
 20
-438.971648
 10
-1072.326259
 20
-438.834979
 10
-1072.430066
 20
-438.689128
 10
-1072.536714
 20
-438.53415
 10
-1072.645436
 20
-438.370102
 10
-1072.755464
 20
-438.197039
 10
-1072.866031
 20
-438.01502
 10
-1072.976368
 20
-437.824098
 10
-1073.085708
 20
-437.624331
 10
-1073.193282
 20
-437.415777
 10
-1073.298324
 20
-437.198491
 10
-1073.400066
 20
-436.972528
 10
-1073.497739
 20
-436.737947
 10
-1073.590576
 20
-436.494802
 10
-1073.677808
 20
-436.243151
 10
-1073.75867
 20
-435.983049
 10
-1073.832391
 20
-435.714553
 10
-1073.898299
 20
-435.437889
 10
-1073.956098
 20
-435.153957
 10
-1074.005587
 20
-434.863826
 10
-1074.046561
 20
-434.568566
 10
-1074.078821
 20
-434.269246
 10
-1074.102164
 20
-433.966936
 10
-1074.116387
 20
-433.662703
 10
-1074.12129
 20
-433.35762
 10
-1074.11667
 20
-433.052753
 10
-1074.102325
 20
-432.749175
 10
-1074.078054
 20
-432.447953
 10
-1074.043654
 20
-432.150156
 10
-1073.998922
 20
-431.856854
 10
-1073.94366
 20
-431.569117
 10
-1073.877662
 20
-431.288014
 10
-1073.800728
 20
-431.014615
 10
-1073.712655
 20
-430.749988
 10
-1073.613243
 20
-430.495204
 10
-1073.502288
 20
-430.251331
 10
-1073.379589
 20
-430.019439
 10
-1073.24518
 20
-429.80035
 10
-1073.100045
 20
-429.593896
 10
-1072.945397
 20
-429.399663
 10
-1072.782456
 20
-429.217235
 10
-1072.612438
 20
-429.046199
 10
-1072.436562
 20
-428.886137
 10
-1072.256047
 20
-428.736638
 10
-1072.072107
 20
-428.597283
 10
-1071.885962
 20
-428.46766
 10
-1071.698829
 20
-428.347354
 10
-1071.511926
 20
-428.235947
 10
-1071.32647
 20
-428.133028
 10
-1071.143677
 20
-428.03818
 10
-1070.964767
 20
-427.950988
 10
-1070.790957
 20
-427.871038
 10
-1070.623464
 20
-427.797915
 10
-1070.463505
 20
-427.731203
 10
-1070.312299
 20
-427.670488
 10
-1070.171064
 20
-427.615355
 10
-1069.214019
 20
-427.248584
 10
-1065.780202
 20
-425.933419
 10
-1065.240096
 20
-425.726244
 10
-1064.652804
 20
-425.499118
 10
-1064.022648
 20
-425.251819
 10
-1063.35395
 20
-424.984125
 10
-1062.651031
 20
-424.695813
 10
-1061.918213
 20
-424.386659
 10
-1061.159817
 20
-424.056441
 10
-1060.380165
 20
-423.704936
 10
-1059.583578
 20
-423.331923
 10
-1058.774379
 20
-422.937179
 10
-1057.956888
 20
-422.520479
 10
-1057.135427
 20
-422.081602
 10
-1056.314319
 20
-421.620325
 10
-1055.497883
 20
-421.136425
 10
-1054.690443
 20
-420.629679
 10
-1053.896319
 20
-420.099866
 10
-1053.119834
 20
-419.546762
 10
-1052.365309
 20
-418.970143
 10
-1051.637065
 20
-418.369789
 10
-1050.939424
 20
-417.745475
 10
-1050.275817
 20
-417.097327
 10
-1049.646111
 20
-416.426858
 10
-1049.049285
 20
-415.735929
 10
-1048.484313
 20
-415.026401
 10
-1047.950176
 20
-414.300135
 10
-1047.445847
 20
-413.558991
 10
-1046.970305
 20
-412.80483
 10
-1046.522528
 20
-412.039514
 10
-1046.101492
 20
-411.264902
 10
-1045.706174
 20
-410.482857
 10
-1045.33555
 20
-409.695239
 10
-1044.988599
 20
-408.903909
 10
-1044.664297
 20
-408.110727
 10
-1044.361623
 20
-407.317554
 10
-1044.07955
 20
-406.526252
 10
-1043.817058
 20
-405.738682
 10
-1043.573125
 20
-404.956702
 10
-1043.346724
 20
-404.182177
 10
-1043.136837
 20
-403.416965
 10
-1042.942436
 20
-402.662928
 10
-1042.76257
 20
-401.921764
 10
-1042.596551
 20
-401.194529
 10
-1042.443765
 20
-400.482112
 10
-1042.303591
 20
-399.785407
 10
-1042.175412
 20
-399.105305
 10
-1042.058613
 20
-398.442698
 10
-1041.952574
 20
-397.798479
 10
-1041.856679
 20
-397.173537
 10
-1041.770311
 20
-396.568767
 10
-1041.692851
 20
-395.98506
 10
-1041.623682
 20
-395.423307
 10
-1041.562187
 20
-394.884401
 10
-1041.507749
 20
-394.369233
 10
-1041.459749
 20
-393.878695
 10
-1041.417572
 20
-393.413681
 10
-1041.380597
 20
-392.975079
 10
-1041.348211
 20
-392.563784
 10
-1041.319793
 20
-392.180688
 10
-1041.294728
 20
-391.82668
 10
-1041.131263
 20
-389.444408
 10
-1041.131249
 20
-389.443752
 10
-1041.131143
 20
-389.439154
 10
-1041.130854
 20
-389.426676
 10
-1041.130291
 20
-389.402377
 10
-1041.129364
 20
-389.362315
 10
-1041.127981
 20
-389.302552
 10
-1041.126051
 20
-389.219146
 10
-1041.123483
 20
-389.108156
 10
-1041.120185
 20
-388.965644
 10
-1041.116067
 20
-388.787667
 10
-1041.111036
 20
-388.570286
 10
-1041.105003
 20
-388.30956
 10
-1041.097875
 20
-388.001549
 10
-1041.089562
 20
-387.642311
 10
-1041.079973
 20
-387.227908
 10
-1041.069016
 20
-386.754398
 10
-1041.056599
 20
-386.217841
 10
-1041.042632
 20
-385.614296
 10
-1041.027025
 20
-384.939824
 10
-1041.009685
 20
-384.190482
 10
-1040.990566
 20
-383.364302
 10
-1040.969806
 20
-382.467195
 10
-1040.947588
 20
-381.50704
 10
-1040.924093
 20
-380.491719
 10
-1040.899503
 20
-379.429112
 10
-1040.874002
 20
-378.327102
 10
-1040.847771
 20
-377.193567
 10
-1040.820993
 20
-376.03639
 10
-1040.793851
 20
-374.863451
 10
-1040.766526
 20
-373.682631
 10
-1040.739201
 20
-372.501812
 10
-1040.712058
 20
-371.328872
 10
-1040.68528
 20
-370.171695
 10
-1040.659049
 20
-369.038161
 10
-1040.633548
 20
-367.93615
 10
-1040.608959
 20
-366.873544
 10
-1040.585464
 20
-365.858223
 10
-1040.563246
 20
-364.898068
 10
-1040.542485
 20
-364.00096
 10
-1040.523367
 20
-363.174781
 10
-1040.506027
 20
-362.425439
 10
-1040.490419
 20
-361.750966
 10
-1040.476453
 20
-361.147421
 10
-1040.464036
 20
-360.610865
 10
-1040.453079
 20
-360.137354
 10
-1040.443489
 20
-359.722951
 10
-1040.435176
 20
-359.363714
 10
-1040.428049
 20
-359.055702
 10
-1040.422016
 20
-358.794977
 10
-1040.416986
 20
-358.577595
 10
-1040.412866
 20
-358.399619
 10
-1040.409569
 20
-358.257106
 10
-1040.407001
 20
-358.146117
 10
-1040.405071
 20
-358.062711
 10
-1040.403687
 20
-358.002948
 10
-1040.40276
 20
-357.962886
 10
-1040.402198
 20
-357.938587
 10
-1040.40191
 20
-357.926108
 10
-1040.401803
 20
-357.921511
 10
-1040.401788
 20
-357.920855
 10
-1043.108522
 20
-357.66549
 10
-1043.534491
 20
-357.625273
 10
-1043.999018
 20
-357.581238
 10
-1044.500057
 20
-357.533397
 10
-1045.035562
 20
-357.481765
 10
-1045.603492
 20
-357.426352
 10
-1046.2018
 20
-357.367174
 10
-1046.828442
 20
-357.304241
 10
-1047.481375
 20
-357.237566
 10
-1048.158552
 20
-357.167164
 10
-1048.857931
 20
-357.093044
 10
-1049.577465
 20
-357.015222
 10
-1050.315112
 20
-356.933709
 10
-1051.068827
 20
-356.84852
 10
-1051.836564
 20
-356.759664
 10
-1052.61628
 20
-356.667156
 10
-1053.40593
 20
-356.571009
 10
-1054.203471
 20
-356.471235
 10
-1055.006856
 20
-356.367847
 10
-1055.814043
 20
-356.260858
 10
-1056.622985
 20
-356.15028
 10
-1057.43198
 20
-356.036124
 10
-1058.24069
 20
-355.918391
 10
-1059.049115
 20
-355.797082
 10
-1059.85726
 20
-355.672197
 10
-1060.665124
 20
-355.543732
 10
-1061.472712
 20
-355.411691
 10
-1062.280024
 20
-355.276071
 10
-1063.087065
 20
-355.136871
 10
-1063.893834
 20
-354.994094
 10
-1064.700334
 20
-354.847736
 10
-1065.506567
 20
-354.697798
 10
-1066.312538
 20
-354.54428
 10
-1067.118245
 20
-354.387181
 10
-1067.923693
 20
-354.2265
 10
-1068.728883
 20
-354.062239
 10
-1069.533818
 20
-353.894394
 10
-1070.338499
 20
-353.722968
 10
-1071.142929
 20
-353.547958
 10
-1071.94711
 20
-353.369365
 10
-1072.751044
 20
-353.187188
 10
-1073.5544
 20
-353.001549
 10
-1074.355523
 20
-352.813055
 10
-1075.152417
 20
-352.622433
 10
-1075.943093
 20
-352.430414
 10
-1076.725559
 20
-352.237725
 10
-1077.497825
 20
-352.045096
 10
-1078.2579
 20
-351.853255
 10
-1079.003792
 20
-351.66293
 10
-1079.73351
 20
-351.474853
 10
-1080.445061
 20
-351.289749
 10
-1081.136457
 20
-351.108348
 10
-1081.805705
 20
-350.93138
 10
-1082.450814
 20
-350.759571
 10
-1083.069793
 20
-350.593652
 10
-1083.660651
 20
-350.434352
 10
-1084.221397
 20
-350.282398
 10
-1084.750039
 20
-350.13852
 10
-1085.244587
 20
-350.003446
 10
-1085.703048
 20
-349.877905
 10
-1088.794648
 20
-349.029924
 10
-1089.859264
 20
-348.737868
 10
-1090.026473
 20
-348.691729
 10
-1090.20685
 20
-348.640371
 10
-1090.397594
 20
-348.582952
 10
-1090.595901
 20
-348.518634
 10
-1090.79897
 20
-348.446579
 10
-1091.004001
 20
-348.365945
 10
-1091.208189
 20
-348.275895
 10
-1091.408734
 20
-348.175587
 10
-1091.602836
 20
-348.064184
 10
-1091.787691
 20
-347.940846
 10
-1091.960497
 20
-347.804733
 10
-1092.118454
 20
-347.655006
 10
-1092.258759
 20
-347.490826
 10
-1092.378611
 20
-347.311353
 10
-1092.475208
 20
-347.115749
 10
-1092.545747
 20
-346.903172
 10
-1092.587428
 20
-346.672785
 10
-1092.597449
 20
-346.423747
 10
-1092.573008
 20
-346.155221
 10
-1092.511304
 20
-345.866364
 10
-1092.410459
 20
-345.556871
 10
-1092.272303
 20
-345.228556
 10
-1092.09959
 20
-344.883765
 10
-1091.895073
 20
-344.524845
 10
-1091.661508
 20
-344.154142
 10
-1091.401646
 20
-343.774002
 10
-1091.118244
 20
-343.386773
 10
-1090.814055
 20
-342.9948
 10
-1090.491833
 20
-342.600429
 10
-1090.154331
 20
-342.206008
 10
-1089.804306
 20
-341.813882
 10
-1089.444509
 20
-341.426397
 10
-1089.077695
 20
-341.045901
 10
-1088.706618
 20
-340.674739
 10
-1088.334034
 20
-340.315258
 10
-1087.962695
 20
-339.969805
 10
-1087.595355
 20
-339.640725
 10
-1087.234769
 20
-339.330365
 10
-1086.883689
 20
-339.041071
 10
-1086.544873
 20
-338.77519
 10
-1086.220563
 20
-338.534461
 10
-1085.910973
 20
-338.318193
 10
-1085.615803
 20
-338.125086
 10
-1085.334761
 20
-337.953844
 10
-1085.067547
 20
-337.803166
 10
-1084.813865
 20
-337.671755
 10
-1084.573417
 20
-337.558314
 10
-1084.34591
 20
-337.461542
 10
-1084.131042
 20
-337.380141
 10
-1083.92852
 20
-337.312814
 10
-1083.738046
 20
-337.25826
 10
-1083.559324
 20
-337.215183
 10
-1083.392056
 20
-337.182283
 10
-1083.235946
 20
-337.158264
 10
-1083.090697
 20
-337.141825
 10
-1082.956013
 20
-337.131668
 10
-1082.831596
 20
-337.126496
 10
-1082.717149
 20
-337.125007
 10
-1082.612377
 20
-337.125907
 10
-1081.911615
 20
-337.141891
 10
-1081.909023
 20
-337.14195
 10
-1081.890882
 20
-337.14237
 10
-1081.84164
 20
-337.14351
 10
-1081.745748
 20
-337.145728
 10
-1081.587658
 20
-337.149386
 10
-1081.351816
 20
-337.154843
 10
-1081.022676
 20
-337.162458
 10
-1080.584685
 20
-337.172592
 10
-1080.022295
 20
-337.185603
 10
-1079.319955
 20
-337.201854
 10
-1078.462116
 20
-337.221701
 10
-1077.433227
 20
-337.245507
 10
-1076.217739
 20
-337.273629
 10
-1074.800101
 20
-337.306429
 10
-1073.164764
 20
-337.344266
 10
-1071.296177
 20
-337.387499
 10
-1069.178792
 20
-337.436489
 10
-1066.797057
 20
-337.491594
 10
-1064.135423
 20
-337.553177
 10
-1061.17834
 20
-337.621595
 10
-1057.918032
 20
-337.697028
 10
-1054.377825
 20
-337.778938
 10
-1050.588819
 20
-337.866603
 10
-1046.582114
 20
-337.959306
 10
-1042.388809
 20
-338.056326
 10
-1038.040005
 20
-338.156944
 10
-1033.5668
 20
-338.26044
 10
-1029.000297
 20
-338.366096
 10
-1024.371592
 20
-338.473189
 10
-1019.711789
 20
-338.581002
 10
-1015.051986
 20
-338.688816
 10
-1010.423282
 20
-338.79591
 10
-1005.856778
 20
-338.901564
 10
-1001.383575
 20
-339.005061
 10
-997.03477
 20
-339.105678
 10
-992.841465
 20
-339.202698
 10
-988.83476
 20
-339.295401
 10
-985.045753
 20
-339.383068
 10
-981.505547
 20
-339.464977
 10
-978.245239
 20
-339.540411
 10
-975.288156
 20
-339.608828
 10
-972.626522
 20
-339.67041
 10
-970.244787
 20
-339.725516
 10
-968.127401
 20
-339.774506
 10
-966.258814
 20
-339.817739
 10
-964.623478
 20
-339.855576
 10
-963.20584
 20
-339.888375
 10
-961.990352
 20
-339.916498
 10
-960.961463
 20
-339.940303
 10
-960.103623
 20
-339.960152
 10
-959.401284
 20
-339.976401
 10
-958.838894
 20
-339.989414
 10
-958.400904
 20
-339.999547
 10
-958.071763
 20
-340.007163
 10
-957.835922
 20
-340.012619
 10
-957.67783
 20
-340.016277
 10
-957.581939
 20
-340.018495
 10
-957.532698
 20
-340.019635
 10
-957.514556
 20
-340.020054
 10
-957.511964
 20
-340.020115
 10
-956.906567
 20
-340.034081
 10
-956.811177
 20
-340.0365
 10
-956.70647
 20
-340.040445
 10
-956.592205
 20
-340.047234
 10
-956.468148
 20
-340.058181
 10
-956.334058
 20
-340.074606
 10
-956.189701
 20
-340.097823
 10
-956.034836
 20
-340.129151
 10
-955.869228
 20
-340.169904
 10
-955.692637
 20
-340.221402
 10
-955.504828
 20
-340.284959
 10
-955.305562
 20
-340.361893
 10
-955.094602
 20
-340.45352
 10
-954.871711
 20
-340.561157
 10
-954.63665
 20
-340.686122
 10
-954.389181
 20
-340.82973
 10
-954.129069
 20
-340.993298
 10
-953.856073
 20
-341.178143
 10
-953.569959
 20
-341.385582
 10
-953.270487
 20
-341.616931
 10
-952.957421
 20
-341.873508
 10
-952.631002
 20
-342.155994
 10
-952.293397
 20
-342.462536
 10
-951.947253
 20
-342.790643
 10
-951.595215
 20
-343.137828
 10
-951.239929
 20
-343.501602
 10
-950.884042
 20
-343.879476
 10
-950.530201
 20
-344.268959
 10
-950.181051
 20
-344.667565
 10
-949.839239
 20
-345.072804
 10
-949.507411
 20
-345.482188
 10
-949.188213
 20
-345.893226
 10
-948.884292
 20
-346.303431
 10
-948.598294
 20
-346.710313
 10
-948.332865
 20
-347.111386
 10
-948.090651
 20
-347.504157
 10
-947.874299
 20
-347.88614
 10
-947.686456
 20
-348.254844
 10
-947.529766
 20
-348.607783
 10
-947.406877
 20
-348.942465
 10
-947.320435
 20
-349.256404
 10
-947.272184
 20
-349.547689
 10
-947.260262
 20
-349.816725
 10
-947.281907
 20
-350.0645
 10
-947.334354
 20
-350.291999
 10
-947.414839
 20
-350.500207
 10
-947.520599
 20
-350.69011
 10
-947.64887
 20
-350.862695
 10
-947.79689
 20
-351.018944
 10
-947.961893
 20
-351.159846
 10
-948.141116
 20
-351.286387
 10
-948.331796
 20
-351.39955
 10
-948.531169
 20
-351.500322
 10
-948.736471
 20
-351.589688
 10
-948.94494
 20
-351.668635
 10
-949.153811
 20
-351.738148
 10
-949.360318
 20
-351.799212
 10
-949.561702
 20
-351.852814
 10
-949.755197
 20
-351.899938
 10
-949.93804
 20
-351.941571
 10
-951.186115
 20
-352.213381
 10
-953.910991
 20
-352.806582
 10
-954.339816
 20
-352.899909
 10
-954.807452
 20
-353.001517
 10
-955.311839
 20
-353.110791
 10
-955.850914
 20
-353.227113
 10
-956.422619
 20
-353.349869
 10
-957.024888
 20
-353.47844
 10
-957.655662
 20
-353.612212
 10
-958.312881
 20
-353.750567
 10
-958.994482
 20
-353.89289
 10
-959.698403
 20
-354.038564
 10
-960.422585
 20
-354.186973
 10
-961.164964
 20
-354.337499
 10
-961.923481
 20
-354.489528
 10
-962.696073
 20
-354.642443
 10
-963.480678
 20
-354.795627
 10
-964.275237
 20
-354.948463
 10
-965.077687
 20
-355.100337
 10
-965.885967
 20
-355.250631
 10
-966.698016
 20
-355.398728
 10
-967.511772
 20
-355.544014
 10
-968.325518
 20
-355.685974
 10
-969.138912
 20
-355.824505
 10
-969.951956
 20
-355.95961
 10
-970.764653
 20
-356.091285
 10
-971.577004
 20
-356.219536
 10
-972.389013
 20
-356.34436
 10
-973.200681
 20
-356.465758
 10
-974.012008
 20
-356.583732
 10
-974.823001
 20
-356.69828
 10
-975.633657
 20
-356.809405
 10
-976.443982
 20
-356.917106
 10
-977.253977
 20
-357.021384
 10
-978.063644
 20
-357.122239
 10
-978.872985
 20
-357.219673
 10
-979.682001
 20
-357.313684
 10
-980.490697
 20
-357.404275
 10
-981.299073
 20
-357.491445
 10
-982.107133
 20
-357.575195
 10
-982.914877
 20
-357.655526
 10
-983.722308
 20
-357.732437
 10
-984.529096
 20
-357.805942
 10
-985.333578
 20
-357.876096
 10
-986.133761
 20
-357.942968
 10
-986.927647
 20
-358.006627
 10
-987.713243
 20
-358.067142
 10
-988.488554
 20
-358.124579
 10
-989.251586
 20
-358.179009
 10
-990.000343
 20
-358.230498
 10
-990.73283
 20
-358.279115
 10
-991.447051
 20
-358.324931
 10
-992.141014
 20
-358.368011
 10
-992.812722
 20
-358.408425
 10
-993.46018
 20
-358.446241
 10
-994.081395
 20
-358.481528
 10
-994.67437
 20
-358.514352
 10
-995.237112
 20
-358.544785
 10
-995.767624
 20
-358.572894
 10
-996.263912
 20
-358.598745
 10
-996.723983
 20
-358.62241
 10
-999.826402
 20
-358.780679
 10
-999.826417
 20
-358.781324
 10
-999.826521
 20
-358.785839
 10
-999.826805
 20
-358.798096
 10
-999.827358
 20
-358.821963
 10
-999.828269
 20
-358.861313
 10
-999.829627
 20
-358.920014
 10
-999.831524
 20
-359.001939
 10
-999.834047
 20
-359.110956
 10
-999.837286
 20
-359.250938
 10
-999.841333
 20
-359.425753
 10
-999.846274
 20
-359.639272
 10
-999.852202
 20
-359.895367
 10
-999.859204
 20
-360.197906
 10
-999.867371
 20
-360.550761
 10
-999.876792
 20
-360.957804
 10
-999.887557
 20
-361.422902
 10
-999.899755
 20
-361.949927
 10
-999.913476
 20
-362.54275
 10
-999.928809
 20
-363.205241
 10
-999.945844
 20
-363.94127
 10
-999.964627
 20
-364.752774
 10
-999.985021
 20
-365.633945
 10
-1000.00685
 20
-366.577043
 10
-1000.029932
 20
-367.574327
 10
-1000.054089
 20
-368.618057
 10
-1000.079141
 20
-369.700491
 10
-1000.104911
 20
-370.813889
 10
-1000.131219
 20
-371.950509
 10
-1000.157884
 20
-373.102612
 10
-1000.184728
 20
-374.262454
 10
-1000.211573
 20
-375.422298
 10
-1000.238239
 20
-376.5744
 10
-1000.264546
 20
-377.71102
 10
-1000.290315
 20
-378.824418
 10
-1000.315369
 20
-379.906852
 10
-1000.339526
 20
-380.950582
 10
-1000.362608
 20
-381.947866
 10
-1000.384436
 20
-382.890965
 10
-1000.404831
 20
-383.772136
 10
-1000.423612
 20
-384.583639
 10
-1000.440648
 20
-385.319667
 10
-1000.455982
 20
-385.982159
 10
-1000.469703
 20
-386.574982
 10
-1000.481901
 20
-387.102008
 10
-1000.492665
 20
-387.567106
 10
-1000.502086
 20
-387.974147
 10
-1000.510253
 20
-388.327003
 10
-1000.517255
 20
-388.629543
 10
-1000.523183
 20
-388.885636
 10
-1000.528125
 20
-389.099156
 10
-1000.532171
 20
-389.273972
 10
-1000.535411
 20
-389.413952
 10
-1000.537934
 20
-389.52297
 10
-1000.53983
 20
-389.604894
 10
-1000.541189
 20
-389.663597
 10
-1000.5421
 20
-389.702945
 10
-1000.542652
 20
-389.726814
 10
-1000.542935
 20
-389.73907
 10
-1000.54304
 20
-389.743585
 10
-1000.543055
 20
-389.74423
 10
-1000.528617
 20
-391.809713
 10
-1000.526229
 20
-392.134892
 10
-1000.522939
 20
-392.490244
 10
-1000.51806
 20
-392.874963
 10
-1000.510906
 20
-393.288238
 10
-1000.500793
 20
-393.729265
 10
-1000.487034
 20
-394.19723
 10
-1000.468942
 20
-394.691329
 10
-1000.445833
 20
-395.210754
 10
-1000.41702
 20
-395.754693
 10
-1000.381818
 20
-396.322342
 10
-1000.339541
 20
-396.91289
 10
-1000.289501
 20
-397.52553
 10
-1000.231015
 20
-398.159452
 10
-1000.163395
 20
-398.813851
 10
-1000.085957
 20
-399.487916
 10
-999.998013
 20
-400.18084
 10
-999.898879
 20
-400.891815
 10
-999.787868
 20
-401.620031
 10
-999.664294
 20
-402.364682
 10
-999.527472
 20
-403.124959
 10
-999.376636
 20
-403.899869
 10
-999.210698
 20
-404.687689
 10
-999.028493
 20
-405.486514
 10
-998.828854
 20
-406.294435
 10
-998.610614
 20
-407.109543
 10
-998.372607
 20
-407.929934
 10
-998.113665
 20
-408.7537
 10
-997.832623
 20
-409.578932
 10
-997.528315
 20
-410.403726
 10
-997.199571
 20
-411.226172
 10
-996.845228
 20
-412.044364
 10
-996.464117
 20
-412.856395
 10
-996.055073
 20
-413.660358
 10
-995.616929
 20
-414.454345
 10
-995.148518
 20
-415.23645
 10
-994.648673
 20
-416.004764
 10
-994.116229
 20
-416.757382
 10
-993.550017
 20
-417.492396
 10
-992.948872
 20
-418.207898
 10
-992.311628
 20
-418.901982
 10
-991.638051
 20
-419.573065
 10
-990.931641
 20
-420.220865
 10
-990.196834
 20
-420.845424
 10
-989.438061
 20
-421.446787
 10
-988.65976
 20
-422.024993
 10
-987.866363
 20
-422.580087
 10
-987.062305
 20
-423.112111
 10
-986.25202
 20
-423.621107
 10
-985.439942
 20
-424.107117
 10
-984.630505
 20
-424.570186
 10
-983.828143
 20
-425.010355
 10
-983.037292
 20
-425.427667
 10
-982.262384
 20
-425.822163
 10
-981.507854
 20
-426.193887
 10
-980.778136
 20
-426.542882
 10
-980.077665
 20
-426.86919
 10
-979.410874
 20
-427.172854
 10
-978.782198
 20
-427.453915
 10
-978.196072
 20
-427.712417
 10
-974.229102
 20
-429.44668
 10
-973.417658
 20
-429.801303
 10
-973.290061
 20
-429.857217
 10
-973.151529
 20
-429.918807
 10
-973.003295
 20
-429.986434
 10
-972.846597
 20
-430.060455
 10
-972.682668
 20
-430.141228
 10
-972.512745
 20
-430.229113
 10
-972.338062
 20
-430.324467
 10
-972.159855
 20
-430.427647
 10
-971.979361
 20
-430.539015
 10
-971.797814
 20
-430.658926
 10
-971.616448
 20
-430.78774
 10
-971.436501
 20
-430.925814
 10
-971.259208
 20
-431.073507
 10
-971.085803
 20
-431.231179
 10
-970.917522
 20
-431.399186
 10
-970.755602
 20
-431.577886
 10
-970.601275
 20
-431.767639
 10
-970.45578
 20
-431.968803
 10
-970.32035
 20
-432.181736
 10
-970.196222
 20
-432.406795
 10
-970.084383
 20
-432.644105
 10
-969.984829
 20
-432.892841
 10
-969.897309
 20
-433.151944
 10
-969.821573
 20
-433.420356
 10
-969.757368
 20
-433.697017
 10
-969.704444
 20
-433.980869
 10
-969.66255
 20
-434.270852
 10
-969.631434
 20
-434.565906
 10
-969.610846
 20
-434.864975
 10
-969.600533
 20
-435.166997
 10
-969.600245
 20
-435.470915
 10
-969.609731
 20
-435.775668
 10
-969.628739
 20
-436.080199
 10
-969.657018
 20
-436.383447
 10
-969.694317
 20
-436.684355
 10
-969.740385
 20
-436.981862
 10
-969.794971
 20
-437.274911
 10
-969.857823
 20
-437.562441
 10
-969.928691
 20
-437.843393
 10
-970.007322
 20
-438.11671
 10
-970.09338
 20
-438.381504
 10
-970.186181
 20
-438.637582
 10
-970.284957
 20
-438.884923
 10
-970.388936
 20
-439.123506
 10
-970.49735
 20
-439.353312
 10
-970.609429
 20
-439.574318
 10
-970.724404
 20
-439.786505
 10
-970.841505
 20
-439.989852
 10
-970.959962
 20
-440.184338
 10
-971.079007
 20
-440.369941
 10
-971.197869
 20
-440.546642
 10
-971.315779
 20
-440.71442
 10
-971.431966
 20
-440.873254
 10
-971.545664
 20
-441.023124
 10
-971.656101
 20
-441.164008
 10
-971.762507
 20
-441.295886
 10
-971.864113
 20
-441.418738
 10
-971.96015
 20
-441.532542
 10
-972.049849
 20
-441.637278
 10
-972.657632
 20
-442.34023
 10
-973.182915
 20
-442.947564
 10
-973.265672
 20
-443.04304
 10
-973.356456
 20
-443.146561
 10
-973.455417
 20
-443.257055
 10
-973.562703
 20
-443.373459
 10
-973.678462
 20
-443.494702
 10
-973.802843
 20
-443.619717
 10
-973.935995
 20
-443.747439
 10
-974.078066
 20
-443.876798
 10
-974.229204
 20
-444.006729
 10
-974.389558
 20
-444.136162
 10
-974.559278
 20
-444.264031
 10
-974.738511
 20
-444.389269
 10
-974.927405
 20
-444.510808
 10
-975.12611
 20
-444.62758
 10
-975.334774
 20
-444.738518
 10
-975.553545
 20
-444.842555
 10
-975.782572
 20
-444.938624
 10
-976.022005
 20
-445.025656
 10
-976.27199
 20
-445.102585
 10
-976.532676
 20
-445.168343
 10
-976.803997
 20
-445.22213
 10
-977.085015
 20
-445.264219
 10
-977.374578
 20
-445.295149
 10
-977.671535
 20
-445.315458
 10
-977.974732
 20
-445.325689
 10
-978.283018
 20
-445.326379
 10
-978.595239
 20
-445.318068
 10
-978.910244
 20
-445.301296
 10
-979.22688
 20
-445.276603
 10
-979.543996
 20
-445.244528
 10
-979.860436
 20
-445.205611
 10
-980.175051
 20
-445.160392
 10
-980.486688
 20
-445.109408
 10
-980.794193
 20
-445.053203
 10
-981.096416
 20
-444.992313
 10
-981.392203
 20
-444.92728
 10
-981.680401
 20
-444.858643
 10
-981.959859
 20
-444.786939
 10
-982.229426
 20
-444.712711
 10
-982.487946
 20
-444.636498
 10
-982.734508
 20
-444.558799
 10
-982.969155
 20
-444.479956
 10
-983.192171
 20
-444.400267
 10
-983.40384
 20
-444.320037
 10
-983.604445
 20
-444.239564
 10
-983.794268
 20
-444.15915
 10
-983.973592
 20
-444.079097
 10
-984.142703
 20
-443.999705
 10
-984.301883
 20
-443.921274
 10
-984.451414
 20
-443.844107
 10
-984.59158
 20
-443.768505
 10
-984.722666
 20
-443.694767
 10
-984.844952
 20
-443.623195
 10
-984.958724
 20
-443.554092
 10
-985.064265
 20
-443.487756
 10
-985.161857
 20
-443.424488
 10
-985.251784
 20
-443.364592
 10
-985.33433
 20
-443.308367
 10
-985.409776
 20
-443.256114
 10
-985.913865
 20
-442.903182
 10
-988.407104
 20
-441.157186
 10
-988.799367
 20
-440.882321
 10
-989.226491
 20
-440.582044
 10
-989.685942
 20
-440.257133
 10
-990.17518
 20
-439.908364
 10
-990.691671
 20
-439.536518
 10
-991.232876
 20
-439.142368
 10
-991.796262
 20
-438.726696
 10
-992.379288
 20
-438.290277
 10
-992.979422
 20
-437.83389
 10
-993.594123
 20
-437.358312
 10
-994.220857
 20
-436.864322
 10
-994.857087
 20
-436.352696
 10
-995.500275
 20
-435.824213
 10
-996.147887
 20
-435.27965
 10
-996.797385
 20
-434.719785
 10
-997.446231
 20
-434.145396
 10
-998.09189
 20
-433.55726
 10
-998.731825
 20
-432.956155
 10
-999.3635
 20
-432.342857
 10
-999.984377
 20
-431.718148
 10
-1000.592477
 20
-431.08281
 10
-1001.188041
 20
-430.43766
 10
-1001.771873
 20
-429.783523
 10
-1002.344768
 20
-429.121223
 10
-1002.907529
 20
-428.451585
 10
-1003.460953
 20
-427.775432
 10
-1004.005842
 20
-427.093589
 10
-1004.542995
 20
-426.40688
 10
-1005.073211
 20
-425.716129
 10
-1005.59729
 20
-425.022162
 10
-1006.116031
 20
-424.3258
 10
-1006.630235
 20
-423.627871
 10
-1007.140701
 20
-422.929198
 10
-1007.648228
 20
-422.230604
 10
-1008.153616
 20
-421.532914
 10
-1008.657665
 20
-420.836953
 10
-1009.161175
 20
-420.143544
 10
-1009.664945
 20
-419.453513
 10
-1010.169775
 20
-418.767683
 10
-1010.676464
 20
-418.086879
 10
-1011.185434
 20
-417.411996
 10
-1011.695594
 20
-416.74422
 10
-1012.205475
 20
-416.084807
 10
-1012.713608
 20
-415.435012
 10
-1013.218522
 20
-414.796092
 10
-1013.71875
 20
-414.169303
 10
-1014.212823
 20
-413.555903
 10
-1014.699271
 20
-412.957146
 10
-1015.176624
 20
-412.37429
 10
-1015.643414
 20
-411.80859
 10
-1016.098172
 20
-411.261304
 10
-1016.539429
 20
-410.733686
 10
-1016.965714
 20
-410.226994
 10
-1017.375561
 20
-409.742484
 10
-1017.767498
 20
-409.281411
 10
-1018.140057
 20
-408.845034
 10
-1018.491769
 20
-408.434607
 10
-1018.821164
 20
-408.051387
 10
-1019.126773
 20
-407.69663
 10
-1021.188716
 20
-405.306535
  0
LWPOLYLINE
  5
2D
330
1F
100
AcDbEntity
  8
0
100
AcDbPolyline
 90
      365
 70
   128
 43
0.0
 10
-1020.560189
 20
-376.292957
 10
-1020.776174
 20
-376.287988
 10
-1020.810159
 20
-376.287183
 10
-1020.84719
 20
-376.286175
 10
-1020.88707
 20
-376.284834
 10
-1020.929608
 20
-376.28303
 10
-1020.974606
 20
-376.280633
 10
-1021.021871
 20
-376.277516
 10
-1021.071208
 20
-376.273548
 10
-1021.122424
 20
-376.268601
 10
-1021.175321
 20
-376.262543
 10
-1021.229708
 20
-376.255246
 10
-1021.285388
 20
-376.246581
 10
-1021.342167
 20
-376.23642
 10
-1021.399851
 20
-376.224631
 10
-1021.458244
 20
-376.211086
 10
-1021.517154
 20
-376.195655
 10
-1021.576383
 20
-376.17821
 10
-1021.63574
 20
-376.15862
 10
-1021.695027
 20
-376.136757
 10
-1021.754052
 20
-376.11249
 10
-1021.812619
 20
-376.085691
 10
-1021.870549
 20
-376.05627
 10
-1021.927727
 20
-376.024294
 10
-1021.984051
 20
-375.989871
 10
-1022.039421
 20
-375.953106
 10
-1022.093737
 20
-375.91411
 10
-1022.146898
 20
-375.872987
 10
-1022.198803
 20
-375.829843
 10
-1022.249352
 20
-375.784789
 10
-1022.298445
 20
-375.73793
 10
-1022.34598
 20
-375.689372
 10
-1022.391857
 20
-375.639225
 10
-1022.435976
 20
-375.587593
 10
-1022.478236
 20
-375.534585
 10
-1022.518536
 20
-375.480307
 10
-1022.556777
 20
-375.424867
 10
-1022.592857
 20
-375.368372
 10
-1022.626676
 20
-375.310928
 10
-1022.658133
 20
-375.252644
 10
-1022.687128
 20
-375.193626
 10
-1022.71356
 20
-375.13398
 10
-1022.737368
 20
-375.073829
 10
-1022.758649
 20
-375.013346
 10
-1022.777541
 20
-374.952723
 10
-1022.794182
 20
-374.892145
 10
-1022.808706
 20
-374.831802
 10
-1022.821252
 20
-374.771885
 10
-1022.831955
 20
-374.712579
 10
-1022.840955
 20
-374.654076
 10
-1022.848387
 20
-374.596563
 10
-1022.854387
 20
-374.54023
 10
-1022.859095
 20
-374.485264
 10
-1022.862645
 20
-374.431856
 10
-1022.865176
 20
-374.380193
 10
-1022.866824
 20
-374.330465
 10
-1022.867725
 20
-374.28286
 10
-1022.868018
 20
-374.237568
 10
-1022.867838
 20
-374.194775
 10
-1022.867324
 20
-374.154673
 10
-1022.866612
 20
-374.11745
 10
-1022.860783
 20
-373.866226
 10
-1022.860776
 20
-373.86595
 10
-1022.860732
 20
-373.864018
 10
-1022.860611
 20
-373.858775
 10
-1022.860375
 20
-373.848566
 10
-1022.859986
 20
-373.831734
 10
-1022.859405
 20
-373.806624
 10
-1022.858596
 20
-373.771581
 10
-1022.857518
 20
-373.724947
 10
-1022.856134
 20
-373.665069
 10
-1022.854407
 20
-373.590292
 10
-1022.852296
 20
-373.498958
 10
-1022.849764
 20
-373.389412
 10
-1022.846774
 20
-373.259999
 10
-1022.843286
 20
-373.109063
 10
-1022.839263
 20
-372.934948
 10
-1022.834666
 20
-372.736
 10
-1022.829456
 20
-372.510562
 10
-1022.823596
 20
-372.256978
 10
-1022.817048
 20
-371.973594
 10
-1022.809773
 20
-371.658753
 10
-1022.80175
 20
-371.311628
 10
-1022.79304
 20
-370.934701
 10
-1022.783718
 20
-370.531286
 10
-1022.77386
 20
-370.104692
 10
-1022.763544
 20
-369.658231
 10
-1022.752844
 20
-369.195214
 10
-1022.741838
 20
-368.718951
 10
-1022.730603
 20
-368.232755
 10
-1022.719215
 20
-367.739937
 10
-1022.70775
 20
-367.243807
 10
-1022.696285
 20
-366.747678
 10
-1022.684898
 20
-366.254859
 10
-1022.673663
 20
-365.768664
 10
-1022.662656
 20
-365.292401
 10
-1022.651957
 20
-364.829384
 10
-1022.64164
 20
-364.382922
 10
-1022.631783
 20
-363.956328
 10
-1022.622461
 20
-363.552912
 10
-1022.61375
 20
-363.175986
 10
-1022.605728
 20
-362.828861
 10
-1022.598453
 20
-362.51402
 10
-1022.591904
 20
-362.230636
 10
-1022.586045
 20
-361.977053
 10
-1022.580835
 20
-361.751614
 10
-1022.576238
 20
-361.552666
 10
-1022.572215
 20
-361.378551
 10
-1022.568727
 20
-361.227615
 10
-1022.565736
 20
-361.098202
 10
-1022.563204
 20
-360.988656
 10
-1022.561094
 20
-360.897322
 10
-1022.559366
 20
-360.822544
 10
-1022.557983
 20
-360.762666
 10
-1022.556905
 20
-360.716033
 10
-1022.556095
 20
-360.68099
 10
-1022.555515
 20
-360.65588
 10
-1022.555126
 20
-360.639048
 10
-1022.55489
 20
-360.628838
 10
-1022.554769
 20
-360.623596
 10
-1022.554724
 20
-360.621664
 10
-1022.554718
 20
-360.621388
 10
-1022.549691
 20
-360.404292
 10
-1022.548878
 20
-360.370132
 10
-1022.547861
 20
-360.33291
 10
-1022.546513
 20
-360.292822
 10
-1022.544706
 20
-360.250062
 10
-1022.542311
 20
-360.204827
 10
-1022.5392
 20
-360.157309
 10
-1022.535246
 20
-360.107705
 10
-1022.53032
 20
-360.05621
 10
-1022.524294
 20
-360.003017
 10
-1022.51704
 20
-359.948325
 10
-1022.508431
 20
-359.892325
 10
-1022.498337
 20
-359.835214
 10
-1022.486632
 20
-359.777186
 10
-1022.473187
 20
-359.718437
 10
-1022.457874
 20
-359.659161
 10
-1022.440564
 20
-359.599553
 10
-1022.421131
 20
-359.53981
 10
-1022.399445
 20
-359.480125
 10
-1022.375379
 20
-359.420693
 10
-1022.348805
 20
-359.361711
 10
-1022.319634
 20
-359.303355
 10
-1022.287931
 20
-359.245746
 10
-1022.253804
 20
-359.188984
 10
-1022.217355
 20
-359.133173
 10
-1022.178694
 20
-359.078414
 10
-1022.137922
 20
-359.02481
 10
-1022.095147
 20
-358.972462
 10
-1022.050474
 20
-358.921474
 10
-1022.004006
 20
-358.871947
 10
-1021.955853
 20
-358.823984
 10
-1021.906117
 20
-358.777685
 10
-1021.854905
 20
-358.733156
 10
-1021.802322
 20
-358.690496
 10
-1021.748473
 20
-358.649808
 10
-1021.693463
 20
-358.611196
 10
-1021.637399
 20
-358.57476
 10
-1021.580386
 20
-358.540603
 10
-1021.522529
 20
-358.508828
 10
-1021.463932
 20
-358.479535
 10
-1021.404704
 20
-358.452829
 10
-1021.344961
 20
-358.42877
 10
-1021.284879
 20
-358.407261
 10
-1021.224646
 20
-358.388163
 10
-1021.16445
 20
-358.371339
 10
-1021.10448
 20
-358.356651
 10
-1021.044924
 20
-358.34396
 10
-1020.985972
 20
-358.333128
 10
-1020.927808
 20
-358.324017
 10
-1020.870624
 20
-358.316488
 10
-1020.814609
 20
-358.310404
 10
-1020.759949
 20
-358.305627
 10
-1020.706833
 20
-358.302017
 10
-1020.655449
 20
-358.299439
 10
-1020.605987
 20
-358.297752
 10
-1020.558634
 20
-358.29682
 10
-1020.513579
 20
-358.296502
 10
-1020.471008
 20
-358.296663
 10
-1020.431114
 20
-358.297162
 10
-1020.394081
 20
-358.297863
 10
-1020.144143
 20
-358.303626
 10
-1019.928216
 20
-358.308654
 10
-1019.894239
 20
-358.309468
 10
-1019.857218
 20
-358.310486
 10
-1019.817348
 20
-358.311836
 10
-1019.774822
 20
-358.313649
 10
-1019.729835
 20
-358.316055
 10
-1019.682582
 20
-358.319179
 10
-1019.633257
 20
-358.323153
 10
-1019.582054
 20
-358.328104
 10
-1019.529169
 20
-358.334163
 10
-1019.474795
 20
-358.341458
 10
-1019.419126
 20
-358.350117
 10
-1019.362359
 20
-358.36027
 10
-1019.304686
 20
-358.372046
 10
-1019.246303
 20
-358.385574
 10
-1019.187404
 20
-358.400983
 10
-1019.128182
 20
-358.4184
 10
-1019.068836
 20
-358.437957
 10
-1019.009555
 20
-358.459781
 10
-1018.950537
 20
-358.484
 10
-1018.891975
 20
-358.510746
 10
-1018.834048
 20
-358.540107
 10
-1018.776874
 20
-358.572016
 10
-1018.72055
 20
-358.606366
 10
-1018.66518
 20
-358.643053
 10
-1018.610864
 20
-358.68197
 10
-1018.557702
 20
-358.723011
 10
-1018.505793
 20
-358.766068
 10
-1018.455241
 20
-358.811038
 10
-1018.406144
 20
-358.857812
 10
-1018.358604
 20
-358.906287
 10
-1018.312721
 20
-358.956354
 10
-1018.268596
 20
-359.007908
 10
-1018.226329
 20
-359.060843
 10
-1018.186021
 20
-359.115053
 10
-1018.147773
 20
-359.170431
 10
-1018.111685
 20
-359.226873
 10
-1018.077858
 20
-359.284271
 10
-1018.046392
 20
-359.342518
 10
-1018.017389
 20
-359.401511
 10
-1017.990948
 20
-359.461142
 10
-1017.967131
 20
-359.52129
 10
-1017.945841
 20
-359.58178
 10
-1017.926939
 20
-359.642424
 10
-1017.910292
 20
-359.703031
 10
-1017.895758
 20
-359.76341
 10
-1017.883204
 20
-359.823374
 10
-1017.872492
 20
-359.88273
 10
-1017.863484
 20
-359.941292
 10
-1017.856045
 20
-359.998868
 10
-1017.850036
 20
-360.055269
 10
-1017.84532
 20
-360.110304
 10
-1017.841763
 20
-360.163785
 10
-1017.839225
 20
-360.215522
 10
-1017.837571
 20
-360.265326
 10
-1017.836663
 20
-360.313005
 10
-1017.836363
 20
-360.358371
 10
-1017.836537
 20
-360.401235
 10
-1017.837045
 20
-360.441405
 10
-1017.837753
 20
-360.478694
 10
-1017.843548
 20
-360.730357
 10
-1017.843553
 20
-360.730633
 10
-1017.843599
 20
-360.732565
 10
-1017.84372
 20
-360.737808
 10
-1017.843957
 20
-360.748017
 10
-1017.844345
 20
-360.76485
 10
-1017.844927
 20
-360.789961
 10
-1017.845737
 20
-360.825006
 10
-1017.846816
 20
-360.871639
 10
-1017.848202
 20
-360.931519
 10
-1017.849931
 20
-361.006298
 10
-1017.852044
 20
-361.097636
 10
-1017.854578
 20
-361.207184
 10
-1017.857572
 20
-361.3366
 10
-1017.861064
 20
-361.487541
 10
-1017.865093
 20
-361.661659
 10
-1017.869695
 20
-361.860613
 10
-1017.87491
 20
-362.086057
 10
-1017.880778
 20
-362.339647
 10
-1017.887334
 20
-362.623039
 10
-1017.894617
 20
-362.937889
 10
-1017.902648
 20
-363.285023
 10
-1017.911368
 20
-363.661959
 10
-1017.920701
 20
-364.065386
 10
-1017.93057
 20
-364.491991
 10
-1017.940898
 20
-364.938464
 10
-1017.95161
 20
-365.401494
 10
-1017.962628
 20
-365.877769
 10
-1017.973876
 20
-366.363978
 10
-1017.985278
 20
-366.856808
 10
-1017.996755
 20
-367.352952
 10
-1018.008233
 20
-367.849095
 10
-1018.019635
 20
-368.341925
 10
-1018.030883
 20
-368.828134
 10
-1018.041901
 20
-369.304409
 10
-1018.052612
 20
-369.767439
 10
-1018.062941
 20
-370.213912
 10
-1018.072811
 20
-370.640518
 10
-1018.082143
 20
-371.043944
 10
-1018.090864
 20
-371.42088
 10
-1018.098894
 20
-371.768015
 10
-1018.106177
 20
-372.082864
 10
-1018.112733
 20
-372.366256
 10
-1018.118601
 20
-372.619846
 10
-1018.123816
 20
-372.84529
 10
-1018.128418
 20
-373.044244
 10
-1018.132446
 20
-373.218362
 10
-1018.135938
 20
-373.369303
 10
-1018.138933
 20
-373.498719
 10
-1018.141467
 20
-373.608268
 10
-1018.143579
 20
-373.699605
 10
-1018.14531
 20
-373.774385
 10
-1018.146695
 20
-373.834264
 10
-1018.147774
 20
-373.880898
 10
-1018.148585
 20
-373.915943
 10
-1018.149165
 20
-373.941053
 10
-1018.149554
 20
-373.957886
 10
-1018.149791
 20
-373.968095
 10
-1018.149912
 20
-373.973339
 10
-1018.149957
 20
-373.975271
 10
-1018.149963
 20
-373.975546
 10
-1018.15499
 20
-374.192994
 10
-1018.155802
 20
-374.227209
 10
-1018.156819
 20
-374.26449
 10
-1018.158167
 20
-374.30464
 10
-1018.159974
 20
-374.347467
 10
-1018.162369
 20
-374.39277
 10
-1018.165481
 20
-374.440357
 10
-1018.169436
 20
-374.490031
 10
-1018.174362
 20
-374.541596
 10
-1018.180388
 20
-374.594855
 10
-1018.187643
 20
-374.649614
 10
-1018.196253
 20
-374.705677
 10
-1018.206349
 20
-374.762848
 10
-1018.218055
 20
-374.820931
 10
-1018.231503
 20
-374.87973
 10
-1018.246819
 20
-374.939049
 10
-1018.26413
 20
-374.998693
 10
-1018.283567
 20
-375.058465
 10
-1018.305255
 20
-375.118171
 10
-1018.329325
 20
-375.177614
 10
-1018.355903
 20
-375.236598
 10
-1018.385079
 20
-375.294943
 10
-1018.416787
 20
-375.352533
 10
-1018.45092
 20
-375.409265
 10
-1018.487373
 20
-375.465038
 10
-1018.52604
 20
-375.519752
 10
-1018.566817
 20
-375.573304
 10
-1018.609598
 20
-375.625593
 10
-1018.654275
 20
-375.676517
 10
-1018.700746
 20
-375.725976
 10
-1018.748903
 20
-375.773868
 10
-1018.798642
 20
-375.820091
 10
-1018.849857
 20
-375.864544
 10
-1018.902442
 20
-375.907126
 10
-1018.956291
 20
-375.947736
 10
-1019.011299
 20
-375.98627
 10
-1019.067361
 20
-376.022629
 10
-1019.124372
 20
-376.056711
 10
-1019.182224
 20
-376.088415
 10
-1019.240814
 20
-376.117639
 10
-1019.300035
 20
-376.144281
 10
-1019.359769
 20
-376.168282
 10
-1019.41984
 20
-376.189736
 10
-1019.48006
 20
-376.208785
 10
-1019.540241
 20
-376.225564
 10
-1019.600197
 20
-376.240212
 10
-1019.659737
 20
-376.252867
 10
-1019.718672
 20
-376.263667
 10
-1019.776817
 20
-376.27275
 10
-1019.833984
 20
-376.280252
 10
-1019.889981
 20
-376.286314
 10
-1019.944622
 20
-376.291072
 10
-1019.997719
 20
-376.294664
 10
-1020.049084
 20
-376.297229
 10
-1020.098528
 20
-376.298904
 10
-1020.145863
 20
-376.299826
 10
-1020.190902
 20
-376.300135
 10
-1020.233455
 20
-376.299966
 10
-1020.273333
 20
-376.299461
 10
-1020.310352
 20
-376.298754
 10
-1020.560189
 20
-376.292957
  0
LWPOLYLINE
  5
2E
330
1F
100
AcDbEntity
  8
0
100
AcDbPolyline
 90
      241
 70
   128
 43
0.0
 10
-1016.90291
 20
-399.157437
 10
-1016.902993
 20
-399.157085
 10
-1016.90357
 20
-399.154612
 10
-1016.905138
 20
-399.147902
 10
-1016.908192
 20
-399.134834
 10
-1016.913226
 20
-399.11329
 10
-1016.920737
 20
-399.081151
 10
-1016.931218
 20
-399.036297
 10
-1016.945165
 20
-398.97661
 10
-1016.963074
 20
-398.899969
 10
-1016.985439
 20
-398.804258
 10
-1017.012756
 20
-398.687356
 10
-1017.04552
 20
-398.547144
 10
-1017.084226
 20
-398.381503
 10
-1017.12937
 20
-398.188314
 10
-1017.181445
 20
-397.965457
 10
-1017.240948
 20
-397.710815
 10
-1017.308374
 20
-397.422268
 10
-1017.384219
 20
-397.097696
 10
-1017.468975
 20
-396.734981
 10
-1017.563142
 20
-396.332004
 10
-1017.666963
 20
-395.887704
 10
-1017.779697
 20
-395.405261
 10
-1017.900354
 20
-394.888913
 10
-1018.027944
 20
-394.342898
 10
-1018.161476
 20
-393.771454
 10
-1018.299959
 20
-393.178819
 10
-1018.442404
 20
-392.569232
 10
-1018.58782
 20
-391.94693
 10
-1018.735217
 20
-391.316153
 10
-1018.883604
 20
-390.681136
 10
-1019.031991
 20
-390.04612
 10
-1019.179387
 20
-389.415342
 10
-1019.324803
 20
-388.79304
 10
-1019.467248
 20
-388.183453
 10
-1019.605731
 20
-387.590818
 10
-1019.739263
 20
-387.019375
 10
-1019.866853
 20
-386.473359
 10
-1019.98751
 20
-385.957011
 10
-1020.100244
 20
-385.474568
 10
-1020.204066
 20
-385.030269
 10
-1020.298231
 20
-384.627291
 10
-1020.382989
 20
-384.264577
 10
-1020.458833
 20
-383.940005
 10
-1020.526259
 20
-383.651457
 10
-1020.585762
 20
-383.396815
 10
-1020.637838
 20
-383.173959
 10
-1020.682981
 20
-382.98077
 10
-1020.721687
 20
-382.815129
 10
-1020.754451
 20
-382.674917
 10
-1020.781768
 20
-382.558014
 10
-1020.804134
 20
-382.462302
 10
-1020.822042
 20
-382.385663
 10
-1020.83599
 20
-382.325976
 10
-1020.846471
 20
-382.281122
 10
-1020.853981
 20
-382.248982
 10
-1020.859015
 20
-382.227438
 10
-1020.862069
 20
-382.214371
 10
-1020.863637
 20
-382.20766
 10
-1020.864215
 20
-382.205188
 10
-1020.864297
 20
-382.204835
 10
-1020.864391
 20
-382.205182
 10
-1020.86505
 20
-382.207606
 10
-1020.866839
 20
-382.21419
 10
-1020.870321
 20
-382.227009
 10
-1020.876064
 20
-382.248143
 10
-1020.88463
 20
-382.279672
 10
-1020.896585
 20
-382.323672
 10
-1020.912493
 20
-382.382224
 10
-1020.93292
 20
-382.457407
 10
-1020.958431
 20
-382.551298
 10
-1020.989589
 20
-382.665977
 10
-1021.02696
 20
-382.803523
 10
-1021.071109
 20
-382.966014
 10
-1021.1226
 20
-383.15553
 10
-1021.181998
 20
-383.374147
 10
-1021.249869
 20
-383.623947
 10
-1021.326776
 20
-383.907008
 10
-1021.413285
 20
-384.225407
 10
-1021.50996
 20
-384.581224
 10
-1021.617367
 20
-384.976539
 10
-1021.735787
 20
-385.412389
 10
-1021.864374
 20
-385.885657
 10
-1022.001996
 20
-386.392186
 10
-1022.147527
 20
-386.927818
 10
-1022.299836
 20
-387.488394
 10
-1022.457792
 20
-388.069759
 10
-1022.620267
 20
-388.667754
 10
-1022.78613
 20
-389.278222
 10
-1022.954253
 20
-389.897005
 10
-1023.123506
 20
-390.519945
 10
-1023.292758
 20
-391.142886
 10
-1023.46088
 20
-391.761668
 10
-1023.626744
 20
-392.372136
 10
-1023.789218
 20
-392.970131
 10
-1023.947175
 20
-393.551496
 10
-1024.099484
 20
-394.112073
 10
-1024.245014
 20
-394.647704
 10
-1024.382637
 20
-395.154233
 10
-1024.511224
 20
-395.627501
 10
-1024.629644
 20
-396.063351
 10
-1024.737051
 20
-396.458666
 10
-1024.833726
 20
-396.814483
 10
-1024.920235
 20
-397.132883
 10
-1024.997142
 20
-397.415943
 10
-1025.065012
 20
-397.665743
 10
-1025.124411
 20
-397.884361
 10
-1025.175902
 20
-398.073876
 10
-1025.220051
 20
-398.236367
 10
-1025.257422
 20
-398.373913
 10
-1025.28858
 20
-398.488592
 10
-1025.31409
 20
-398.582484
 10
-1025.334517
 20
-398.657666
 10
-1025.350426
 20
-398.716218
 10
-1025.36238
 20
-398.760219
 10
-1025.370947
 20
-398.791747
 10
-1025.376689
 20
-398.812881
 10
-1025.380171
 20
-398.825701
 10
-1025.381961
 20
-398.832283
 10
-1025.382619
 20
-398.834709
 10
-1025.382713
 20
-398.835055
 10
-1025.382624
 20
-398.835114
 10
-1025.382
 20
-398.835528
 10
-1025.380307
 20
-398.836652
 10
-1025.377009
 20
-398.838839
 10
-1025.371572
 20
-398.842446
 10
-1025.36346
 20
-398.847828
 10
-1025.35214
 20
-398.855337
 10
-1025.337076
 20
-398.865331
 10
-1025.317734
 20
-398.878163
 10
-1025.293578
 20
-398.894188
 10
-1025.264075
 20
-398.913761
 10
-1025.228687
 20
-398.937237
 10
-1025.186883
 20
-398.964971
 10
-1025.138126
 20
-398.997317
 10
-1025.081882
 20
-399.03463
 10
-1025.017615
 20
-399.077265
 10
-1024.944792
 20
-399.125577
 10
-1024.862876
 20
-399.17992
 10
-1024.771334
 20
-399.24065
 10
-1024.669631
 20
-399.308121
 10
-1024.557498
 20
-399.382511
 10
-1024.43574
 20
-399.463286
 10
-1024.305423
 20
-399.549739
 10
-1024.167621
 20
-399.64116
 10
-1024.0234
 20
-399.736837
 10
-1023.87383
 20
-399.836063
 10
-1023.719983
 20
-399.938127
 10
-1023.562926
 20
-400.04232
 10
-1023.403731
 20
-400.147932
 10
-1023.243466
 20
-400.254253
 10
-1023.0832
 20
-400.360574
 10
-1022.924004
 20
-400.466186
 10
-1022.766948
 20
-400.57038
 10
-1022.6131
 20
-400.672443
 10
-1022.463531
 20
-400.771669
 10
-1022.31931
 20
-400.867346
 10
-1022.181507
 20
-400.958766
 10
-1022.051191
 20
-401.045219
 10
-1021.929433
 20
-401.125995
 10
-1021.8173
 20
-401.200385
 10
-1021.715597
 20
-401.267856
 10
-1021.624055
 20
-401.328586
 10
-1021.542139
 20
-401.382929
 10
-1021.469316
 20
-401.431241
 10
-1021.405049
 20
-401.473877
 10
-1021.348805
 20
-401.51119
 10
-1021.300048
 20
-401.543535
 10
-1021.258243
 20
-401.571268
 10
-1021.222856
 20
-401.594745
 10
-1021.193352
 20
-401.614318
 10
-1021.169197
 20
-401.630343
 10
-1021.149854
 20
-401.643175
 10
-1021.134791
 20
-401.653169
 10
-1021.123471
 20
-401.660679
 10
-1021.115359
 20
-401.66606
 10
-1021.109921
 20
-401.669667
 10
-1021.106624
 20
-401.671855
 10
-1021.104931
 20
-401.672978
 10
-1021.104307
 20
-401.673392
 10
-1021.104218
 20
-401.673451
 10
-1021.10413
 20
-401.673399
 10
-1021.103517
 20
-401.673032
 10
-1021.101854
 20
-401.672036
 10
-1021.098616
 20
-401.670097
 10
-1021.093276
 20
-401.666899
 10
-1021.085311
 20
-401.662129
 10
-1021.074195
 20
-401.655472
 10
-1021.059403
 20
-401.646613
 10
-1021.040409
 20
-401.635239
 10
-1021.01669
 20
-401.621034
 10
-1020.987718
 20
-401.603684
 10
-1020.95297
 20
-401.582875
 10
-1020.91192
 20
-401.558291
 10
-1020.864042
 20
-401.529619
 10
-1020.808813
 20
-401.496543
 10
-1020.745706
 20
-401.458751
 10
-1020.674196
 20
-401.415926
 10
-1020.593759
 20
-401.367755
 10
-1020.503868
 20
-401.313923
 10
-1020.404
 20
-401.254115
 10
-1020.29389
 20
-401.188175
 10
-1020.174327
 20
-401.116574
 10
-1020.046363
 20
-401.03994
 10
-1019.911046
 20
-400.958903
 10
-1019.769427
 20
-400.874092
 10
-1019.622556
 20
-400.786137
 10
-1019.471485
 20
-400.695665
 10
-1019.317261
 20
-400.603307
 10
-1019.160938
 20
-400.50969
 10
-1019.003564
 20
-400.415445
 10
-1018.84619
 20
-400.321199
 10
-1018.689866
 20
-400.227582
 10
-1018.535643
 20
-400.135223
 10
-1018.384571
 20
-400.044751
 10
-1018.2377
 20
-399.956796
 10
-1018.096081
 20
-399.871985
 10
-1017.960765
 20
-399.790949
 10
-1017.832799
 20
-399.714316
 10
-1017.713237
 20
-399.642713
 10
-1017.603128
 20
-399.576773
 10
-1017.503259
 20
-399.516965
 10
-1017.413369
 20
-399.463133
 10
-1017.332931
 20
-399.414962
 10
-1017.261421
 20
-399.372137
 10
-1017.198314
 20
-399.334345
 10
-1017.143085
 20
-399.301269
 10
-1017.095208
 20
-399.272597
 10
-1017.054157
 20
-399.248014
 10
-1017.019409
 20
-399.227204
 10
-1016.990437
 20
-399.209855
 10
-1016.966718
 20
-399.195649
 10
-1016.947724
 20
-399.184275
 10
-1016.932932
 20
-399.175417
 10
-1016.921816
 20
-399.168759
 10
-1016.913851
 20
-399.163989
 10
-1016.908512
 20
-399.160792
 10
-1016.905273
 20
-399.158852
 10
-1016.903611
 20
-399.157857
 10
-1016.902997
 20
-399.15749
 10
-1016.90291
 20
-399.157437
  0
LWPOLYLINE
  5
2F
330
1F
100
AcDbEntity
  8
0
100
AcDbPolyline
 90
      913
 70
   128
 43
0.0
 10
-1031.853245
 20
-226.140641
 10
-1030.142958
 20
-224.01618
 10
-1029.873825
 20
-223.681794
 10
-1029.580464
 20
-223.316848
 10
-1029.2643
 20
-222.922645
 10
-1028.926758
 20
-222.500493
 10
-1028.569263
 20
-222.051695
 10
-1028.193244
 20
-221.577559
 10
-1027.800123
 20
-221.079387
 10
-1027.391327
 20
-220.558489
 10
-1026.968282
 20
-220.016166
 10
-1026.532412
 20
-219.453726
 10
-1026.085145
 20
-218.872474
 10
-1025.627905
 20
-218.273716
 10
-1025.162118
 20
-217.658758
 10
-1024.689209
 20
-217.028904
 10
-1024.210605
 20
-216.385459
 10
-1023.72773
 20
-215.729731
 10
-1023.242011
 20
-215.063025
 10
-1022.754872
 20
-214.386643
 10
-1022.267741
 20
-213.701895
 10
-1021.782042
 20
-213.010084
 10
-1021.298824
 20
-212.312432
 10
-1020.817637
 20
-211.609819
 10
-1020.337653
 20
-210.903043
 10
-1019.858045
 20
-210.1929
 10
-1019.377985
 20
-209.480187
 10
-1018.896647
 20
-208.765702
 10
-1018.413201
 20
-208.05024
 10
-1017.926822
 20
-207.334597
 10
-1017.436681
 20
-206.619572
 10
-1016.941952
 20
-205.905961
 10
-1016.441807
 20
-205.19456
 10
-1015.935418
 20
-204.486166
 10
-1015.421959
 20
-203.781576
 10
-1014.900602
 20
-203.081587
 10
-1014.370519
 20
-202.386995
 10
-1013.830883
 20
-201.698597
 10
-1013.280867
 20
-201.01719
 10
-1012.719644
 20
-200.34357
 10
-1012.146385
 20
-199.678534
 10
-1011.560264
 20
-199.02288
 10
-1010.961009
 20
-198.377415
 10
-1010.350574
 20
-197.74299
 10
-1009.731466
 20
-197.12047
 10
-1009.106194
 20
-196.510718
 10
-1008.477269
 20
-195.914597
 10
-1007.847196
 20
-195.332972
 10
-1007.218488
 20
-194.766705
 10
-1006.593651
 20
-194.216658
 10
-1005.975196
 20
-193.683698
 10
-1005.365629
 20
-193.168685
 10
-1004.767461
 20
-192.672485
 10
-1004.1832
 20
-192.19596
 10
-1003.615355
 20
-191.739973
 10
-1003.066434
 20
-191.305389
 10
-1002.538946
 20
-190.89307
 10
-1002.035402
 20
-190.50388
 10
-1001.558308
 20
-190.138682
 10
-1001.110174
 20
-189.798341
 10
-1000.693508
 20
-189.483718
 10
-997.878402
 20
-187.365942
 10
-997.453553
 20
-187.04641
 10
-997.386591
 20
-186.996132
 10
-997.312963
 20
-186.941352
 10
-997.232375
 20
-186.882362
 10
-997.144535
 20
-186.819452
 10
-997.049148
 20
-186.752913
 10
-996.945922
 20
-186.683035
 10
-996.834564
 20
-186.610111
 10
-996.714779
 20
-186.534431
 10
-996.586276
 20
-186.456288
 10
-996.448759
 20
-186.37597
 10
-996.301937
 20
-186.29377
 10
-996.145516
 20
-186.209977
 10
-995.979201
 20
-186.124885
 10
-995.8027
 20
-186.038783
 10
-995.615722
 20
-185.951962
 10
-995.417968
 20
-185.864714
 10
-995.209151
 20
-185.77733
 10
-994.988974
 20
-185.6901
 10
-994.757144
 20
-185.603316
 10
-994.513368
 20
-185.517268
 10
-994.257591
 20
-185.432297
 10
-993.990708
 20
-185.348932
 10
-993.713852
 20
-185.267752
 10
-993.428158
 20
-185.189336
 10
-993.134757
 20
-185.114262
 10
-992.834784
 20
-185.043108
 10
-992.529372
 20
-184.976456
 10
-992.219653
 20
-184.914882
 10
-991.906763
 20
-184.858964
 10
-991.591834
 20
-184.809284
 10
-991.275998
 20
-184.766417
 10
-990.96039
 20
-184.730944
 10
-990.646143
 20
-184.703442
 10
-990.33439
 20
-184.684491
 10
-990.026265
 20
-184.67467
 10
-989.722901
 20
-184.674556
 10
-989.425431
 20
-184.684729
 10
-989.134989
 20
-184.705767
 10
-988.852706
 20
-184.73825
 10
-988.57972
 20
-184.782755
 10
-988.316953
 20
-184.839587
 10
-988.064501
 20
-184.907948
 10
-987.822253
 20
-184.986767
 10
-987.590096
 20
-185.074972
 10
-987.367918
 20
-185.17149
 10
-987.155605
 20
-185.27525
 10
-986.953049
 20
-185.38518
 10
-986.760135
 20
-185.500209
 10
-986.576751
 20
-185.619265
 10
-986.402784
 20
-185.741274
 10
-986.238124
 20
-185.865166
 10
-986.082658
 20
-185.98987
 10
-985.936274
 20
-186.114312
 10
-985.798859
 20
-186.23742
 10
-985.670301
 20
-186.358124
 10
-985.550488
 20
-186.475351
 10
-985.439308
 20
-186.588029
 10
-985.33665
 20
-186.695087
 10
-985.2424
 20
-186.795453
 10
-984.610826
 20
-187.477132
 10
-984.065235
 20
-188.06624
 10
-983.979434
 20
-188.159025
 10
-983.886218
 20
-188.260653
 10
-983.786356
 20
-188.371128
 10
-983.680622
 20
-188.490456
 10
-983.569784
 20
-188.618642
 10
-983.45461
 20
-188.755693
 10
-983.335872
 20
-188.901612
 10
-983.214339
 20
-189.056407
 10
-983.090781
 20
-189.220081
 10
-982.965968
 20
-189.392641
 10
-982.840669
 20
-189.574093
 10
-982.715656
 20
-189.764441
 10
-982.591697
 20
-189.963691
 10
-982.469562
 20
-190.171848
 10
-982.350022
 20
-190.388919
 10
-982.233846
 20
-190.614907
 10
-982.121803
 20
-190.849821
 10
-982.014664
 20
-191.093662
 10
-981.9132
 20
-191.346439
 10
-981.818178
 20
-191.608156
 10
-981.73029
 20
-191.878643
 10
-981.649902
 20
-192.157025
 10
-981.577302
 20
-192.442254
 10
-981.512776
 20
-192.733279
 10
-981.456612
 20
-193.029049
 10
-981.409096
 20
-193.328517
 10
-981.370515
 20
-193.63063
 10
-981.341158
 20
-193.93434
 10
-981.321309
 20
-194.238597
 10
-981.311257
 20
-194.542351
 10
-981.311289
 20
-194.844551
 10
-981.321691
 20
-195.144149
 10
-981.342751
 20
-195.440095
 10
-981.374756
 20
-195.731337
 10
-981.417993
 20
-196.016827
 10
-981.472746
 20
-196.295515
 10
-981.539307
 20
-196.566351
 10
-981.61796
 20
-196.828284
 10
-981.708993
 20
-197.080266
 10
-981.812693
 20
-197.321245
 10
-981.92909
 20
-197.550401
 10
-982.057195
 20
-197.767822
 10
-982.195759
 20
-197.973822
 10
-982.343537
 20
-198.16872
 10
-982.49928
 20
-198.352829
 10
-982.661744
 20
-198.526467
 10
-982.829679
 20
-198.68995
 10
-983.00184
 20
-198.843594
 10
-983.176982
 20
-198.987714
 10
-983.353854
 20
-199.122628
 10
-983.531212
 20
-199.24865
 10
-983.707808
 20
-199.366096
 10
-983.882395
 20
-199.475284
 10
-984.053728
 20
-199.576529
 10
-984.220558
 20
-199.670148
 10
-984.38164
 20
-199.756455
 10
-984.535724
 20
-199.835767
 10
-984.681567
 20
-199.908401
 10
-984.81792
 20
-199.974671
 10
-985.742422
 20
-200.416937
 10
-989.05975
 20
-202.003389
 10
-989.581507
 20
-202.253235
 10
-990.1487
 20
-202.526751
 10
-990.757001
 20
-202.823816
 10
-991.402085
 20
-203.144302
 10
-992.079626
 20
-203.488088
 10
-992.785299
 20
-203.855044
 10
-993.514778
 20
-204.245049
 10
-994.263737
 20
-204.657976
 10
-995.027849
 20
-205.093702
 10
-995.802793
 20
-205.552101
 10
-996.584238
 20
-206.033049
 10
-997.367862
 20
-206.53642
 10
-998.149337
 20
-207.062091
 10
-998.924338
 20
-207.609935
 10
-999.68854
 20
-208.179828
 10
-1000.437617
 20
-208.771648
 10
-1001.167244
 20
-209.385265
 10
-1001.873094
 20
-210.020557
 10
-1002.550841
 20
-210.677399
 10
-1003.196162
 20
-211.355667
 10
-1003.805644
 20
-212.054959
 10
-1004.379543
 20
-212.77378
 10
-1004.919026
 20
-213.510355
 10
-1005.425262
 20
-214.262913
 10
-1005.899422
 20
-215.029681
 10
-1006.342673
 20
-215.808885
 10
-1006.756186
 20
-216.598754
 10
-1007.141127
 20
-217.397514
 10
-1007.498668
 20
-218.203393
 10
-1007.829978
 20
-219.014618
 10
-1008.136224
 20
-219.829417
 10
-1008.418576
 20
-220.646017
 10
-1008.678203
 20
-221.462644
 10
-1008.916273
 20
-222.277528
 10
-1009.133958
 20
-223.088894
 10
-1009.332425
 20
-223.894972
 10
-1009.512843
 20
-224.693985
 10
-1009.676382
 20
-225.484164
 10
-1009.824209
 20
-226.263735
 10
-1009.957495
 20
-227.030926
 10
-1010.077329
 20
-227.784119
 10
-1010.184476
 20
-228.52232
 10
-1010.279626
 20
-229.244688
 10
-1010.363462
 20
-229.950384
 10
-1010.436675
 20
-230.638569
 10
-1010.499949
 20
-231.308403
 10
-1010.553972
 20
-231.959048
 10
-1010.599432
 20
-232.589662
 10
-1010.637014
 20
-233.199407
 10
-1010.667406
 20
-233.787441
 10
-1010.691294
 20
-234.352929
 10
-1010.709367
 20
-234.895028
 10
-1010.72231
 20
-235.412899
 10
-1010.730811
 20
-235.905703
 10
-1010.735556
 20
-236.372601
 10
-1010.737232
 20
-236.812752
 10
-1010.736527
 20
-237.225319
 10
-1010.734127
 20
-237.609458
 10
-1010.730719
 20
-237.964334
 10
-1010.702589
 20
-240.352032
 10
-1010.702551
 20
-240.352688
 10
-1010.702288
 20
-240.357279
 10
-1010.701575
 20
-240.369741
 10
-1010.700187
 20
-240.394007
 10
-1010.697897
 20
-240.434014
 10
-1010.694482
 20
-240.493696
 10
-1010.689716
 20
-240.57699
 10
-1010.683374
 20
-240.68783
 10
-1010.67523
 20
-240.83015
 10
-1010.66506
 20
-241.007887
 10
-1010.652638
 20
-241.224975
 10
-1010.637739
 20
-241.485349
 10
-1010.620137
 20
-241.792945
 10
-1010.59961
 20
-242.151697
 10
-1010.575929
 20
-242.565541
 10
-1010.548872
 20
-243.038413
 10
-1010.51821
 20
-243.574245
 10
-1010.483722
 20
-244.176976
 10
-1010.44518
 20
-244.850538
 10
-1010.402359
 20
-245.598868
 10
-1010.355149
 20
-246.423933
 10
-1010.303885
 20
-247.31983
 10
-1010.249018
 20
-248.27869
 10
-1010.190998
 20
-249.292641
 10
-1010.130278
 20
-250.353813
 10
-1010.067305
 20
-251.454337
 10
-1010.002531
 20
-252.586341
 10
-1009.936405
 20
-253.741957
 10
-1009.86938
 20
-254.913313
 10
-1009.801903
 20
-256.09254
 10
-1009.734427
 20
-257.271767
 10
-1009.667401
 20
-258.443122
 10
-1009.601275
 20
-259.598738
 10
-1009.536501
 20
-260.730743
 10
-1009.473528
 20
-261.831267
 10
-1009.412807
 20
-262.892439
 10
-1009.354788
 20
-263.90639
 10
-1009.299921
 20
-264.86525
 10
-1009.248658
 20
-265.761147
 10
-1009.201446
 20
-266.586211
 10
-1009.158626
 20
-267.334542
 10
-1009.120084
 20
-268.008104
 10
-1009.085595
 20
-268.610834
 10
-1009.054935
 20
-269.146667
 10
-1009.027877
 20
-269.619539
 10
-1009.004196
 20
-270.033383
 10
-1008.983668
 20
-270.392135
 10
-1008.966067
 20
-270.699731
 10
-1008.951169
 20
-270.960105
 10
-1008.938747
 20
-271.177193
 10
-1008.928576
 20
-271.35493
 10
-1008.920432
 20
-271.49725
 10
-1008.91409
 20
-271.608089
 10
-1008.909324
 20
-271.691383
 10
-1008.905909
 20
-271.751066
 10
-1008.90362
 20
-271.791073
 10
-1008.902231
 20
-271.815339
 10
-1008.901518
 20
-271.827801
 10
-1008.901255
 20
-271.832392
 10
-1008.901218
 20
-271.833048
 10
-1006.182707
 20
-271.870401
 10
-1005.75488
 20
-271.876309
 10
-1005.288317
 20
-271.882929
 10
-1004.785052
 20
-271.890412
 10
-1004.247126
 20
-271.89891
 10
-1003.676579
 20
-271.908574
 10
-1003.07545
 20
-271.919555
 10
-1002.445775
 20
-271.932005
 10
-1001.789596
 20
-271.946076
 10
-1001.108951
 20
-271.961919
 10
-1000.405878
 20
-271.979685
 10
-999.682416
 20
-271.999525
 10
-998.940605
 20
-272.021592
 10
-998.182484
 20
-272.046036
 10
-997.410091
 20
-272.07301
 10
-996.625465
 20
-272.102664
 10
-995.830646
 20
-272.13515
 10
-995.027672
 20
-272.170618
 10
-994.218581
 20
-272.209223
 10
-993.405414
 20
-272.251113
 10
-992.590209
 20
-272.296441
 10
-991.774664
 20
-272.345332
 10
-990.959119
 20
-272.397814
 10
-990.14357
 20
-272.453884
 10
-989.328014
 20
-272.513545
 10
-988.512451
 20
-272.576795
 10
-987.696877
 20
-272.643634
 10
-986.881291
 20
-272.714064
 10
-986.065689
 20
-272.788084
 10
-985.250071
 20
-272.865694
 10
-984.434433
 20
-272.946895
 10
-983.618773
 20
-273.031687
 10
-982.80309
 20
-273.120069
 10
-981.98738
 20
-273.212042
 10
-981.171641
 20
-273.307607
 10
-980.355872
 20
-273.406762
 10
-979.54007
 20
-273.509509
 10
-978.724233
 20
-273.615847
 10
-977.908359
 20
-273.725778
 10
-977.092444
 20
-273.8393
 10
-976.276487
 20
-273.956414
 10
-975.460828
 20
-274.077026
 10
-974.647168
 20
-274.200663
 10
-973.837549
 20
-274.326759
 10
-973.034016
 20
-274.454747
 10
-972.238612
 20
-274.58406
 10
-971.45338
 20
-274.714133
 10
-970.680362
 20
-274.844397
 10
-969.921604
 20
-274.974287
 10
-969.179148
 20
-275.103235
 10
-968.455038
 20
-275.230675
 10
-967.751315
 20
-275.356041
 10
-967.070023
 20
-275.478765
 10
-966.413207
 20
-275.598281
 10
-965.782909
 20
-275.714022
 10
-965.181172
 20
-275.825422
 10
-964.61004
 20
-275.931914
 10
-964.071557
 20
-276.03293
 10
-963.567764
 20
-276.127905
 10
-963.100706
 20
-276.216272
 10
-959.951022
 20
-276.81357
 10
-958.86649
 20
-277.019228
 10
-958.69613
 20
-277.051796
 10
-958.512228
 20
-277.08851
 10
-958.317508
 20
-277.130433
 10
-958.114695
 20
-277.178625
 10
-957.906516
 20
-277.234148
 10
-957.695695
 20
-277.298063
 10
-957.484956
 20
-277.371433
 10
-957.277025
 20
-277.455319
 10
-957.074629
 20
-277.550782
 10
-956.880492
 20
-277.658884
 10
-956.697338
 20
-277.780686
 10
-956.527894
 20
-277.917249
 10
-956.374885
 20
-278.069637
 10
-956.241034
 20
-278.23891
 10
-956.129068
 20
-278.426129
 10
-956.041713
 20
-278.632357
 10
-955.981692
 20
-278.858654
 10
-955.951732
 20
-279.106082
 10
-955.954558
 20
-279.375703
 10
-955.992894
 20
-279.668579
 10
-956.068587
 20
-279.985166
 10
-956.179958
 20
-280.32351
 10
-956.324452
 20
-280.681051
 10
-956.499511
 20
-281.055226
 10
-956.70258
 20
-281.443479
 10
-956.9311
 20
-281.843248
 10
-957.182517
 20
-282.251973
 10
-957.454272
 20
-282.667095
 10
-957.74381
 20
-283.086055
 10
-958.048572
 20
-283.50629
 10
-958.366003
 20
-283.925243
 10
-958.693546
 20
-284.340352
 10
-959.028644
 20
-284.749059
 10
-959.36874
 20
-285.148803
 10
-959.711278
 20
-285.537025
 10
-960.0537
 20
-285.911164
 10
-960.393451
 20
-286.26866
 10
-960.727973
 20
-286.606954
 10
-961.054709
 20
-286.923486
 10
-961.371104
 20
-287.215695
 10
-961.675057
 20
-287.48167
 10
-961.966304
 20
-287.72208
 10
-962.245034
 20
-287.938244
 10
-962.51144
 20
-288.131481
 10
-962.765713
 20
-288.303109
 10
-963.008044
 20
-288.454445
 10
-963.238625
 20
-288.586808
 10
-963.457649
 20
-288.701517
 10
-963.665305
 20
-288.799888
 10
-963.861785
 20
-288.883242
 10
-964.047282
 20
-288.952894
 10
-964.221986
 20
-289.010165
 10
-964.386089
 20
-289.056372
 10
-964.539783
 20
-289.092832
 10
-964.683258
 20
-289.120864
 10
-964.816707
 20
-289.141788
 10
-964.94032
 20
-289.156919
 10
-965.05429
 20
-289.167578
 10
-965.158809
 20
-289.175082
 10
-965.858674
 20
-289.215332
 10
-965.861261
 20
-289.215479
 10
-965.879378
 20
-289.216516
 10
-965.928553
 20
-289.219331
 10
-966.024313
 20
-289.224811
 10
-966.182189
 20
-289.233845
 10
-966.417707
 20
-289.247323
 10
-966.746398
 20
-289.266132
 10
-967.18379
 20
-289.291162
 10
-967.745412
 20
-289.323301
 10
-968.446791
 20
-289.363437
 10
-969.303459
 20
-289.41246
 10
-970.330941
 20
-289.471258
 10
-971.544769
 20
-289.54072
 10
-972.960469
 20
-289.621734
 10
-974.593572
 20
-289.715188
 10
-976.459605
 20
-289.821972
 10
-978.574098
 20
-289.942974
 10
-980.952578
 20
-290.079083
 10
-983.610575
 20
-290.231187
 10
-986.563617
 20
-290.400176
 10
-989.81947
 20
-290.586493
 10
-993.354839
 20
-290.788805
 10
-997.138667
 20
-291.005335
 10
-1001.139899
 20
-291.234307
 10
-1005.327473
 20
-291.473942
 10
-1009.670335
 20
-291.722463
 10
-1014.137427
 20
-291.978093
 10
-1018.697691
 20
-292.239055
 10
-1023.320069
 20
-292.503572
 10
-1027.973506
 20
-292.769865
 10
-1032.626941
 20
-293.036159
 10
-1037.24932
 20
-293.300675
 10
-1041.809585
 20
-293.561638
 10
-1046.276675
 20
-293.817268
 10
-1050.619537
 20
-294.065789
 10
-1054.807112
 20
-294.305424
 10
-1058.808343
 20
-294.534395
 10
-1062.592172
 20
-294.750925
 10
-1066.127541
 20
-294.953238
 10
-1069.383394
 20
-295.139554
 10
-1072.336437
 20
-295.308543
 10
-1074.994433
 20
-295.460647
 10
-1077.372914
 20
-295.596756
 10
-1079.487406
 20
-295.717758
 10
-1081.35344
 20
-295.824542
 10
-1082.986542
 20
-295.917997
 10
-1084.402242
 20
-295.999011
 10
-1085.616069
 20
-296.068472
 10
-1086.643552
 20
-296.12727
 10
-1087.50022
 20
-296.176293
 10
-1088.201599
 20
-296.21643
 10
-1088.763221
 20
-296.248569
 10
-1089.200613
 20
-296.273598
 10
-1089.529304
 20
-296.292408
 10
-1089.764822
 20
-296.305885
 10
-1089.922697
 20
-296.31492
 10
-1090.018458
 20
-296.3204
 10
-1090.067633
 20
-296.323214
 10
-1090.085749
 20
-296.324251
 10
-1090.088337
 20
-296.324398
 10
-1090.692916
 20
-296.359011
 10
-1090.788193
 20
-296.364247
 10
-1090.892883
 20
-296.368709
 10
-1091.007325
 20
-296.371103
 10
-1091.131864
 20
-296.370137
 10
-1091.26684
 20
-296.364516
 10
-1091.412597
 20
-296.352947
 10
-1091.569478
 20
-296.334138
 10
-1091.737823
 20
-296.306794
 10
-1091.917975
 20
-296.269623
 10
-1092.110279
 20
-296.22133
 10
-1092.315074
 20
-296.160624
 10
-1092.532705
 20
-296.086209
 10
-1092.763512
 20
-295.996793
 10
-1093.007839
 20
-295.891083
 10
-1093.266029
 20
-295.767785
 10
-1093.538422
 20
-295.625606
 10
-1093.825362
 20
-295.463253
 10
-1094.127191
 20
-295.279432
 10
-1094.444253
 20
-295.072849
 10
-1094.776888
 20
-294.842212
 10
-1095.124908
 20
-294.586821
 10
-1095.486008
 20
-294.308349
 10
-1095.85735
 20
-294.009067
 10
-1096.236096
 20
-293.691242
 10
-1096.619409
 20
-293.357144
 10
-1097.004452
 20
-293.00904
 10
-1097.388387
 20
-292.649199
 10
-1097.768378
 20
-292.279888
 10
-1098.141587
 20
-291.903377
 10
-1098.505176
 20
-291.521936
 10
-1098.856309
 20
-291.137829
 10
-1099.192148
 20
-290.753329
 10
-1099.509856
 20
-290.370702
 10
-1099.806596
 20
-289.992216
 10
-1100.079529
 20
-289.620141
 10
-1100.325819
 20
-289.256746
 10
-1100.54263
 20
-288.904297
 10
-1100.727124
 20
-288.565065
 10
-1100.876461
 20
-288.241316
 10
-1100.987807
 20
-287.93532
 10
-1101.059269
 20
-287.648841
 10
-1101.092735
 20
-287.381623
 10
-1101.091039
 20
-287.132904
 10
-1101.057015
 20
-286.901924
 10
-1100.993496
 20
-286.687923
 10
-1100.903316
 20
-286.490139
 10
-1100.789309
 20
-286.307813
 10
-1100.654308
 20
-286.140183
 10
-1100.501148
 20
-285.986489
 10
-1100.332661
 20
-285.84597
 10
-1100.151682
 20
-285.717864
 10
-1099.961044
 20
-285.601413
 10
-1099.763581
 20
-285.495855
 10
-1099.562127
 20
-285.40043
 10
-1099.359515
 20
-285.314375
 10
-1099.15858
 20
-285.236932
 10
-1098.962153
 20
-285.167339
 10
-1098.773071
 20
-285.104836
 10
-1098.594165
 20
-285.048661
 10
-1097.371971
 20
-284.677551
 10
-1094.703391
 20
-283.867737
 10
-1094.283424
 20
-283.740321
 10
-1093.825433
 20
-283.601538
 10
-1093.331425
 20
-283.452166
 10
-1092.803404
 20
-283.292987
 10
-1092.243376
 20
-283.124778
 10
-1091.653346
 20
-282.94832
 10
-1091.035319
 20
-282.764393
 10
-1090.391301
 20
-282.573776
 10
-1089.723299
 20
-282.377247
 10
-1089.033315
 20
-282.17559
 10
-1088.323356
 20
-281.96958
 10
-1087.595428
 20
-281.759999
 10
-1086.851535
 20
-281.547627
 10
-1086.093683
 20
-281.333241
 10
-1085.323878
 20
-281.117623
 10
-1084.544125
 20
-280.901553
 10
-1083.756429
 20
-280.685808
 10
-1082.962795
 20
-280.47117
 10
-1082.16523
 20
-280.258418
 10
-1081.365738
 20
-280.048331
 10
-1080.565989
 20
-279.841559
 10
-1079.766318
 20
-279.638231
 10
-1078.966721
 20
-279.438347
 10
-1078.167195
 20
-279.241907
 10
-1077.36774
 20
-279.048908
 10
-1076.568353
 20
-278.859352
 10
-1075.769032
 20
-278.673237
 10
-1074.969773
 20
-278.490564
 10
-1074.170577
 20
-278.31133
 10
-1073.371438
 20
-278.135536
 10
-1072.572358
 20
-277.963181
 10
-1071.773332
 20
-277.794265
 10
-1070.974358
 20
-277.628786
 10
-1070.175436
 20
-277.466744
 10
-1069.376561
 20
-277.30814
 10
-1068.577733
 20
-277.152971
 10
-1067.778949
 20
-277.001238
 10
-1066.980206
 20
-276.85294
 10
-1066.181503
 20
-276.708076
 10
-1065.382838
 20
-276.566645
 10
-1064.58454
 20
-276.428663
 10
-1063.788272
 20
-276.294206
 10
-1062.996027
 20
-276.163366
 10
-1062.209799
 20
-276.036234
 10
-1061.431583
 20
-275.912903
 10
-1060.663371
 20
-275.793463
 10
-1059.907158
 20
-275.678008
 10
-1059.164939
 20
-275.566629
 10
-1058.438707
 20
-275.459416
 10
-1057.730456
 20
-275.356463
 10
-1057.04218
 20
-275.257861
 10
-1056.375872
 20
-275.163702
 10
-1055.733528
 20
-275.074078
 10
-1055.11714
 20
-274.98908
 10
-1054.528704
 20
-274.908801
 10
-1053.970213
 20
-274.833332
 10
-1053.44366
 20
-274.762765
 10
-1052.95104
 20
-274.697191
 10
-1052.494346
 20
-274.636703
 10
-1049.414592
 20
-274.230116
 10
-1049.414629
 20
-274.229472
 10
-1049.414887
 20
-274.224963
 10
-1049.415588
 20
-274.212723
 10
-1049.416952
 20
-274.188887
 10
-1049.4192
 20
-274.149592
 10
-1049.422556
 20
-274.09097
 10
-1049.427238
 20
-274.009157
 10
-1049.433469
 20
-273.900287
 10
-1049.441468
 20
-273.760497
 10
-1049.45146
 20
-273.58592
 10
-1049.463664
 20
-273.372691
 10
-1049.478299
 20
-273.116945
 10
-1049.495591
 20
-272.814817
 10
-1049.515757
 20
-272.462441
 10
-1049.539021
 20
-272.055954
 10
-1049.565603
 20
-271.591489
 10
-1049.595723
 20
-271.06518
 10
-1049.629605
 20
-270.473164
 10
-1049.667468
 20
-269.811575
 10
-1049.709534
 20
-269.076547
 10
-1049.755913
 20
-268.266148
 10
-1049.806275
 20
-267.386175
 10
-1049.860175
 20
-266.44436
 10
-1049.917173
 20
-265.448434
 10
-1049.976825
 20
-264.406124
 10
-1050.038688
 20
-263.325163
 10
-1050.102322
 20
-262.21328
 10
-1050.167283
 20
-261.078206
 10
-1050.233128
 20
-259.927672
 10
-1050.299416
 20
-258.769407
 10
-1050.365704
 20
-257.611142
 10
-1050.43155
 20
-256.460608
 10
-1050.496511
 20
-255.325534
 10
-1050.560145
 20
-254.213651
 10
-1050.622008
 20
-253.13269
 10
-1050.68166
 20
-252.09038
 10
-1050.738657
 20
-251.094453
 10
-1050.792557
 20
-250.152638
 10
-1050.842919
 20
-249.272667
 10
-1050.889299
 20
-248.462267
 10
-1050.931365
 20
-247.727239
 10
-1050.969228
 20
-247.06565
 10
-1051.003109
 20
-246.473634
 10
-1051.03323
 20
-245.947325
 10
-1051.059811
 20
-245.482859
 10
-1051.083075
 20
-245.076372
 10
-1051.103241
 20
-244.723997
 10
-1051.120533
 20
-244.421869
 10
-1051.135169
 20
-244.166123
 10
-1051.147373
 20
-243.952894
 10
-1051.157364
 20
-243.778316
 10
-1051.165363
 20
-243.638526
 10
-1051.171595
 20
-243.529657
 10
-1051.176277
 20
-243.447844
 10
-1051.179631
 20
-243.389222
 10
-1051.18188
 20
-243.349926
 10
-1051.183245
 20
-243.32609
 10
-1051.183946
 20
-243.313851
 10
-1051.184203
 20
-243.309342
 10
-1051.18424
 20
-243.308697
 10
-1051.364314
 20
-241.251104
 10
-1051.392779
 20
-240.927177
 10
-1051.424563
 20
-240.573245
 10
-1051.460286
 20
-240.190172
 10
-1051.500567
 20
-239.778815
 10
-1051.546025
 20
-239.340037
 10
-1051.597277
 20
-238.874697
 10
-1051.654943
 20
-238.383656
 10
-1051.719642
 20
-237.867775
 10
-1051.791993
 20
-237.327913
 10
-1051.872614
 20
-236.764933
 10
-1051.962124
 20
-236.179692
 10
-1052.061143
 20
-235.573054
 10
-1052.170288
 20
-234.945878
 10
-1052.290179
 20
-234.299023
 10
-1052.421434
 20
-233.633352
 10
-1052.564672
 20
-232.949724
 10
-1052.720513
 20
-232.249
 10
-1052.889575
 20
-231.53204
 10
-1053.072475
 20
-230.799704
 10
-1053.269835
 20
-230.052854
 10
-1053.482337
 20
-229.29254
 10
-1053.710926
 20
-228.520565
 10
-1053.956613
 20
-227.738926
 10
-1054.220406
 20
-226.949617
 10
-1054.503317
 20
-226.154633
 10
-1054.806353
 20
-225.355968
 10
-1055.130528
 20
-224.555618
 10
-1055.476848
 20
-223.755576
 10
-1055.846325
 20
-222.957839
 10
-1056.239969
 20
-222.164401
 10
-1056.658789
 20
-221.377255
 10
-1057.103794
 20
-220.598398
 10
-1057.575997
 20
-219.829824
 10
-1058.076405
 20
-219.073527
 10
-1058.60603
 20
-218.331504
 10
-1059.16588
 20
-217.605747
 10
-1059.756967
 20
-216.898252
 10
-1060.380298
 20
-216.211013
 10
-1061.036886
 20
-215.546027
 10
-1061.727739
 20
-214.905287
 10
-1062.452963
 20
-214.290389
 10
-1063.209046
 20
-213.701334
 10
-1063.991571
 20
-213.137723
 10
-1064.796123
 20
-212.59916
 10
-1065.618284
 20
-212.085243
 10
-1066.453639
 20
-211.595578
 10
-1067.29777
 20
-211.129764
 10
-1068.14626
 20
-210.687403
 10
-1068.994696
 20
-210.268099
 10
-1069.838658
 20
-209.871452
 10
-1070.673731
 20
-209.497063
 10
-1071.495498
 20
-209.144536
 10
-1072.299543
 20
-208.813471
 10
-1073.08145
 20
-208.50347
 10
-1073.836801
 20
-208.214136
 10
-1074.561181
 20
-207.94507
 10
-1075.250173
 20
-207.695874
 10
-1075.899361
 20
-207.466149
 10
-1076.504328
 20
-207.255498
 10
-1080.59758
 20
-205.84505
 10
-1081.434869
 20
-205.556664
 10
-1081.566542
 20
-205.511167
 10
-1081.709572
 20
-205.460888
 10
-1081.862754
 20
-205.40537
 10
-1082.024889
 20
-205.344158
 10
-1082.194771
 20
-205.276795
 10
-1082.3712
 20
-205.202824
 10
-1082.552971
 20
-205.12179
 10
-1082.738884
 20
-205.033236
 10
-1082.927733
 20
-204.936705
 10
-1083.118317
 20
-204.831742
 10
-1083.309434
 20
-204.71789
 10
-1083.499879
 20
-204.594693
 10
-1083.688452
 20
-204.461694
 10
-1083.873948
 20
-204.318437
 10
-1084.055166
 20
-204.164467
 10
-1084.230902
 20
-203.999326
 10
-1084.399954
 20
-203.822558
 10
-1084.561119
 20
-203.633707
 10
-1084.713195
 20
-203.432317
 10
-1084.854978
 20
-203.217931
 10
-1084.985493
 20
-202.990349
 10
-1085.10468
 20
-202.75039
 10
-1085.212702
 20
-202.499131
 10
-1085.309725
 20
-202.237648
 10
-1085.395915
 20
-201.967017
 10
-1085.471438
 20
-201.688313
 10
-1085.536456
 20
-201.402612
 10
-1085.591139
 20
-201.110991
 10
-1085.63565
 20
-200.814525
 10
-1085.670155
 20
-200.514289
 10
-1085.694818
 20
-200.211361
 10
-1085.709807
 20
-199.906816
 10
-1085.715285
 20
-199.601729
 10
-1085.711419
 20
-199.297177
 10
-1085.698375
 20
-198.994236
 10
-1085.676317
 20
-198.69398
 10
-1085.64541
 20
-198.397487
 10
-1085.60582
 20
-198.105831
 10
-1085.557713
 20
-197.820091
 10
-1085.501255
 20
-197.54134
 10
-1085.436711
 20
-197.27049
 10
-1085.364744
 20
-197.007787
 10
-1085.286123
 20
-196.753315
 10
-1085.201611
 20
-196.507155
 10
-1085.111974
 20
-196.269391
 10
-1085.017979
 20
-196.040104
 10
-1084.92039
 20
-195.819376
 10
-1084.819972
 20
-195.607291
 10
-1084.717491
 20
-195.40393
 10
-1084.613713
 20
-195.209376
 10
-1084.509402
 20
-195.02371
 10
-1084.405325
 20
-194.847015
 10
-1084.302246
 20
-194.679375
 10
-1084.200932
 20
-194.520869
 10
-1084.102147
 20
-194.371582
 10
-1084.006657
 20
-194.231596
 10
-1083.915228
 20
-194.100992
 10
-1083.828625
 20
-193.979853
 10
-1083.747613
 20
-193.868262
 10
-1083.198145
 20
-193.118836
 10
-1082.723304
 20
-192.471343
 10
-1082.648478
 20
-192.369538
 10
-1082.566295
 20
-192.259073
 10
-1082.476522
 20
-192.141
 10
-1082.378925
 20
-192.016371
 10
-1082.27327
 20
-191.886237
 10
-1082.159325
 20
-191.751652
 10
-1082.036853
 20
-191.613667
 10
-1081.905623
 20
-191.473334
 10
-1081.7654
 20
-191.331706
 10
-1081.61595
 20
-191.189834
 10
-1081.457041
 20
-191.04877
 10
-1081.288437
 20
-190.909569
 10
-1081.109905
 20
-190.773279
 10
-1080.921213
 20
-190.640954
 10
-1080.722124
 20
-190.513647
 10
-1080.512406
 20
-190.392407
 10
-1080.291825
 20
-190.27829
 10
-1080.060148
 20
-190.172346
 10
-1079.81714
 20
-190.075627
 10
-1079.562569
 20
-189.989186
 10
-1079.296437
 20
-189.913825
 10
-1079.019698
 20
-189.849348
 10
-1078.733547
 20
-189.795309
 10
-1078.439173
 20
-189.751263
 10
-1078.13777
 20
-189.716765
 10
-1077.830529
 20
-189.691368
 10
-1077.518643
 20
-189.674627
 10
-1077.203303
 20
-189.666097
 10
-1076.885702
 20
-189.665331
 10
-1076.567031
 20
-189.671885
 10
-1076.248483
 20
-189.685312
 10
-1075.931251
 20
-189.705168
 10
-1075.616525
 20
-189.731006
 10
-1075.305497
 20
-189.762382
 10
-1074.999361
 20
-189.798848
 10
-1074.699308
 20
-189.83996
 10
-1074.40653
 20
-189.885272
 10
-1074.122219
 20
-189.934339
 10
-1073.847568
 20
-189.986715
 10
-1073.583767
 20
-190.041954
 10
-1073.331769
 20
-190.099631
 10
-1073.091556
 20
-190.159404
 10
-1072.862869
 20
-190.220949
 10
-1072.645451
 20
-190.283944
 10
-1072.439043
 20
-190.348066
 10
-1072.243387
 20
-190.412993
 10
-1072.058225
 20
-190.478401
 10
-1071.883298
 20
-190.54397
 10
-1071.718347
 20
-190.609374
 10
-1071.563116
 20
-190.674293
 10
-1071.417344
 20
-190.738403
 10
-1071.280775
 20
-190.801381
 10
-1071.153148
 20
-190.862906
 10
-1071.034208
 20
-190.922655
 10
-1070.923695
 20
-190.980304
 10
-1070.82135
 20
-191.035531
 10
-1070.726916
 20
-191.088015
 10
-1070.640133
 20
-191.137431
 10
-1070.560745
 20
-191.183457
 10
-1070.030015
 20
-191.494771
 10
-1067.404732
 20
-193.035062
 10
-1066.991682
 20
-193.277562
 10
-1066.541843
 20
-193.542596
 10
-1066.057807
 20
-193.82959
 10
-1065.542164
 20
-194.137975
 10
-1064.997505
 20
-194.467177
 10
-1064.426422
 20
-194.816627
 10
-1063.831505
 20
-195.185751
 10
-1063.215345
 20
-195.573979
 10
-1062.580533
 20
-195.980738
 10
-1061.92966
 20
-196.405459
 10
-1061.265316
 20
-196.847568
 10
-1060.590093
 20
-197.306495
 10
-1059.906581
 20
-197.781668
 10
-1059.217372
 20
-198.272514
 10
-1058.525055
 20
-198.778463
 10
-1057.832223
 20
-199.298944
 10
-1057.141466
 20
-199.833384
 10
-1056.455376
 20
-200.381213
 10
-1055.776541
 20
-200.941858
 10
-1055.107555
 20
-201.514748
 10
-1054.450453
 20
-202.099259
 10
-1053.805059
 20
-202.694557
 10
-1053.170642
 20
-203.299757
 10
-1052.54647
 20
-203.913973
 10
-1051.931813
 20
-204.536318
 10
-1051.32594
 20
-205.165907
 10
-1050.728119
 20
-205.801854
 10
-1050.137619
 20
-206.443274
 10
-1049.553711
 20
-207.089279
 10
-1048.975662
 20
-207.738984
 10
-1048.402742
 20
-208.391502
 10
-1047.834218
 20
-209.045949
 10
-1047.269363
 20
-209.701439
 10
-1046.707442
 20
-210.357084
 10
-1046.147726
 20
-211.011999
 10
-1045.589483
 20
-211.665299
 10
-1045.031984
 20
-212.316098
 10
-1044.474496
 20
-212.963509
 10
-1043.916288
 20
-213.606647
 10
-1043.356631
 20
-214.244625
 10
-1042.795174
 20
-214.876517
 10
-1042.233102
 20
-215.501228
 10
-1041.671977
 20
-216.117626
 10
-1041.113368
 20
-216.724574
 10
-1040.558837
 20
-217.320941
 10
-1040.009952
 20
-217.90559
 10
-1039.468275
 20
-218.477388
 10
-1038.935373
 20
-219.0352
 10
-1038.412812
 20
-219.577892
 10
-1037.902155
 20
-220.104329
 10
-1037.40497
 20
-220.613377
 10
-1036.922819
 20
-221.103902
 10
-1036.457269
 20
-221.57477
 10
-1036.009885
 20
-222.024844
 10
-1035.582232
 20
-222.452994
 10
-1035.175876
 20
-222.858083
 10
-1034.79238
 20
-223.238975
 10
-1034.433311
 20
-223.59454
 10
-1034.100234
 20
-223.92364
 10
-1031.853245
 20
-226.140641
  0
LWPOLYLINE
  5
30
330
1F
100
AcDbEntity
  8
0
100
AcDbPolyline
 90
      365
 70
   128
 43
0.0
 10
-1030.152088
 20
-255.111049
 10
-1029.936504
 20
-255.098744
 10
-1029.902579
 20
-255.09683
 10
-1029.865605
 20
-255.094875
 10
-1029.825764
 20
-255.093026
 10
-1029.783238
 20
-255.091425
 10
-1029.738213
 20
-255.090217
 10
-1029.690872
 20
-255.089547
 10
-1029.641396
 20
-255.089558
 10
-1029.589971
 20
-255.090396
 10
-1029.53678
 20
-255.092205
 10
-1029.482005
 20
-255.095129
 10
-1029.42583
 20
-255.099313
 10
-1029.36844
 20
-255.104901
 10
-1029.310016
 20
-255.112038
 10
-1029.250742
 20
-255.120867
 10
-1029.190803
 20
-255.131534
 10
-1029.130381
 20
-255.144183
 10
-1029.069659
 20
-255.158958
 10
-1029.008822
 20
-255.176005
 10
-1028.948052
 20
-255.195465
 10
-1028.887533
 20
-255.217485
 10
-1028.827435
 20
-255.24217
 10
-1028.767881
 20
-255.26946
 10
-1028.708979
 20
-255.299256
 10
-1028.650838
 20
-255.33146
 10
-1028.593568
 20
-255.365975
 10
-1028.537277
 20
-255.4027
 10
-1028.482074
 20
-255.441538
 10
-1028.428068
 20
-255.48239
 10
-1028.375368
 20
-255.525156
 10
-1028.324082
 20
-255.569741
 10
-1028.27432
 20
-255.616042
 10
-1028.226192
 20
-255.663964
 10
-1028.179806
 20
-255.713407
 10
-1028.13527
 20
-255.764271
 10
-1028.092694
 20
-255.81646
 10
-1028.052186
 20
-255.869874
 10
-1028.013857
 20
-255.924415
 10
-1027.977813
 20
-255.979984
 10
-1027.944167
 20
-256.036482
 10
-1027.913024
 20
-256.093811
 10
-1027.884457
 20
-256.151856
 10
-1027.858381
 20
-256.210433
 10
-1027.834677
 20
-256.269345
 10
-1027.813222
 20
-256.328392
 10
-1027.793896
 20
-256.387373
 10
-1027.776575
 20
-256.446092
 10
-1027.76114
 20
-256.504347
 10
-1027.747468
 20
-256.56194
 10
-1027.735441
 20
-256.618672
 10
-1027.724933
 20
-256.674343
 10
-1027.715825
 20
-256.728755
 10
-1027.707996
 20
-256.781707
 10
-1027.701323
 20
-256.833002
 10
-1027.695687
 20
-256.882439
 10
-1027.690964
 20
-256.92982
 10
-1027.687035
 20
-256.974946
 10
-1027.683776
 20
-257.017615
 10
-1027.681068
 20
-257.057632
 10
-1027.678788
 20
-257.094795
 10
-1027.664422
 20
-257.345687
 10
-1027.664406
 20
-257.345963
 10
-1027.664296
 20
-257.347892
 10
-1027.663996
 20
-257.353128
 10
-1027.663412
 20
-257.363323
 10
-1027.66245
 20
-257.380131
 10
-1027.661014
 20
-257.405207
 10
-1027.659012
 20
-257.440203
 10
-1027.656346
 20
-257.486772
 10
-1027.652924
 20
-257.546568
 10
-1027.64865
 20
-257.621244
 10
-1027.643429
 20
-257.712453
 10
-1027.637168
 20
-257.821848
 10
-1027.62977
 20
-257.951085
 10
-1027.621143
 20
-258.101814
 10
-1027.611191
 20
-258.275691
 10
-1027.599819
 20
-258.474366
 10
-1027.586933
 20
-258.699496
 10
-1027.572439
 20
-258.952732
 10
-1027.556241
 20
-259.235728
 10
-1027.538245
 20
-259.550139
 10
-1027.518404
 20
-259.896789
 10
-1027.496859
 20
-260.273198
 10
-1027.4738
 20
-260.676062
 10
-1027.449416
 20
-261.102073
 10
-1027.423897
 20
-261.547923
 10
-1027.397432
 20
-262.010306
 10
-1027.370209
 20
-262.485917
 10
-1027.342418
 20
-262.971447
 10
-1027.314249
 20
-263.463591
 10
-1027.285891
 20
-263.959041
 10
-1027.257533
 20
-264.454492
 10
-1027.229363
 20
-264.946636
 10
-1027.201573
 20
-265.432166
 10
-1027.17435
 20
-265.907776
 10
-1027.147885
 20
-266.37016
 10
-1027.122365
 20
-266.81601
 10
-1027.097982
 20
-267.242021
 10
-1027.074923
 20
-267.644885
 10
-1027.053378
 20
-268.021294
 10
-1027.033537
 20
-268.367944
 10
-1027.015541
 20
-268.682354
 10
-1026.999343
 20
-268.96535
 10
-1026.984849
 20
-269.218587
 10
-1026.971963
 20
-269.443717
 10
-1026.960591
 20
-269.642392
 10
-1026.950639
 20
-269.816269
 10
-1026.942011
 20
-269.966998
 10
-1026.934615
 20
-270.096234
 10
-1026.928352
 20
-270.20563
 10
-1026.923132
 20
-270.296839
 10
-1026.918857
 20
-270.371515
 10
-1026.915436
 20
-270.431311
 10
-1026.91277
 20
-270.477879
 10
-1026.910767
 20
-270.512876
 10
-1026.909332
 20
-270.537952
 10
-1026.908369
 20
-270.55476
 10
-1026.907786
 20
-270.564955
 10
-1026.907486
 20
-270.570191
 10
-1026.907376
 20
-270.57212
 10
-1026.90736
 20
-270.572396
 10
-1026.894966
 20
-270.789179
 10
-1026.893037
 20
-270.823291
 10
-1026.891067
 20
-270.860471
 10
-1026.889197
 20
-270.900535
 10
-1026.88757
 20
-270.943298
 10
-1026.886332
 20
-270.988577
 10
-1026.885622
 20
-271.036188
 10
-1026.885588
 20
-271.085945
 10
-1026.886369
 20
-271.137665
 10
-1026.888111
 20
-271.191165
 10
-1026.890957
 20
-271.246259
 10
-1026.89505
 20
-271.302765
 10
-1026.900532
 20
-271.360498
 10
-1026.907549
 20
-271.419272
 10
-1026.916241
 20
-271.478905
 10
-1026.926753
 20
-271.539215
 10
-1026.939228
 20
-271.600014
 10
-1026.953809
 20
-271.661118
 10
-1026.970641
 20
-271.722345
 10
-1026.989865
 20
-271.783511
 10
-1027.011625
 20
-271.844431
 10
-1027.036026
 20
-271.904933
 10
-1027.063007
 20
-271.964896
 10
-1027.092475
 20
-272.024207
 10
-1027.124331
 20
-272.082757
 10
-1027.15848
 20
-272.140437
 10
-1027.194824
 20
-272.197134
 10
-1027.233265
 20
-272.252741
 10
-1027.273706
 20
-272.307144
 10
-1027.316053
 20
-272.360235
 10
-1027.360207
 20
-272.411904
 10
-1027.40607
 20
-272.462039
 10
-1027.453548
 20
-272.510531
 10
-1027.502541
 20
-272.557268
 10
-1027.552955
 20
-272.602143
 10
-1027.60469
 20
-272.645042
 10
-1027.657651
 20
-272.685856
 10
-1027.711742
 20
-272.724476
 10
-1027.766864
 20
-272.760791
 10
-1027.822921
 20
-272.79469
 10
-1027.879815
 20
-272.826062
 10
-1027.937435
 20
-272.854836
 10
-1027.995596
 20
-272.881098
 10
-1028.054102
 20
-272.904968
 10
-1028.112751
 20
-272.926569
 10
-1028.171347
 20
-272.946023
 10
-1028.22969
 20
-272.963455
 10
-1028.287581
 20
-272.978985
 10
-1028.344823
 20
-272.992737
 10
-1028.401214
 20
-273.004832
 10
-1028.456558
 20
-273.015394
 10
-1028.510654
 20
-273.024546
 10
-1028.563306
 20
-273.032408
 10
-1028.614313
 20
-273.039105
 10
-1028.663477
 20
-273.044759
 10
-1028.7106
 20
-273.049493
 10
-1028.755481
 20
-273.053428
 10
-1028.797923
 20
-273.056687
 10
-1028.837726
 20
-273.059393
 10
-1028.874692
 20
-273.061668
 10
-1029.124265
 20
-273.075999
 10
-1029.339909
 20
-273.088304
 10
-1029.373842
 20
-273.090218
 10
-1029.410826
 20
-273.092173
 10
-1029.450679
 20
-273.094024
 10
-1029.493214
 20
-273.095626
 10
-1029.538251
 20
-273.096838
 10
-1029.585604
 20
-273.097513
 10
-1029.635091
 20
-273.097508
 10
-1029.686528
 20
-273.096679
 10
-1029.739731
 20
-273.09488
 10
-1029.794517
 20
-273.09197
 10
-1029.850702
 20
-273.087803
 10
-1029.908103
 20
-273.082236
 10
-1029.966536
 20
-273.075123
 10
-1030.025819
 20
-273.066322
 10
-1030.085765
 20
-273.055687
 10
-1030.146194
 20
-273.043075
 10
-1030.206921
 20
-273.028341
 10
-1030.267763
 20
-273.011343
 10
-1030.328535
 20
-272.991934
 10
-1030.389055
 20
-272.969972
 10
-1030.449151
 20
-272.945353
 10
-1030.508703
 20
-272.918132
 10
-1030.567601
 20
-272.88841
 10
-1030.625736
 20
-272.856282
 10
-1030.683
 20
-272.821848
 10
-1030.739283
 20
-272.785204
 10
-1030.794479
 20
-272.746448
 10
-1030.848476
 20
-272.705679
 10
-1030.901166
 20
-272.662993
 10
-1030.952442
 20
-272.618488
 10
-1031.002193
 20
-272.572262
 10
-1031.050312
 20
-272.524414
 10
-1031.096689
 20
-272.475039
 10
-1031.141214
 20
-272.424236
 10
-1031.183782
 20
-272.372103
 10
-1031.22428
 20
-272.318738
 10
-1031.2626
 20
-272.264237
 10
-1031.298637
 20
-272.208699
 10
-1031.332278
 20
-272.152223
 10
-1031.363416
 20
-272.094904
 10
-1031.391979
 20
-272.036857
 10
-1031.418051
 20
-271.978268
 10
-1031.441755
 20
-271.919334
 10
-1031.463209
 20
-271.860255
 10
-1031.482536
 20
-271.801233
 10
-1031.499859
 20
-271.742468
 10
-1031.515296
 20
-271.684158
 10
-1031.52897
 20
-271.626505
 10
-1031.541002
 20
-271.569709
 10
-1031.551514
 20
-271.513969
 10
-1031.560627
 20
-271.459486
 10
-1031.568461
 20
-271.40646
 10
-1031.575139
 20
-271.35509
 10
-1031.580781
 20
-271.305577
 10
-1031.585509
 20
-271.258121
 10
-1031.589445
 20
-271.212922
 10
-1031.592709
 20
-271.170181
 10
-1031.595422
 20
-271.130097
 10
-1031.597707
 20
-271.092869
 10
-1031.612107
 20
-270.841536
 10
-1031.612123
 20
-270.841261
 10
-1031.612234
 20
-270.839333
 10
-1031.612533
 20
-270.834097
 10
-1031.613117
 20
-270.823901
 10
-1031.614079
 20
-270.807092
 10
-1031.615514
 20
-270.782016
 10
-1031.617518
 20
-270.747021
 10
-1031.620183
 20
-270.700452
 10
-1031.623605
 20
-270.640656
 10
-1031.627879
 20
-270.56598
 10
-1031.6331
 20
-270.474771
 10
-1031.639361
 20
-270.365375
 10
-1031.646759
 20
-270.236139
 10
-1031.655386
 20
-270.085409
 10
-1031.665338
 20
-269.911534
 10
-1031.67671
 20
-269.712858
 10
-1031.689596
 20
-269.487727
 10
-1031.70409
 20
-269.234491
 10
-1031.720288
 20
-268.951495
 10
-1031.738284
 20
-268.637085
 10
-1031.758126
 20
-268.290436
 10
-1031.77967
 20
-267.914025
 10
-1031.802729
 20
-267.511161
 10
-1031.827112
 20
-267.085151
 10
-1031.852632
 20
-266.639301
 10
-1031.879098
 20
-266.176917
 10
-1031.906321
 20
-265.701307
 10
-1031.93411
 20
-265.215776
 10
-1031.96228
 20
-264.723633
 10
-1031.990638
 20
-264.228182
 10
-1032.018996
 20
-263.732732
 10
-1032.047165
 20
-263.240588
 10
-1032.074956
 20
-262.755057
 10
-1032.102179
 20
-262.279447
 10
-1032.128644
 20
-261.817063
 10
-1032.154163
 20
-261.371213
 10
-1032.178547
 20
-260.945203
 10
-1032.201606
 20
-260.54234
 10
-1032.223151
 20
-260.165929
 10
-1032.242992
 20
-259.819279
 10
-1032.260988
 20
-259.504869
 10
-1032.277185
 20
-259.221873
 10
-1032.29168
 20
-258.968637
 10
-1032.304566
 20
-258.743507
 10
-1032.315938
 20
-258.544831
 10
-1032.32589
 20
-258.370955
 10
-1032.334517
 20
-258.220226
 10
-1032.341915
 20
-258.09099
 10
-1032.348176
 20
-257.981594
 10
-1032.353397
 20
-257.890385
 10
-1032.357671
 20
-257.815709
 10
-1032.361094
 20
-257.755913
 10
-1032.36376
 20
-257.709344
 10
-1032.365762
 20
-257.674349
 10
-1032.367198
 20
-257.649273
 10
-1032.368159
 20
-257.632464
 10
-1032.368743
 20
-257.622268
 10
-1032.369043
 20
-257.617032
 10
-1032.369153
 20
-257.615104
 10
-1032.369169
 20
-257.614828
 10
-1032.381593
 20
-257.397665
 10
-1032.383526
 20
-257.363493
 10
-1032.385501
 20
-257.326248
 10
-1032.387377
 20
-257.286115
 10
-1032.389009
 20
-257.24328
 10
-1032.390254
 20
-257.197927
 10
-1032.390967
 20
-257.150242
 10
-1032.391008
 20
-257.100408
 10
-1032.390231
 20
-257.048611
 10
-1032.388494
 20
-256.995036
 10
-1032.385653
 20
-256.939869
 10
-1032.381565
 20
-256.883292
 10
-1032.376087
 20
-256.825492
 10
-1032.369074
 20
-256.766654
 10
-1032.360384
 20
-256.706963
 10
-1032.349873
 20
-256.646603
 10
-1032.337399
 20
-256.585758
 10
-1032.322817
 20
-256.524616
 10
-1032.305984
 20
-256.463359
 10
-1032.286758
 20
-256.402173
 10
-1032.264993
 20
-256.341243
 10
-1032.240588
 20
-256.280742
 10
-1032.2136
 20
-256.220792
 10
-1032.184125
 20
-256.161501
 10
-1032.15226
 20
-256.102979
 10
-1032.118102
 20
-256.045336
 10
-1032.081749
 20
-255.988682
 10
-1032.043297
 20
-255.933125
 10
-1032.002844
 20
-255.878777
 10
-1031.960485
 20
-255.825745
 10
-1031.91632
 20
-255.77414
 10
-1031.870444
 20
-255.724071
 10
-1031.822955
 20
-255.675647
 10
-1031.773949
 20
-255.628978
 10
-1031.723523
 20
-255.584174
 10
-1031.671775
 20
-255.541344
 10
-1031.618803
 20
-255.500597
 10
-1031.564701
 20
-255.462043
 10
-1031.509568
 20
-255.425792
 10
-1031.453501
 20
-255.391953
 10
-1031.396597
 20
-255.360636
 10
-1031.33897
 20
-255.331911
 10
-1031.2808
 20
-255.305695
 10
-1031.222289
 20
-255.281866
 10
-1031.163633
 20
-255.2603
 10
-1031.105032
 20
-255.240877
 10
-1031.046684
 20
-255.223473
 10
-1030.988789
 20
-255.207967
 10
-1030.931544
 20
-255.194236
 10
-1030.87515
 20
-255.182158
 10
-1030.819804
 20
-255.17161
 10
-1030.765705
 20
-255.162471
 10
-1030.713052
 20
-255.154618
 10
-1030.662043
 20
-255.147928
 10
-1030.612878
 20
-255.14228
 10
-1030.565755
 20
-255.13755
 10
-1030.520874
 20
-255.133618
 10
-1030.478432
 20
-255.13036
 10
-1030.438628
 20
-255.127656
 10
-1030.401661
 20
-255.12538
 10
-1030.152088
 20
-255.111049
  0
LWPOLYLINE
  5
31
330
1F
100
AcDbEntity
  8
0
100
AcDbPolyline
 90
      241
 70
   128
 43
0.0
 10
-1035.631987
 20
-232.613749
 10
-1035.631876
 20
-232.614094
 10
-1035.631102
 20
-232.616513
 10
-1035.629
 20
-232.623076
 10
-1035.624908
 20
-232.635856
 10
-1035.618162
 20
-232.656928
 10
-1035.608098
 20
-232.688361
 10
-1035.594052
 20
-232.73223
 10
-1035.575363
 20
-232.790608
 10
-1035.551363
 20
-232.865566
 10
-1035.521391
 20
-232.959177
 10
-1035.484785
 20
-233.073514
 10
-1035.440879
 20
-233.210649
 10
-1035.389009
 20
-233.372655
 10
-1035.328515
 20
-233.561604
 10
-1035.258729
 20
-233.779569
 10
-1035.178991
 20
-234.028624
 10
-1035.088635
 20
-234.310839
 10
-1034.986998
 20
-234.628287
 10
-1034.873418
 20
-234.983042
 10
-1034.747229
 20
-235.377176
 10
-1034.6081
 20
-235.811725
 10
-1034.457028
 20
-236.28358
 10
-1034.295338
 20
-236.788597
 10
-1034.124359
 20
-237.322629
 10
-1033.945417
 20
-237.881532
 10
-1033.759838
 20
-238.461161
 10
-1033.568952
 20
-239.05737
 10
-1033.374084
 20
-239.666015
 10
-1033.176562
 20
-240.28295
 10
-1032.977713
 20
-240.90403
 10
-1032.778863
 20
-241.525111
 10
-1032.581341
 20
-242.142046
 10
-1032.386473
 20
-242.75069
 10
-1032.195586
 20
-243.3469
 10
-1032.010008
 20
-243.926529
 10
-1031.831066
 20
-244.485432
 10
-1031.660086
 20
-245.019464
 10
-1031.498397
 20
-245.52448
 10
-1031.347324
 20
-245.996335
 10
-1031.208196
 20
-246.430884
 10
-1031.082007
 20
-246.825018
 10
-1030.968426
 20
-247.179774
 10
-1030.86679
 20
-247.497222
 10
-1030.776434
 20
-247.779437
 10
-1030.696695
 20
-248.028491
 10
-1030.626909
 20
-248.246456
 10
-1030.566414
 20
-248.435405
 10
-1030.514545
 20
-248.597412
 10
-1030.470639
 20
-248.734546
 10
-1030.434033
 20
-248.848883
 10
-1030.404062
 20
-248.942494
 10
-1030.380062
 20
-249.017452
 10
-1030.361371
 20
-249.07583
 10
-1030.347326
 20
-249.119699
 10
-1030.337262
 20
-249.151133
 10
-1030.330516
 20
-249.172204
 10
-1030.326424
 20
-249.184985
 10
-1030.324322
 20
-249.191548
 10
-1030.323548
 20
-249.193966
 10
-1030.323438
 20
-249.194312
 10
-1030.323371
 20
-249.193959
 10
-1030.32291
 20
-249.191488
 10
-1030.321655
 20
-249.184783
 10
-1030.319212
 20
-249.171726
 10
-1030.315183
 20
-249.150199
 10
-1030.309174
 20
-249.118085
 10
-1030.300787
 20
-249.073267
 10
-1030.289626
 20
-249.013627
 10
-1030.275295
 20
-248.937048
 10
-1030.257398
 20
-248.841412
 10
-1030.23554
 20
-248.724603
 10
-1030.209322
 20
-248.584502
 10
-1030.178349
 20
-248.418992
 10
-1030.142226
 20
-248.225955
 10
-1030.100555
 20
-248.003276
 10
-1030.05294
 20
-247.748835
 10
-1029.998985
 20
-247.460516
 10
-1029.938295
 20
-247.136202
 10
-1029.870473
 20
-246.773774
 10
-1029.795122
 20
-246.371115
 10
-1029.712044
 20
-245.927168
 10
-1029.621833
 20
-245.445107
 10
-1029.525284
 20
-244.929168
 10
-1029.423186
 20
-244.383586
 10
-1029.316334
 20
-243.812594
 10
-1029.20552
 20
-243.220428
 10
-1029.091536
 20
-242.611324
 10
-1028.975174
 20
-241.989515
 10
-1028.857227
 20
-241.359237
 10
-1028.738488
 20
-240.724723
 10
-1028.619749
 20
-240.09021
 10
-1028.501802
 20
-239.459932
 10
-1028.38544
 20
-238.838123
 10
-1028.271456
 20
-238.229018
 10
-1028.160642
 20
-237.636853
 10
-1028.05379
 20
-237.065861
 10
-1027.951692
 20
-236.520279
 10
-1027.855142
 20
-236.004339
 10
-1027.764932
 20
-235.522279
 10
-1027.681854
 20
-235.078332
 10
-1027.606503
 20
-234.675673
 10
-1027.53868
 20
-234.313246
 10
-1027.477991
 20
-233.98893
 10
-1027.424036
 20
-233.700612
 10
-1027.376421
 20
-233.446171
 10
-1027.33475
 20
-233.223492
 10
-1027.298627
 20
-233.030455
 10
-1027.267654
 20
-232.864945
 10
-1027.241436
 20
-232.724844
 10
-1027.219577
 20
-232.608034
 10
-1027.201681
 20
-232.512399
 10
-1027.18735
 20
-232.43582
 10
-1027.176189
 20
-232.37618
 10
-1027.167802
 20
-232.331362
 10
-1027.161793
 20
-232.299248
 10
-1027.157764
 20
-232.277721
 10
-1027.155321
 20
-232.264664
 10
-1027.154066
 20
-232.257959
 10
-1027.153603
 20
-232.255488
 10
-1027.153538
 20
-232.255135
 10
-1027.153631
 20
-232.255083
 10
-1027.154286
 20
-232.25472
 10
-1027.156064
 20
-232.253737
 10
-1027.159527
 20
-232.25182
 10
-1027.165236
 20
-232.248661
 10
-1027.173753
 20
-232.243947
 10
-1027.185638
 20
-232.237369
 10
-1027.201454
 20
-232.228616
 10
-1027.221763
 20
-232.217377
 10
-1027.247126
 20
-232.20334
 10
-1027.278103
 20
-232.186196
 10
-1027.315257
 20
-232.165634
 10
-1027.35915
 20
-232.141342
 10
-1027.410342
 20
-232.11301
 10
-1027.469396
 20
-232.080328
 10
-1027.536873
 20
-232.042984
 10
-1027.613334
 20
-232.000668
 10
-1027.699341
 20
-231.953068
 10
-1027.795455
 20
-231.899875
 10
-1027.902239
 20
-231.840777
 10
-1028.019972
 20
-231.775619
 10
-1028.147813
 20
-231.704867
 10
-1028.284638
 20
-231.629143
 10
-1028.429324
 20
-231.549069
 10
-1028.580749
 20
-231.465265
 10
-1028.737788
 20
-231.378353
 10
-1028.899321
 20
-231.288955
 10
-1029.064223
 20
-231.197693
 10
-1029.23137
 20
-231.105187
 10
-1029.399641
 20
-231.01206
 10
-1029.567911
 20
-230.918934
 10
-1029.735059
 20
-230.826427
 10
-1029.89996
 20
-230.735165
 10
-1030.061492
 20
-230.645767
 10
-1030.218533
 20
-230.558856
 10
-1030.369957
 20
-230.475052
 10
-1030.514644
 20
-230.394977
 10
-1030.651468
 20
-230.319253
 10
-1030.779309
 20
-230.248501
 10
-1030.897042
 20
-230.183343
 10
-1031.003826
 20
-230.124245
 10
-1031.099941
 20
-230.071052
 10
-1031.185947
 20
-230.023453
 10
-1031.262409
 20
-229.981136
 10
-1031.329885
 20
-229.943793
 10
-1031.388939
 20
-229.91111
 10
-1031.440132
 20
-229.882778
 10
-1031.484024
 20
-229.858487
 10
-1031.521178
 20
-229.837924
 10
-1031.552156
 20
-229.82078
 10
-1031.577518
 20
-229.806744
 10
-1031.597827
 20
-229.795504
 10
-1031.613643
 20
-229.78675
 10
-1031.625529
 20
-229.780173
 10
-1031.634046
 20
-229.775459
 10
-1031.639755
 20
-229.7723
 10
-1031.643217
 20
-229.770383
 10
-1031.644994
 20
-229.769399
 10
-1031.645649
 20
-229.769037
 10
-1031.645744
 20
-229.768985
 10
-1031.645826
 20
-229.769044
 10
-1031.646408
 20
-229.769459
 10
-1031.647985
 20
-229.770585
 10
-1031.651059
 20
-229.772778
 10
-1031.656124
 20
-229.776393
 10
-1031.663682
 20
-229.781787
 10
-1031.674229
 20
-229.789313
 10
-1031.688263
 20
-229.799329
 10
-1031.706284
 20
-229.81219
 10
-1031.728791
 20
-229.828251
 10
-1031.756279
 20
-229.847867
 10
-1031.789248
 20
-229.871396
 10
-1031.828197
 20
-229.899192
 10
-1031.873624
 20
-229.931611
 10
-1031.926027
 20
-229.969007
 10
-1031.985903
 20
-230.011738
 10
-1032.053752
 20
-230.060158
 10
-1032.130072
 20
-230.114624
 10
-1032.215361
 20
-230.17549
 10
-1032.310118
 20
-230.243112
 10
-1032.414591
 20
-230.317669
 10
-1032.528032
 20
-230.398626
 10
-1032.649446
 20
-230.485273
 10
-1032.777836
 20
-230.576898
 10
-1032.912206
 20
-230.67279
 10
-1033.051559
 20
-230.772238
 10
-1033.194897
 20
-230.874531
 10
-1033.341226
 20
-230.978958
 10
-1033.489547
 20
-231.084807
 10
-1033.638865
 20
-231.191367
 10
-1033.788183
 20
-231.297927
 10
-1033.936504
 20
-231.403776
 10
-1034.082833
 20
-231.508202
 10
-1034.226172
 20
-231.610495
 10
-1034.365524
 20
-231.709943
 10
-1034.499893
 20
-231.805836
 10
-1034.628284
 20
-231.897461
 10
-1034.749698
 20
-231.984107
 10
-1034.86314
 20
-232.065065
 10
-1034.967613
 20
-232.139621
 10
-1035.062369
 20
-232.207244
 10
-1035.147658
 20
-232.26811
 10
-1035.223978
 20
-232.322576
 10
-1035.291827
 20
-232.370996
 10
-1035.351704
 20
-232.413726
 10
-1035.404107
 20
-232.451123
 10
-1035.449533
 20
-232.483541
 10
-1035.488481
 20
-232.511337
 10
-1035.521451
 20
-232.534865
 10
-1035.54894
 20
-232.554483
 10
-1035.571446
 20
-232.570545
 10
-1035.589467
 20
-232.583405
 10
-1035.603502
 20
-232.59342
 10
-1035.614049
 20
-232.600947
 10
-1035.621606
 20
-232.606341
 10
-1035.626672
 20
-232.609956
 10
-1035.629745
 20
-232.612149
 10
-1035.631322
 20
-232.613274
 10
-1035.631903
 20
-232.613689
 10
-1035.631987
 20
-232.613749
  0
LWPOLYLINE
  5
32
330
1F
100
AcDbEntity
  8
0
100
AcDbPolyline
 90
     3997
 70
   128
 43
0.0
 10
-1572.184549
 20
-352.295818
 10
-1571.198532
 20
-352.248652
 10
-1571.043367
 20
-352.241257
 10
-1570.87421
 20
-352.233361
 10
-1570.691858
 20
-352.225166
 10
-1570.49711
 20
-352.21688
 10
-1570.290764
 20
-352.208706
 10
-1570.073616
 20
-352.200851
 10
-1569.846466
 20
-352.193518
 10
-1569.610112
 20
-352.186914
 10
-1569.36535
 20
-352.181242
 10
-1569.112979
 20
-352.176709
 10
-1568.853798
 20
-352.17352
 10
-1568.588603
 20
-352.171879
 10
-1568.318193
 20
-352.171991
 10
-1568.043366
 20
-352.174062
 10
-1567.764919
 20
-352.178296
 10
-1567.483651
 20
-352.1849
 10
-1567.20036
 20
-352.194077
 10
-1566.915842
 20
-352.206033
 10
-1566.630898
 20
-352.220974
 10
-1566.346323
 20
-352.239103
 10
-1566.062896
 20
-352.260687
 10
-1565.781306
 20
-352.286236
 10
-1565.502225
 20
-352.316319
 10
-1565.226321
 20
-352.351507
 10
-1564.954265
 20
-352.39237
 10
-1564.686726
 20
-352.439478
 10
-1564.424375
 20
-352.493402
 10
-1564.167882
 20
-352.554711
 10
-1563.917915
 20
-352.623975
 10
-1563.675146
 20
-352.701765
 10
-1563.440244
 20
-352.788651
 10
-1563.213878
 20
-352.885203
 10
-1562.99672
 20
-352.991992
 10
-1562.789438
 20
-353.109587
 10
-1562.592702
 20
-353.238558
 10
-1562.407183
 20
-353.379477
 10
-1562.23355
 20
-353.532912
 10
-1562.072474
 20
-353.699435
 10
-1561.924623
 20
-353.879615
 10
-1561.790668
 20
-354.074022
 10
-1561.671039
 20
-354.282863
 10
-1561.565199
 20
-354.504888
 10
-1561.472375
 20
-354.738482
 10
-1561.391789
 20
-354.982032
 10
-1561.322668
 20
-355.233923
 10
-1561.264235
 20
-355.492541
 10
-1561.215715
 20
-355.756272
 10
-1561.176333
 20
-356.023502
 10
-1561.145312
 20
-356.292617
 10
-1561.121878
 20
-356.562003
 10
-1561.105255
 20
-356.830046
 10
-1561.094668
 20
-357.09513
 10
-1561.08934
 20
-357.355644
 10
-1561.088498
 20
-357.609971
 10
-1561.091364
 20
-357.856499
 10
-1561.097164
 20
-358.093613
 10
-1561.105122
 20
-358.319699
 10
-1561.114463
 20
-358.533143
 10
-1561.124412
 20
-358.732331
 10
-1561.197107
 20
-360.081276
 10
-1561.184292
 20
-360.707784
 10
-1561.182281
 20
-360.806379
 10
-1561.180121
 20
-360.913896
 10
-1561.177854
 20
-361.029859
 10
-1561.175525
 20
-361.153791
 10
-1561.173176
 20
-361.285217
 10
-1561.170849
 20
-361.423661
 10
-1561.168589
 20
-361.568645
 10
-1561.166439
 20
-361.719696
 10
-1561.16444
 20
-361.876336
 10
-1561.162637
 20
-362.038089
 10
-1561.161072
 20
-362.204479
 10
-1561.159789
 20
-362.375031
 10
-1561.15883
 20
-362.549269
 10
-1561.158238
 20
-362.726716
 10
-1561.158058
 20
-362.906896
 10
-1561.158331
 20
-363.089333
 10
-1561.159101
 20
-363.273552
 10
-1561.160411
 20
-363.459076
 10
-1561.162304
 20
-363.645429
 10
-1561.164822
 20
-363.832136
 10
-1561.168006
 20
-364.018798
 10
-1561.171879
 20
-364.205334
 10
-1561.17646
 20
-364.39174
 10
-1561.181769
 20
-364.578012
 10
-1561.187827
 20
-364.764145
 10
-1561.194651
 20
-364.950137
 10
-1561.202264
 20
-365.135983
 10
-1561.210683
 20
-365.321681
 10
-1561.219929
 20
-365.507225
 10
-1561.230022
 20
-365.692612
 10
-1561.24098
 20
-365.877839
 10
-1561.252825
 20
-366.062901
 10
-1561.265576
 20
-366.247795
 10
-1561.279251
 20
-366.432518
 10
-1561.293872
 20
-366.617064
 10
-1561.309458
 20
-366.801431
 10
-1561.326028
 20
-366.985615
 10
-1561.343602
 20
-367.169612
 10
-1561.362201
 20
-367.353418
 10
-1561.381843
 20
-367.537029
 10
-1561.402523
 20
-367.720368
 10
-1561.424137
 20
-367.903065
 10
-1561.446554
 20
-368.084676
 10
-1561.469644
 20
-368.264757
 10
-1561.493276
 20
-368.442864
 10
-1561.517321
 20
-368.618552
 10
-1561.541648
 20
-368.791379
 10
-1561.566127
 20
-368.960901
 10
-1561.590628
 20
-369.126672
 10
-1561.615021
 20
-369.288251
 10
-1561.639176
 20
-369.445191
 10
-1561.662962
 20
-369.597051
 10
-1561.686249
 20
-369.743385
 10
-1561.708907
 20
-369.88375
 10
-1561.730806
 20
-370.017702
 10
-1561.751816
 20
-370.144797
 10
-1561.771806
 20
-370.264591
 10
-1561.790647
 20
-370.376641
 10
-1561.808208
 20
-370.480502
 10
-1561.92704
 20
-371.180825
 10
-1562.14096
 20
-372.44219
 10
-1562.174633
 20
-372.640523
 10
-1562.2114
 20
-372.855784
 10
-1562.251143
 20
-373.085982
 10
-1562.293748
 20
-373.329123
 10
-1562.339098
 20
-373.583217
 10
-1562.387078
 20
-373.84627
 10
-1562.437573
 20
-374.11629
 10
-1562.490465
 20
-374.391286
 10
-1562.54564
 20
-374.669265
 10
-1562.602982
 20
-374.948235
 10
-1562.662374
 20
-375.226204
 10
-1562.723702
 20
-375.50118
 10
-1562.786848
 20
-375.771171
 10
-1562.851698
 20
-376.034184
 10
-1562.918136
 20
-376.288227
 10
-1562.986046
 20
-376.531308
 10
-1563.055312
 20
-376.761436
 10
-1563.125818
 20
-376.976617
 10
-1563.197448
 20
-377.17486
 10
-1563.270087
 20
-377.354172
 10
-1563.34371
 20
-377.513178
 10
-1563.418649
 20
-377.652963
 10
-1563.495329
 20
-377.775231
 10
-1563.574175
 20
-377.881684
 10
-1563.65561
 20
-377.974025
 10
-1563.740058
 20
-378.053956
 10
-1563.827945
 20
-378.12318
 10
-1563.919693
 20
-378.183399
 10
-1564.015728
 20
-378.236317
 10
-1564.116473
 20
-378.283635
 10
-1564.222352
 20
-378.327056
 10
-1564.33379
 20
-378.368284
 10
-1564.45121
 20
-378.409019
 10
-1564.575038
 20
-378.450966
 10
-1564.705696
 20
-378.495826
 10
-1564.84361
 20
-378.545303
 10
-1564.989202
 20
-378.601098
 10
-1565.142899
 20
-378.664915
 10
-1565.305122
 20
-378.738455
 10
-1565.476298
 20
-378.823422
 10
-1565.656588
 20
-378.921032
 10
-1565.845112
 20
-379.030559
 10
-1566.040726
 20
-379.150789
 10
-1566.242288
 20
-379.28051
 10
-1566.448656
 20
-379.418509
 10
-1566.658685
 20
-379.563573
 10
-1566.871235
 20
-379.714489
 10
-1567.085162
 20
-379.870044
 10
-1567.299323
 20
-380.029027
 10
-1567.512576
 20
-380.190223
 10
-1567.723779
 20
-380.35242
 10
-1567.931788
 20
-380.514406
 10
-1568.13546
 20
-380.674967
 10
-1568.333654
 20
-380.832891
 10
-1568.525226
 20
-380.986964
 10
-1568.709034
 20
-381.135975
 10
-1568.883935
 20
-381.27871
 10
-1569.048787
 20
-381.413956
 10
-1569.202446
 20
-381.540501
 10
-1570.242277
 20
-382.398929
 10
-1570.76077
 20
-382.827059
 10
-1570.842356
 20
-382.894448
 10
-1570.931256
 20
-382.968008
 10
-1571.027009
 20
-383.047489
 10
-1571.129153
 20
-383.132641
 10
-1571.237224
 20
-383.223212
 10
-1571.35076
 20
-383.318953
 10
-1571.4693
 20
-383.419613
 10
-1571.59238
 20
-383.524941
 10
-1571.719538
 20
-383.634687
 10
-1571.850312
 20
-383.748601
 10
-1571.984239
 20
-383.866432
 10
-1572.120857
 20
-383.987928
 10
-1572.259703
 20
-384.112841
 10
-1572.400316
 20
-384.240919
 10
-1572.542232
 20
-384.371913
 10
-1572.684989
 20
-384.50557
 10
-1572.828126
 20
-384.641641
 10
-1572.971179
 20
-384.779876
 10
-1573.113686
 20
-384.920024
 10
-1573.255184
 20
-385.061834
 10
-1573.39529
 20
-385.205096
 10
-1573.533934
 20
-385.349762
 10
-1573.671123
 20
-385.495824
 10
-1573.806865
 20
-385.643273
 10
-1573.94117
 20
-385.792102
 10
-1574.074044
 20
-385.942303
 10
-1574.205497
 20
-386.093866
 10
-1574.335536
 20
-386.246785
 10
-1574.46417
 20
-386.401051
 10
-1574.591406
 20
-386.556656
 10
-1574.717252
 20
-386.713592
 10
-1574.841718
 20
-386.871851
 10
-1574.964811
 20
-387.031425
 10
-1575.086539
 20
-387.192305
 10
-1575.20691
 20
-387.354484
 10
-1575.325933
 20
-387.517953
 10
-1575.443616
 20
-387.682705
 10
-1575.559966
 20
-387.848731
 10
-1575.674992
 20
-388.016024
 10
-1575.788703
 20
-388.184574
 10
-1575.901074
 20
-388.35429
 10
-1576.011952
 20
-388.524739
 10
-1576.121154
 20
-388.695405
 10
-1576.228494
 20
-388.86577
 10
-1576.333788
 20
-389.035319
 10
-1576.436852
 20
-389.203535
 10
-1576.537501
 20
-389.3699
 10
-1576.63555
 20
-389.533899
 10
-1576.730815
 20
-389.695014
 10
-1576.823111
 20
-389.852729
 10
-1576.912254
 20
-390.006527
 10
-1576.998059
 20
-390.155891
 10
-1577.080341
 20
-390.300305
 10
-1577.158917
 20
-390.439252
 10
-1577.233601
 20
-390.572215
 10
-1577.304209
 20
-390.698678
 10
-1577.370556
 20
-390.818124
 10
-1577.432458
 20
-390.930036
 10
-1577.48973
 20
-391.033898
 10
-1577.875449
 20
-391.734783
 10
-1577.875481
 20
-391.736124
 10
-1577.875709
 20
-391.74551
 10
-1577.876327
 20
-391.770986
 10
-1577.877531
 20
-391.820598
 10
-1577.879516
 20
-391.90239
 10
-1577.882476
 20
-392.024408
 10
-1577.886608
 20
-392.194697
 10
-1577.892106
 20
-392.421301
 10
-1577.899165
 20
-392.712267
 10
-1577.907981
 20
-393.075639
 10
-1577.91875
 20
-393.519463
 10
-1577.931665
 20
-394.051783
 10
-1577.946923
 20
-394.680645
 10
-1577.964718
 20
-395.414093
 10
-1577.985246
 20
-396.260174
 10
-1578.008702
 20
-397.226931
 10
-1578.035281
 20
-398.322411
 10
-1578.065178
 20
-399.554658
 10
-1578.098589
 20
-400.931718
 10
-1578.135708
 20
-402.461635
 10
-1578.176634
 20
-404.148433
 10
-1578.221073
 20
-405.980043
 10
-1578.268636
 20
-407.940375
 10
-1578.318931
 20
-410.013339
 10
-1578.371568
 20
-412.182845
 10
-1578.426158
 20
-414.432802
 10
-1578.482309
 20
-416.747121
 10
-1578.539631
 20
-419.10971
 10
-1578.597734
 20
-421.50448
 10
-1578.656227
 20
-423.91534
 10
-1578.71472
 20
-426.3262
 10
-1578.772823
 20
-428.72097
 10
-1578.830145
 20
-431.083559
 10
-1578.886296
 20
-433.397877
 10
-1578.940886
 20
-435.647834
 10
-1578.993523
 20
-437.81734
 10
-1579.043818
 20
-439.890304
 10
-1579.091381
 20
-441.850637
 10
-1579.13582
 20
-443.682247
 10
-1579.176746
 20
-445.369044
 10
-1579.213865
 20
-446.898962
 10
-1579.247276
 20
-448.276021
 10
-1579.277173
 20
-449.508268
 10
-1579.303752
 20
-450.603748
 10
-1579.327208
 20
-451.570506
 10
-1579.347736
 20
-452.416586
 10
-1579.365531
 20
-453.150035
 10
-1579.380789
 20
-453.778896
 10
-1579.393704
 20
-454.311216
 10
-1579.404473
 20
-454.75504
 10
-1579.413289
 20
-455.118412
 10
-1579.420349
 20
-455.409378
 10
-1579.425846
 20
-455.635983
 10
-1579.429978
 20
-455.806271
 10
-1579.432939
 20
-455.928289
 10
-1579.434923
 20
-456.010082
 10
-1579.436127
 20
-456.059693
 10
-1579.436745
 20
-456.08517
 10
-1579.436973
 20
-456.094556
 10
-1579.437005
 20
-456.095897
 10
-1579.437002
 20
-456.095897
 10
-1579.436993
 20
-456.095898
 10
-1579.436976
 20
-456.095901
 10
-1579.436949
 20
-456.095905
 10
-1579.436908
 20
-456.095911
 10
-1579.436851
 20
-456.09592
 10
-1579.436775
 20
-456.095931
 10
-1579.436677
 20
-456.095945
 10
-1579.436556
 20
-456.095964
 10
-1579.436407
 20
-456.095986
 10
-1579.436228
 20
-456.096013
 10
-1579.436017
 20
-456.096044
 10
-1579.435772
 20
-456.096081
 10
-1579.435488
 20
-456.096123
 10
-1579.435164
 20
-456.096172
 10
-1579.434796
 20
-456.096227
 10
-1579.434383
 20
-456.096288
 10
-1579.433922
 20
-456.096357
 10
-1579.433409
 20
-456.096434
 10
-1579.432843
 20
-456.096518
 10
-1579.432229
 20
-456.09661
 10
-1579.431572
 20
-456.096708
 10
-1579.430877
 20
-456.096812
 10
-1579.43015
 20
-456.096921
 10
-1579.429395
 20
-456.097034
 10
-1579.428619
 20
-456.09715
 10
-1579.427827
 20
-456.097268
 10
-1579.427024
 20
-456.097388
 10
-1579.426216
 20
-456.097509
 10
-1579.425408
 20
-456.097629
 10
-1579.424605
 20
-456.097749
 10
-1579.423813
 20
-456.097868
 10
-1579.423037
 20
-456.097984
 10
-1579.422283
 20
-456.098096
 10
-1579.421555
 20
-456.098205
 10
-1579.42086
 20
-456.098309
 10
-1579.420203
 20
-456.098407
 10
-1579.419589
 20
-456.098499
 10
-1579.419023
 20
-456.098583
 10
-1579.41851
 20
-456.09866
 10
-1579.418049
 20
-456.098729
 10
-1579.417636
 20
-456.098791
 10
-1579.417268
 20
-456.098846
 10
-1579.416944
 20
-456.098894
 10
-1579.416661
 20
-456.098936
 10
-1579.416415
 20
-456.098973
 10
-1579.416204
 20
-456.099005
 10
-1579.416025
 20
-456.099031
 10
-1579.415877
 20
-456.099054
 10
-1579.415755
 20
-456.099072
 10
-1579.415657
 20
-456.099086
 10
-1579.415581
 20
-456.099098
 10
-1579.415524
 20
-456.099106
 10
-1579.415483
 20
-456.099112
 10
-1579.415456
 20
-456.099117
 10
-1579.415439
 20
-456.099119
 10
-1579.415431
 20
-456.09912
 10
-1579.415428
 20
-456.099121
 10
-1579.415427
 20
-456.099121
 10
-1579.415433
 20
-456.099349
 10
-1579.415471
 20
-456.100949
 10
-1579.415577
 20
-456.105292
 10
-1579.415782
 20
-456.113748
 10
-1579.416121
 20
-456.12769
 10
-1579.416626
 20
-456.148488
 10
-1579.417331
 20
-456.177515
 10
-1579.418268
 20
-456.21614
 10
-1579.419473
 20
-456.265736
 10
-1579.420977
 20
-456.327674
 10
-1579.422813
 20
-456.403326
 10
-1579.425017
 20
-456.494062
 10
-1579.427619
 20
-456.601253
 10
-1579.430655
 20
-456.726272
 10
-1579.434157
 20
-456.870489
 10
-1579.438158
 20
-457.035277
 10
-1579.442692
 20
-457.222005
 10
-1579.447792
 20
-457.432046
 10
-1579.453491
 20
-457.666771
 10
-1579.459823
 20
-457.92755
 10
-1579.466805
 20
-458.215071
 10
-1579.474385
 20
-458.527275
 10
-1579.482499
 20
-458.861421
 10
-1579.491078
 20
-459.214765
 10
-1579.500057
 20
-459.584564
 10
-1579.509369
 20
-459.968078
 10
-1579.518948
 20
-460.362561
 10
-1579.528726
 20
-460.765273
 10
-1579.538638
 20
-461.17347
 10
-1579.548616
 20
-461.584409
 10
-1579.558594
 20
-461.995349
 10
-1579.568505
 20
-462.403546
 10
-1579.578283
 20
-462.806257
 10
-1579.587862
 20
-463.200741
 10
-1579.597174
 20
-463.584254
 10
-1579.606153
 20
-463.954054
 10
-1579.614733
 20
-464.307398
 10
-1579.622846
 20
-464.641543
 10
-1579.630427
 20
-464.953748
 10
-1579.637408
 20
-465.241268
 10
-1579.64374
 20
-465.502048
 10
-1579.649439
 20
-465.736772
 10
-1579.654539
 20
-465.946813
 10
-1579.659073
 20
-466.133542
 10
-1579.663075
 20
-466.298329
 10
-1579.666576
 20
-466.442546
 10
-1579.669612
 20
-466.567565
 10
-1579.672215
 20
-466.674757
 10
-1579.674418
 20
-466.765493
 10
-1579.676255
 20
-466.841144
 10
-1579.677759
 20
-466.903082
 10
-1579.678963
 20
-466.952678
 10
-1579.679901
 20
-466.991304
 10
-1579.680606
 20
-467.02033
 10
-1579.681111
 20
-467.041128
 10
-1579.681449
 20
-467.05507
 10
-1579.681654
 20
-467.063527
 10
-1579.68176
 20
-467.067869
 10
-1579.681799
 20
-467.069469
 10
-1579.681804
 20
-467.069698
 10
-1579.687054
 20
-467.287173
 10
-1579.687858
 20
-467.321394
 10
-1579.688604
 20
-467.358687
 10
-1579.689154
 20
-467.398863
 10
-1579.689371
 20
-467.441733
 10
-1579.689119
 20
-467.487106
 10
-1579.68826
 20
-467.534794
 10
-1579.686657
 20
-467.584606
 10
-1579.684172
 20
-467.636354
 10
-1579.68067
 20
-467.689846
 10
-1579.676012
 20
-467.744895
 10
-1579.670061
 20
-467.80131
 10
-1579.662681
 20
-467.858902
 10
-1579.653735
 20
-467.917481
 10
-1579.643084
 20
-467.976857
 10
-1579.630592
 20
-468.036841
 10
-1579.616122
 20
-468.097244
 10
-1579.599537
 20
-468.157876
 10
-1579.580699
 20
-468.218546
 10
-1579.559472
 20
-468.279067
 10
-1579.535718
 20
-468.339247
 10
-1579.509341
 20
-468.398912
 10
-1579.480399
 20
-468.457941
 10
-1579.448995
 20
-468.516228
 10
-1579.415229
 20
-468.573667
 10
-1579.379201
 20
-468.630152
 10
-1579.341011
 20
-468.685576
 10
-1579.300761
 20
-468.739833
 10
-1579.25855
 20
-468.792817
 10
-1579.214479
 20
-468.844422
 10
-1579.168649
 20
-468.894541
 10
-1579.12116
 20
-468.943069
 10
-1579.072112
 20
-468.989898
 10
-1579.021606
 20
-469.034924
 10
-1578.969743
 20
-469.078039
 10
-1578.916623
 20
-469.119138
 10
-1578.862346
 20
-469.158114
 10
-1578.807013
 20
-469.194861
 10
-1578.750724
 20
-469.229273
 10
-1578.693581
 20
-469.261243
 10
-1578.635682
 20
-469.290666
 10
-1578.577146
 20
-469.317474
 10
-1578.518149
 20
-469.341756
 10
-1578.458888
 20
-469.363643
 10
-1578.399557
 20
-469.383262
 10
-1578.34035
 20
-469.400742
 10
-1578.281463
 20
-469.416212
 10
-1578.223089
 20
-469.429801
 10
-1578.165424
 20
-469.441637
 10
-1578.108662
 20
-469.45185
 10
-1578.052998
 20
-469.460567
 10
-1577.998626
 20
-469.467918
 10
-1577.945741
 20
-469.474031
 10
-1577.894539
 20
-469.479036
 10
-1577.845213
 20
-469.483061
 10
-1577.797958
 20
-469.486234
 10
-1577.752969
 20
-469.488685
 10
-1577.71044
 20
-469.490542
 10
-1577.670567
 20
-469.491934
 10
-1577.633543
 20
-469.49299
 10
-1577.383618
 20
-469.499088
 10
-1577.167714
 20
-469.504296
 10
-1577.13374
 20
-469.505094
 10
-1577.096716
 20
-469.505831
 10
-1577.05683
 20
-469.506369
 10
-1577.014269
 20
-469.50657
 10
-1576.969222
 20
-469.506295
 10
-1576.921877
 20
-469.505406
 10
-1576.872422
 20
-469.503764
 10
-1576.821045
 20
-469.501232
 10
-1576.767934
 20
-469.497669
 10
-1576.713278
 20
-469.492939
 10
-1576.657264
 20
-469.486902
 10
-1576.60008
 20
-469.479421
 10
-1576.541915
 20
-469.470356
 10
-1576.482957
 20
-469.459569
 10
-1576.423393
 20
-469.446922
 10
-1576.363413
 20
-469.432276
 10
-1576.303203
 20
-469.415493
 10
-1576.242952
 20
-469.396434
 10
-1576.182848
 20
-469.374961
 10
-1576.12308
 20
-469.350935
 10
-1576.063821
 20
-469.324259
 10
-1576.005192
 20
-469.294994
 10
-1575.947296
 20
-469.263243
 10
-1575.890242
 20
-469.229109
 10
-1575.834133
 20
-469.192694
 10
-1575.779075
 20
-469.1541
 10
-1575.725175
 20
-469.113431
 10
-1575.672538
 20
-469.070789
 10
-1575.62127
 20
-469.026276
 10
-1575.571476
 20
-468.979995
 10
-1575.523261
 20
-468.932049
 10
-1575.476733
 20
-468.88254
 10
-1575.431995
 20
-468.83157
 10
-1575.389155
 20
-468.779243
 10
-1575.348317
 20
-468.72566
 10
-1575.309587
 20
-468.670925
 10
-1575.273071
 20
-468.615139
 10
-1575.238874
 20
-468.558406
 10
-1575.207103
 20
-468.500828
 10
-1575.177862
 20
-468.442508
 10
-1575.151219
 20
-468.383563
 10
-1575.127085
 20
-468.324172
 10
-1575.105332
 20
-468.264531
 10
-1575.085831
 20
-468.204834
 10
-1575.068455
 20
-468.145276
 10
-1575.053076
 20
-468.086051
 10
-1575.039567
 20
-468.027354
 10
-1575.027798
 20
-467.969379
 10
-1575.017643
 20
-467.912322
 10
-1575.008974
 20
-467.856376
 10
-1575.001662
 20
-467.801737
 10
-1574.99558
 20
-467.748599
 10
-1574.9906
 20
-467.697157
 10
-1574.986593
 20
-467.647605
 10
-1574.983433
 20
-467.600138
 10
-1574.980991
 20
-467.554951
 10
-1574.97914
 20
-467.512238
 10
-1574.97775
 20
-467.472194
 10
-1574.976695
 20
-467.435014
 10
-1574.970597
 20
-467.184036
 10
-1574.970592
 20
-467.183814
 10
-1574.970554
 20
-467.182259
 10
-1574.970452
 20
-467.178038
 10
-1574.970252
 20
-467.169817
 10
-1574.969923
 20
-467.156265
 10
-1574.969432
 20
-467.136047
 10
-1574.968747
 20
-467.107831
 10
-1574.967835
 20
-467.070284
 10
-1574.966665
 20
-467.022073
 10
-1574.965203
 20
-466.961864
 10
-1574.963417
 20
-466.888325
 10
-1574.961276
 20
-466.800123
 10
-1574.958746
 20
-466.695924
 10
-1574.955795
 20
-466.574396
 10
-1574.952391
 20
-466.434205
 10
-1574.948501
 20
-466.274019
 10
-1574.944094
 20
-466.092504
 10
-1574.939137
 20
-465.888328
 10
-1574.933596
 20
-465.660157
 10
-1574.927441
 20
-465.406658
 10
-1574.920655
 20
-465.127166
 10
-1574.913286
 20
-464.823678
 10
-1574.905399
 20
-464.498863
 10
-1574.897059
 20
-464.155384
 10
-1574.888331
 20
-463.79591
 10
-1574.879279
 20
-463.423105
 10
-1574.869968
 20
-463.039635
 10
-1574.860463
 20
-462.648168
 10
-1574.850828
 20
-462.251368
 10
-1574.841129
 20
-461.851903
 10
-1574.83143
 20
-461.452437
 10
-1574.821795
 20
-461.055637
 10
-1574.81229
 20
-460.66417
 10
-1574.802979
 20
-460.2807
 10
-1574.793927
 20
-459.907895
 10
-1574.785199
 20
-459.548421
 10
-1574.776859
 20
-459.204942
 10
-1574.768972
 20
-458.880127
 10
-1574.761603
 20
-458.576639
 10
-1574.754817
 20
-458.297147
 10
-1574.748662
 20
-458.043648
 10
-1574.743122
 20
-457.815477
 10
-1574.738164
 20
-457.611301
 10
-1574.733757
 20
-457.429786
 10
-1574.729867
 20
-457.2696
 10
-1574.726463
 20
-457.129409
 10
-1574.723513
 20
-457.007881
 10
-1574.720983
 20
-456.903682
 10
-1574.718841
 20
-456.81548
 10
-1574.717055
 20
-456.741941
 10
-1574.715593
 20
-456.681732
 10
-1574.714423
 20
-456.633521
 10
-1574.713511
 20
-456.595974
 10
-1574.712826
 20
-456.567758
 10
-1574.712335
 20
-456.54754
 10
-1574.712006
 20
-456.533988
 10
-1574.711806
 20
-456.525767
 10
-1574.711704
 20
-456.521546
 10
-1574.711666
 20
-456.519991
 10
-1574.711661
 20
-456.519769
 10
-1574.003802
 20
-456.57545
 10
-1573.892388
 20
-456.584219
 10
-1573.770805
 20
-456.593817
 10
-1573.6395
 20
-456.604239
 10
-1573.498919
 20
-456.615479
 10
-1573.349512
 20
-456.62753
 10
-1573.191726
 20
-456.640388
 10
-1573.026009
 20
-456.654047
 10
-1572.852808
 20
-456.6685
 10
-1572.672572
 20
-456.683742
 10
-1572.485748
 20
-456.699767
 10
-1572.292783
 20
-456.716569
 10
-1572.094127
 20
-456.734142
 10
-1571.890225
 20
-456.752482
 10
-1571.681527
 20
-456.771581
 10
-1571.46848
 20
-456.791434
 10
-1571.251532
 20
-456.812035
 10
-1571.03113
 20
-456.833379
 10
-1570.807722
 20
-456.85546
 10
-1570.581756
 20
-456.878271
 10
-1570.353681
 20
-456.901808
 10
-1570.123953
 20
-456.926107
 10
-1569.893073
 20
-456.951381
 10
-1569.661552
 20
-456.977884
 10
-1569.429899
 20
-457.005872
 10
-1569.198625
 20
-457.035601
 10
-1568.96824
 20
-457.067325
 10
-1568.739254
 20
-457.101299
 10
-1568.512179
 20
-457.137779
 10
-1568.287523
 20
-457.17702
 10
-1568.065798
 20
-457.219278
 10
-1567.847514
 20
-457.264807
 10
-1567.63318
 20
-457.313862
 10
-1567.423308
 20
-457.366699
 10
-1567.218407
 20
-457.423574
 10
-1567.018989
 20
-457.48474
 10
-1566.825563
 20
-457.550455
 10
-1566.638639
 20
-457.620972
 10
-1566.458728
 20
-457.696546
 10
-1566.28634
 20
-457.777434
 10
-1566.121986
 20
-457.863891
 10
-1565.96605
 20
-457.956018
 10
-1565.818418
 20
-458.053309
 10
-1565.678849
 20
-458.155104
 10
-1565.547103
 20
-458.260741
 10
-1565.422939
 20
-458.369562
 10
-1565.306117
 20
-458.480907
 10
-1565.196396
 20
-458.594114
 10
-1565.093537
 20
-458.708524
 10
-1564.997299
 20
-458.823477
 10
-1564.907441
 20
-458.938313
 10
-1564.823723
 20
-459.052372
 10
-1564.745905
 20
-459.164994
 10
-1564.673746
 20
-459.275518
 10
-1564.607007
 20
-459.383284
 10
-1564.545446
 20
-459.487633
 10
-1564.488823
 20
-459.587904
 10
-1564.436898
 20
-459.683438
 10
-1564.389431
 20
-459.773574
 10
-1564.346182
 20
-459.857652
 10
-1564.05781
 20
-460.426883
 10
-1563.577471
 20
-461.374457
 10
-1563.502001
 20
-461.523635
 10
-1563.420426
 20
-461.686635
 10
-1563.333845
 20
-461.863066
 10
-1563.243358
 20
-462.052536
 10
-1563.150065
 20
-462.254654
 10
-1563.055065
 20
-462.469029
 10
-1562.959459
 20
-462.695269
 10
-1562.864346
 20
-462.932984
 10
-1562.770826
 20
-463.18178
 10
-1562.679998
 20
-463.441268
 10
-1562.592963
 20
-463.711056
 10
-1562.510819
 20
-463.990752
 10
-1562.434668
 20
-464.279966
 10
-1562.365607
 20
-464.578304
 10
-1562.304739
 20
-464.885378
 10
-1562.253161
 20
-465.200794
 10
-1562.211973
 20
-465.524161
 10
-1562.182276
 20
-465.855089
 10
-1562.16517
 20
-466.193185
 10
-1562.161753
 20
-466.538059
 10
-1562.172757
 20
-466.889289
 10
-1562.19744
 20
-467.246335
 10
-1562.234689
 20
-467.608626
 10
-1562.283394
 20
-467.975592
 10
-1562.342443
 20
-468.346663
 10
-1562.410724
 20
-468.721268
 10
-1562.487126
 20
-469.098838
 10
-1562.570538
 20
-469.478801
 10
-1562.659848
 20
-469.860588
 10
-1562.753945
 20
-470.243629
 10
-1562.851718
 20
-470.627352
 10
-1562.952054
 20
-471.011188
 10
-1563.053843
 20
-471.394567
 10
-1563.155973
 20
-471.776917
 10
-1563.257333
 20
-472.15767
 10
-1563.356811
 20
-472.536253
 10
-1563.453296
 20
-472.912099
 10
-1563.545676
 20
-473.284635
 10
-1563.632841
 20
-473.653291
 10
-1563.713678
 20
-474.017498
 10
-1563.787322
 20
-474.376692
 10
-1563.853892
 20
-474.730338
 10
-1563.913752
 20
-475.077908
 10
-1563.967267
 20
-475.418874
 10
-1564.014803
 20
-475.752708
 10
-1564.056722
 20
-476.078882
 10
-1564.093391
 20
-476.396869
 10
-1564.125174
 20
-476.706139
 10
-1564.152435
 20
-477.006166
 10
-1564.175539
 20
-477.296421
 10
-1564.19485
 20
-477.576376
 10
-1564.210735
 20
-477.845503
 10
-1564.223556
 20
-478.103275
 10
-1564.233679
 20
-478.349162
 10
-1564.241468
 20
-478.582638
 10
-1564.247288
 20
-478.803175
 10
-1564.251504
 20
-479.010243
 10
-1564.25448
 20
-479.203317
 10
-1564.256581
 20
-479.381866
 10
-1564.267886
 20
-480.584004
 10
-1564.268109
 20
-480.584159
 10
-1564.269671
 20
-480.585245
 10
-1564.27391
 20
-480.588193
 10
-1564.282165
 20
-480.593934
 10
-1564.295774
 20
-480.603399
 10
-1564.316076
 20
-480.617519
 10
-1564.34441
 20
-480.637225
 10
-1564.382114
 20
-480.663448
 10
-1564.430528
 20
-480.697119
 10
-1564.490988
 20
-480.739168
 10
-1564.564835
 20
-480.790528
 10
-1564.653407
 20
-480.852128
 10
-1564.758042
 20
-480.9249
 10
-1564.880079
 20
-481.009775
 10
-1565.020856
 20
-481.107684
 10
-1565.181713
 20
-481.219558
 10
-1565.363988
 20
-481.346327
 10
-1565.569019
 20
-481.488923
 10
-1565.798145
 20
-481.648277
 10
-1566.052705
 20
-481.82532
 10
-1566.333367
 20
-482.020517
 10
-1566.638125
 20
-482.232472
 10
-1566.964301
 20
-482.459322
 10
-1567.309217
 20
-482.699207
 10
-1567.670197
 20
-482.950263
 10
-1568.044562
 20
-483.210629
 10
-1568.429637
 20
-483.478443
 10
-1568.822743
 20
-483.751843
 10
-1569.221204
 20
-484.028967
 10
-1569.622342
 20
-484.307953
 10
-1570.02348
 20
-484.586939
 10
-1570.421941
 20
-484.864063
 10
-1570.815047
 20
-485.137463
 10
-1571.200122
 20
-485.405277
 10
-1571.574487
 20
-485.665643
 10
-1571.935467
 20
-485.916699
 10
-1572.280383
 20
-486.156583
 10
-1572.606559
 20
-486.383434
 10
-1572.911317
 20
-486.595389
 10
-1573.191979
 20
-486.790586
 10
-1573.446539
 20
-486.967628
 10
-1573.675665
 20
-487.126982
 10
-1573.880696
 20
-487.269579
 10
-1574.062971
 20
-487.396348
 10
-1574.223828
 20
-487.508222
 10
-1574.364605
 20
-487.606131
 10
-1574.486642
 20
-487.691006
 10
-1574.591277
 20
-487.763778
 10
-1574.679849
 20
-487.825378
 10
-1574.753696
 20
-487.876738
 10
-1574.814156
 20
-487.918787
 10
-1574.86257
 20
-487.952458
 10
-1574.900274
 20
-487.978681
 10
-1574.928608
 20
-487.998387
 10
-1574.94891
 20
-488.012507
 10
-1574.962519
 20
-488.021972
 10
-1574.970774
 20
-488.027713
 10
-1574.975013
 20
-488.030661
 10
-1574.976575
 20
-488.031747
 10
-1574.976798
 20
-488.031902
 10
-1575.155375
 20
-488.156079
 10
-1575.183462
 20
-488.175637
 10
-1575.213993
 20
-488.197056
 10
-1575.246736
 20
-488.220336
 10
-1575.281455
 20
-488.245474
 10
-1575.317916
 20
-488.272471
 10
-1575.355887
 20
-488.301324
 10
-1575.395132
 20
-488.332033
 10
-1575.435418
 20
-488.364596
 10
-1575.476511
 20
-488.399013
 10
-1575.518177
 20
-488.435281
 10
-1575.560181
 20
-488.473401
 10
-1575.602291
 20
-488.51337
 10
-1575.644271
 20
-488.555188
 10
-1575.685888
 20
-488.598853
 10
-1575.726908
 20
-488.644364
 10
-1575.767098
 20
-488.69172
 10
-1575.806222
 20
-488.74092
 10
-1575.844047
 20
-488.791963
 10
-1575.880339
 20
-488.844847
 10
-1575.914864
 20
-488.899571
 10
-1575.947423
 20
-488.956111
 10
-1575.977955
 20
-489.014345
 10
-1576.006433
 20
-489.074131
 10
-1576.032831
 20
-489.135324
 10
-1576.057123
 20
-489.197779
 10
-1576.079282
 20
-489.261354
 10
-1576.099282
 20
-489.325903
 10
-1576.117096
 20
-489.391283
 10
-1576.132699
 20
-489.45735
 10
-1576.146064
 20
-489.52396
 10
-1576.157164
 20
-489.590968
 10
-1576.165973
 20
-489.658231
 10
-1576.172466
 20
-489.725605
 10
-1576.176614
 20
-489.792945
 10
-1576.178393
 20
-489.860108
 10
-1576.177776
 20
-489.926949
 10
-1576.174736
 20
-489.993325
 10
-1576.169247
 20
-490.059091
 10
-1576.161283
 20
-490.124104
 10
-1576.150817
 20
-490.188219
 10
-1576.137865
 20
-490.251302
 10
-1576.122603
 20
-490.313263
 10
-1576.105251
 20
-490.374021
 10
-1576.086027
 20
-490.433494
 10
-1576.065152
 20
-490.491602
 10
-1576.042843
 20
-490.548263
 10
-1576.019319
 20
-490.603397
 10
-1575.9948
 20
-490.656924
 10
-1575.969504
 20
-490.708761
 10
-1575.943651
 20
-490.758828
 10
-1575.917458
 20
-490.807044
 10
-1575.891146
 20
-490.853328
 10
-1575.864932
 20
-490.8976
 10
-1575.839037
 20
-490.939778
 10
-1575.813678
 20
-490.979782
 10
-1575.789075
 20
-491.01753
 10
-1575.765446
 20
-491.052942
 10
-1575.743011
 20
-491.085936
 10
-1575.721989
 20
-491.116432
 10
-1575.579247
 20
-491.321686
 10
-1575.455897
 20
-491.49894
 10
-1575.436469
 20
-491.526819
 10
-1575.41519
 20
-491.557123
 10
-1575.39206
 20
-491.589619
 10
-1575.367078
 20
-491.624072
 10
-1575.340244
 20
-491.660251
 10
-1575.311556
 20
-491.697921
 10
-1575.281014
 20
-491.736849
 10
-1575.248618
 20
-491.776801
 10
-1575.214367
 20
-491.817543
 10
-1575.17826
 20
-491.858843
 10
-1575.140298
 20
-491.900467
 10
-1575.100478
 20
-491.94218
 10
-1575.058801
 20
-491.98375
 10
-1575.015267
 20
-492.024944
 10
-1574.969873
 20
-492.065527
 10
-1574.922621
 20
-492.105266
 10
-1574.873509
 20
-492.143928
 10
-1574.822537
 20
-492.181278
 10
-1574.769704
 20
-492.217085
 10
-1574.715009
 20
-492.251113
 10
-1574.658477
 20
-492.283165
 10
-1574.600228
 20
-492.31318
 10
-1574.540407
 20
-492.341135
 10
-1574.47916
 20
-492.367004
 10
-1574.416631
 20
-492.390763
 10
-1574.352966
 20
-492.412386
 10
-1574.288311
 20
-492.43185
 10
-1574.222809
 20
-492.44913
 10
-1574.156608
 20
-492.4642
 10
-1574.08985
 20
-492.477037
 10
-1574.022683
 20
-492.487615
 10
-1573.955251
 20
-492.495909
 10
-1573.887698
 20
-492.501896
 10
-1573.820172
 20
-492.50555
 10
-1573.752815
 20
-492.506847
 10
-1573.685775
 20
-492.505761
 10
-1573.619196
 20
-492.502269
 10
-1573.553222
 20
-492.496345
 10
-1573.488
 20
-492.487965
 10
-1573.423675
 20
-492.477104
 10
-1573.36038
 20
-492.463778
 10
-1573.298209
 20
-492.448164
 10
-1573.237242
 20
-492.430481
 10
-1573.177562
 20
-492.410947
 10
-1573.119248
 20
-492.38978
 10
-1573.062384
 20
-492.367199
 10
-1573.00705
 20
-492.343421
 10
-1572.953328
 20
-492.318664
 10
-1572.901299
 20
-492.293148
 10
-1572.851045
 20
-492.26709
 10
-1572.802647
 20
-492.240708
 10
-1572.756187
 20
-492.214221
 10
-1572.711745
 20
-492.187846
 10
-1572.669405
 20
-492.161802
 10
-1572.629246
 20
-492.136308
 10
-1572.59135
 20
-492.111581
 10
-1572.555799
 20
-492.087839
 10
-1572.522675
 20
-492.065301
 10
-1572.492058
 20
-492.044185
 10
-1572.285991
 20
-491.900821
 10
-1572.285824
 20
-491.900705
 10
-1572.284659
 20
-491.899895
 10
-1572.281496
 20
-491.897695
 10
-1572.275337
 20
-491.89341
 10
-1572.265182
 20
-491.886347
 10
-1572.250033
 20
-491.87581
 10
-1572.228891
 20
-491.861105
 10
-1572.200758
 20
-491.841536
 10
-1572.164634
 20
-491.81641
 10
-1572.11952
 20
-491.78503
 10
-1572.064419
 20
-491.746704
 10
-1571.99833
 20
-491.700735
 10
-1571.920255
 20
-491.646429
 10
-1571.829196
 20
-491.583091
 10
-1571.724153
 20
-491.510027
 10
-1571.604128
 20
-491.426542
 10
-1571.468122
 20
-491.331941
 10
-1571.315136
 20
-491.225529
 10
-1571.144171
 20
-491.106612
 10
-1570.954228
 20
-490.974495
 10
-1570.744809
 20
-490.82883
 10
-1570.51741
 20
-490.670659
 10
-1570.274031
 20
-490.501373
 10
-1570.016668
 20
-490.322361
 10
-1569.747319
 20
-490.135011
 10
-1569.467982
 20
-489.940714
 10
-1569.180654
 20
-489.740859
 10
-1568.887333
 20
-489.536836
 10
-1568.590017
 20
-489.330033
 10
-1568.290704
 20
-489.121841
 10
-1567.99139
 20
-488.91365
 10
-1567.694074
 20
-488.706847
 10
-1567.400754
 20
-488.502824
 10
-1567.113426
 20
-488.302969
 10
-1566.834089
 20
-488.108672
 10
-1566.56474
 20
-487.921322
 10
-1566.307377
 20
-487.74231
 10
-1566.063997
 20
-487.573024
 10
-1565.836599
 20
-487.414853
 10
-1565.627179
 20
-487.269188
 10
-1565.437236
 20
-487.137071
 10
-1565.266271
 20
-487.018154
 10
-1565.113285
 20
-486.911742
 10
-1564.977279
 20
-486.817141
 10
-1564.857254
 20
-486.733656
 10
-1564.752211
 20
-486.660592
 10
-1564.661152
 20
-486.597254
 10
-1564.583077
 20
-486.542948
 10
-1564.516989
 20
-486.496979
 10
-1564.461887
 20
-486.458653
 10
-1564.416774
 20
-486.427273
 10
-1564.380649
 20
-486.402147
 10
-1564.352516
 20
-486.382578
 10
-1564.331374
 20
-486.367873
 10
-1564.316225
 20
-486.357336
 10
-1564.306071
 20
-486.350272
 10
-1564.299911
 20
-486.345988
 10
-1564.296748
 20
-486.343788
 10
-1564.295583
 20
-486.342978
 10
-1564.295417
 20
-486.342862
 10
-1564.302031
 20
-488.067493
 10
-1564.30306
 20
-488.33882
 10
-1564.304118
 20
-488.634199
 10
-1564.305133
 20
-488.951814
 10
-1564.306032
 20
-489.289848
 10
-1564.306746
 20
-489.646484
 10
-1564.307203
 20
-490.019905
 10
-1564.307331
 20
-490.408295
 10
-1564.30706
 20
-490.809835
 10
-1564.306317
 20
-491.222711
 10
-1564.305033
 20
-491.645104
 10
-1564.303135
 20
-492.075197
 10
-1564.300551
 20
-492.511175
 10
-1564.297212
 20
-492.95122
 10
-1564.293046
 20
-493.393515
 10
-1564.287981
 20
-493.836244
 10
-1564.281945
 20
-494.277589
 10
-1564.274869
 20
-494.715733
 10
-1564.26668
 20
-495.14886
 10
-1564.257308
 20
-495.575154
 10
-1564.24668
 20
-495.992796
 10
-1564.234905
 20
-496.400402
 10
-1564.222804
 20
-496.798313
 10
-1564.211378
 20
-497.187301
 10
-1564.201628
 20
-497.568139
 10
-1564.194555
 20
-497.941599
 10
-1564.191159
 20
-498.308455
 10
-1564.192441
 20
-498.669479
 10
-1564.199402
 20
-499.025442
 10
-1564.213041
 20
-499.377119
 10
-1564.234362
 20
-499.725281
 10
-1564.264362
 20
-500.070702
 10
-1564.304045
 20
-500.414153
 10
-1564.35441
 20
-500.756407
 10
-1564.416457
 20
-501.098237
 10
-1564.491189
 20
-501.440416
 10
-1564.579604
 20
-501.783715
 10
-1564.682705
 20
-502.128909
 10
-1564.801492
 20
-502.476768
 10
-1564.936965
 20
-502.828067
 10
-1565.090125
 20
-503.183577
 10
-1565.261506
 20
-503.543731
 10
-1565.449767
 20
-503.9076
 10
-1565.653101
 20
-504.273916
 10
-1565.8697
 20
-504.641411
 10
-1566.097758
 20
-505.008816
 10
-1566.335466
 20
-505.374863
 10
-1566.581018
 20
-505.738283
 10
-1566.832606
 20
-506.097807
 10
-1567.088422
 20
-506.452167
 10
-1567.346659
 20
-506.800096
 10
-1567.60551
 20
-507.140323
 10
-1567.863166
 20
-507.471581
 10
-1568.117822
 20
-507.792601
 10
-1568.367668
 20
-508.102115
 10
-1568.610899
 20
-508.398855
 10
-1568.845706
 20
-508.681551
 10
-1569.070281
 20
-508.948935
 10
-1569.282818
 20
-509.199739
 10
-1569.48151
 20
-509.432694
 10
-1570.828604
 20
-511.005577
 10
-1571.238753
 20
-511.484304
 10
-1571.30329
 20
-511.559645
 10
-1571.373612
 20
-511.641818
 10
-1571.449351
 20
-511.730472
 10
-1571.530141
 20
-511.825259
 10
-1571.615614
 20
-511.925829
 10
-1571.705403
 20
-512.031832
 10
-1571.799139
 20
-512.142918
 10
-1571.896457
 20
-512.258739
 10
-1571.996988
 20
-512.378944
 10
-1572.100366
 20
-512.503185
 10
-1572.206222
 20
-512.631111
 10
-1572.314191
 20
-512.762373
 10
-1572.423903
 20
-512.896622
 10
-1572.534993
 20
-513.033508
 10
-1572.647092
 20
-513.172682
 10
-1572.759834
 20
-513.313793
 10
-1572.872851
 20
-513.456493
 10
-1572.985775
 20
-513.600432
 10
-1573.09824
 20
-513.74526
 10
-1573.209878
 20
-513.890628
 10
-1573.320382
 20
-514.036245
 10
-1573.429685
 20
-514.182054
 10
-1573.537779
 20
-514.328055
 10
-1573.644657
 20
-514.474249
 10
-1573.750313
 20
-514.620639
 10
-1573.854738
 20
-514.767224
 10
-1573.957927
 20
-514.914006
 10
-1574.059872
 20
-515.060985
 10
-1574.160565
 20
-515.208164
 10
-1574.26
 20
-515.355543
 10
-1574.358169
 20
-515.503124
 10
-1574.455066
 20
-515.650906
 10
-1574.550682
 20
-515.798892
 10
-1574.645012
 20
-515.947082
 10
-1574.738048
 20
-516.095478
 10
-1574.829783
 20
-516.244081
 10
-1574.920209
 20
-516.392891
 10
-1575.00932
 20
-516.54191
 10
-1575.097108
 20
-516.691139
 10
-1575.183567
 20
-516.840579
 10
-1575.268671
 20
-516.990166
 10
-1575.352324
 20
-517.139575
 10
-1575.434411
 20
-517.288417
 10
-1575.514819
 20
-517.436301
 10
-1575.593434
 20
-517.582838
 10
-1575.67014
 20
-517.727639
 10
-1575.744824
 20
-517.870313
 10
-1575.817372
 20
-518.010471
 10
-1575.88767
 20
-518.147723
 10
-1575.955602
 20
-518.281678
 10
-1576.021056
 20
-518.411949
 10
-1576.083916
 20
-518.538143
 10
-1576.144069
 20
-518.659873
 10
-1576.2014
 20
-518.776748
 10
-1576.255796
 20
-518.888378
 10
-1576.307141
 20
-518.994373
 10
-1576.355322
 20
-519.094344
 10
-1576.400225
 20
-519.187901
 10
-1576.441735
 20
-519.274655
 10
-1576.721147
 20
-519.859769
 10
-1576.863761
 20
-522.677317
 10
-1576.886202
 20
-523.120723
 10
-1576.910659
 20
-523.604249
 10
-1576.93701
 20
-524.12575
 10
-1576.96513
 20
-524.683083
 10
-1576.994897
 20
-525.274103
 10
-1577.026188
 20
-525.896667
 10
-1577.058879
 20
-526.548631
 10
-1577.092849
 20
-527.227851
 10
-1577.127973
 20
-527.932184
 10
-1577.164128
 20
-528.659484
 10
-1577.201191
 20
-529.407609
 10
-1577.23904
 20
-530.174414
 10
-1577.277552
 20
-530.957756
 10
-1577.316602
 20
-531.755491
 10
-1577.356068
 20
-532.565474
 10
-1577.395828
 20
-533.385563
 10
-1577.435757
 20
-534.213612
 10
-1577.475733
 20
-535.047479
 10
-1577.515633
 20
-535.885019
 10
-1577.555333
 20
-536.724088
 10
-1577.594728
 20
-537.56291
 10
-1577.633777
 20
-538.40118
 10
-1577.672456
 20
-539.238958
 10
-1577.710743
 20
-540.076307
 10
-1577.748613
 20
-540.913287
 10
-1577.786044
 20
-541.749961
 10
-1577.823012
 20
-542.586391
 10
-1577.859493
 20
-543.422637
 10
-1577.895465
 20
-544.258761
 10
-1577.930903
 20
-545.094825
 10
-1577.965784
 20
-545.930891
 10
-1578.000085
 20
-546.76702
 10
-1578.033782
 20
-547.603274
 10
-1578.066853
 20
-548.439714
 10
-1578.099272
 20
-549.276402
 10
-1578.131018
 20
-550.113399
 10
-1578.162066
 20
-550.950768
 10
-1578.192393
 20
-551.78857
 10
-1578.221976
 20
-552.626866
 10
-1578.250791
 20
-553.465717
 10
-1578.278817
 20
-554.304819
 10
-1578.30604
 20
-555.142394
 10
-1578.332449
 20
-555.976299
 10
-1578.358031
 20
-556.804388
 10
-1578.382775
 20
-557.624518
 10
-1578.406669
 20
-558.434545
 10
-1578.429701
 20
-559.232324
 10
-1578.451861
 20
-560.015712
 10
-1578.473135
 20
-560.782563
 10
-1578.493513
 20
-561.530735
 10
-1578.512983
 20
-562.258082
 10
-1578.531532
 20
-562.96246
 10
-1578.54915
 20
-563.641726
 10
-1578.565824
 20
-564.293734
 10
-1578.581542
 20
-564.916342
 10
-1578.596294
 20
-565.507404
 10
-1578.610067
 20
-566.064777
 10
-1578.62285
 20
-566.586315
 10
-1578.63463
 20
-567.069876
 10
-1578.713768
 20
-570.331069
 10
-1578.713775
 20
-570.331319
 10
-1578.713817
 20
-570.333069
 10
-1578.713932
 20
-570.337819
 10
-1578.714157
 20
-570.347069
 10
-1578.714527
 20
-570.362319
 10
-1578.715079
 20
-570.385069
 10
-1578.715849
 20
-570.416818
 10
-1578.716874
 20
-570.459068
 10
-1578.718191
 20
-570.513317
 10
-1578.719835
 20
-570.581067
 10
-1578.721843
 20
-570.663816
 10
-1578.724251
 20
-570.763065
 10
-1578.727096
 20
-570.880314
 10
-1578.730414
 20
-571.017062
 10
-1578.734242
 20
-571.17481
 10
-1578.738616
 20
-571.355059
 10
-1578.743572
 20
-571.559306
 10
-1578.749147
 20
-571.789054
 10
-1578.755377
 20
-572.045801
 10
-1578.762298
 20
-572.331048
 10
-1578.76993
 20
-572.645545
 10
-1578.778216
 20
-572.987042
 10
-1578.787085
 20
-573.352538
 10
-1578.796464
 20
-573.739034
 10
-1578.806279
 20
-574.143529
 10
-1578.816458
 20
-574.563025
 10
-1578.826928
 20
-574.994521
 10
-1578.837617
 20
-575.435016
 10
-1578.848451
 20
-575.881511
 10
-1578.859358
 20
-576.331007
 10
-1578.870265
 20
-576.780502
 10
-1578.8811
 20
-577.226997
 10
-1578.891788
 20
-577.667493
 10
-1578.902259
 20
-578.098988
 10
-1578.912438
 20
-578.518484
 10
-1578.922253
 20
-578.922979
 10
-1578.931632
 20
-579.309475
 10
-1578.9405
 20
-579.674971
 10
-1578.948787
 20
-580.016468
 10
-1578.956418
 20
-580.330965
 10
-1578.96334
 20
-580.616212
 10
-1578.96957
 20
-580.872959
 10
-1578.975145
 20
-581.102707
 10
-1578.980101
 20
-581.306954
 10
-1578.984475
 20
-581.487203
 10
-1578.988302
 20
-581.644951
 10
-1578.991621
 20
-581.781699
 10
-1578.994466
 20
-581.898948
 10
-1578.996874
 20
-581.998197
 10
-1578.998882
 20
-582.080946
 10
-1579.000526
 20
-582.148696
 10
-1579.001842
 20
-582.202945
 10
-1579.002867
 20
-582.245195
 10
-1579.003638
 20
-582.276944
 10
-1579.00419
 20
-582.299694
 10
-1579.00456
 20
-582.314944
 10
-1579.004784
 20
-582.324194
 10
-1579.0049
 20
-582.328944
 10
-1579.004942
 20
-582.330694
 10
-1579.004948
 20
-582.330944
 10
-1579.010239
 20
-582.548419
 10
-1579.01105
 20
-582.58264
 10
-1579.011802
 20
-582.619933
 10
-1579.01236
 20
-582.660109
 10
-1579.012585
 20
-582.702979
 10
-1579.012341
 20
-582.748352
 10
-1579.01149
 20
-582.79604
 10
-1579.009895
 20
-582.845852
 10
-1579.007419
 20
-582.8976
 10
-1579.003925
 20
-582.951093
 10
-1578.999275
 20
-583.006141
 10
-1578.993332
 20
-583.062556
 10
-1578.985959
 20
-583.120148
 10
-1578.977019
 20
-583.178727
 10
-1578.966374
 20
-583.238103
 10
-1578.953888
 20
-583.298088
 10
-1578.939422
 20
-583.35849
 10
-1578.922841
 20
-583.419122
 10
-1578.904006
 20
-583.479793
 10
-1578.882781
 20
-583.540313
 10
-1578.859028
 20
-583.600493
 10
-1578.832649
 20
-583.660158
 10
-1578.803706
 20
-583.719187
 10
-1578.772299
 20
-583.777474
 10
-1578.738529
 20
-583.834913
 10
-1578.702496
 20
-583.891397
 10
-1578.6643
 20
-583.946821
 10
-1578.624043
 20
-584.001077
 10
-1578.581825
 20
-584.05406
 10
-1578.537746
 20
-584.105664
 10
-1578.491906
 20
-584.155782
 10
-1578.444407
 20
-584.204308
 10
-1578.39535
 20
-584.251136
 10
-1578.344833
 20
-584.296159
 10
-1578.292959
 20
-584.339271
 10
-1578.239827
 20
-584.380367
 10
-1578.185539
 20
-584.419339
 10
-1578.130194
 20
-584.456082
 10
-1578.073893
 20
-584.490489
 10
-1578.016737
 20
-584.522454
 10
-1577.958826
 20
-584.55187
 10
-1577.900277
 20
-584.578672
 10
-1577.841268
 20
-584.602948
 10
-1577.781995
 20
-584.624827
 10
-1577.722652
 20
-584.644438
 10
-1577.663433
 20
-584.661909
 10
-1577.604533
 20
-584.677371
 10
-1577.546148
 20
-584.690951
 10
-1577.488471
 20
-584.702778
 10
-1577.431698
 20
-584.712981
 10
-1577.376023
 20
-584.721689
 10
-1577.32164
 20
-584.729031
 10
-1577.268745
 20
-584.735135
 10
-1577.217533
 20
-584.740131
 10
-1577.168197
 20
-584.744146
 10
-1577.120933
 20
-584.747311
 10
-1577.075935
 20
-584.749753
 10
-1577.033398
 20
-584.751603
 10
-1576.993517
 20
-584.752987
 10
-1576.956487
 20
-584.754036
 10
-1576.706514
 20
-584.760086
 10
-1576.706512
 20
-584.760086
 10
-1576.7065
 20
-584.760086
 10
-1576.706465
 20
-584.760087
 10
-1576.706398
 20
-584.760087
 10
-1576.706288
 20
-584.760088
 10
-1576.706123
 20
-584.760089
 10
-1576.705894
 20
-584.760091
 10
-1576.705588
 20
-584.760094
 10
-1576.705196
 20
-584.760097
 10
-1576.704706
 20
-584.760102
 10
-1576.704107
 20
-584.760107
 10
-1576.703389
 20
-584.760113
 10
-1576.702541
 20
-584.76012
 10
-1576.701552
 20
-584.760129
 10
-1576.70041
 20
-584.760138
 10
-1576.699106
 20
-584.76015
 10
-1576.697629
 20
-584.760162
 10
-1576.695967
 20
-584.760177
 10
-1576.69411
 20
-584.760192
 10
-1576.692046
 20
-584.76021
 10
-1576.689771
 20
-584.76023
 10
-1576.687301
 20
-584.760251
 10
-1576.684656
 20
-584.760273
 10
-1576.681861
 20
-584.760297
 10
-1576.678934
 20
-584.760323
 10
-1576.6759
 20
-584.760349
 10
-1576.672778
 20
-584.760375
 10
-1576.669592
 20
-584.760403
 10
-1576.666362
 20
-584.76043
 10
-1576.66311
 20
-584.760458
 10
-1576.659858
 20
-584.760486
 10
-1576.656628
 20
-584.760514
 10
-1576.653442
 20
-584.760541
 10
-1576.65032
 20
-584.760568
 10
-1576.647286
 20
-584.760594
 10
-1576.644359
 20
-584.760619
 10
-1576.641563
 20
-584.760643
 10
-1576.638919
 20
-584.760666
 10
-1576.636449
 20
-584.760687
 10
-1576.634174
 20
-584.760706
 10
-1576.63211
 20
-584.760724
 10
-1576.630253
 20
-584.76074
 10
-1576.628591
 20
-584.760754
 10
-1576.627113
 20
-584.760767
 10
-1576.62581
 20
-584.760778
 10
-1576.624668
 20
-584.760788
 10
-1576.623679
 20
-584.760796
 10
-1576.622831
 20
-584.760803
 10
-1576.622113
 20
-584.76081
 10
-1576.621514
 20
-584.760815
 10
-1576.621024
 20
-584.760819
 10
-1576.620632
 20
-584.760822
 10
-1576.620326
 20
-584.760825
 10
-1576.620096
 20
-584.760827
 10
-1576.619932
 20
-584.760828
 10
-1576.619822
 20
-584.760829
 10
-1576.619755
 20
-584.76083
 10
-1576.61972
 20
-584.76083
 10
-1576.619708
 20
-584.76083
 10
-1576.619706
 20
-584.76083
 10
-1576.619704
 20
-584.76083
 10
-1576.619691
 20
-584.760831
 10
-1576.619657
 20
-584.760832
 10
-1576.619591
 20
-584.760835
 10
-1576.619481
 20
-584.760839
 10
-1576.619317
 20
-584.760846
 10
-1576.619089
 20
-584.760855
 10
-1576.618785
 20
-584.760867
 10
-1576.618395
 20
-584.760883
 10
-1576.617908
 20
-584.760903
 10
-1576.617312
 20
-584.760926
 10
-1576.616599
 20
-584.760955
 10
-1576.615755
 20
-584.760989
 10
-1576.614772
 20
-584.761029
 10
-1576.613637
 20
-584.761074
 10
-1576.612341
 20
-584.761127
 10
-1576.610871
 20
-584.761186
 10
-1576.609219
 20
-584.761252
 10
-1576.607372
 20
-584.761326
 10
-1576.60532
 20
-584.761409
 10
-1576.603058
 20
-584.7615
 10
-1576.600602
 20
-584.761599
 10
-1576.597973
 20
-584.761704
 10
-1576.595193
 20
-584.761816
 10
-1576.592284
 20
-584.761933
 10
-1576.589266
 20
-584.762055
 10
-1576.586163
 20
-584.76218
 10
-1576.582994
 20
-584.762307
 10
-1576.579783
 20
-584.762436
 10
-1576.57655
 20
-584.762566
 10
-1576.573317
 20
-584.762696
 10
-1576.570105
 20
-584.762826
 10
-1576.566937
 20
-584.762953
 10
-1576.563833
 20
-584.763078
 10
-1576.560816
 20
-584.763199
 10
-1576.557906
 20
-584.763316
 10
-1576.555126
 20
-584.763428
 10
-1576.552497
 20
-584.763534
 10
-1576.550041
 20
-584.763633
 10
-1576.547779
 20
-584.763724
 10
-1576.545727
 20
-584.763806
 10
-1576.543881
 20
-584.763881
 10
-1576.542228
 20
-584.763947
 10
-1576.540759
 20
-584.764006
 10
-1576.539462
 20
-584.764058
 10
-1576.538328
 20
-584.764104
 10
-1576.537344
 20
-584.764144
 10
-1576.536501
 20
-584.764178
 10
-1576.535787
 20
-584.764206
 10
-1576.535192
 20
-584.76423
 10
-1576.534705
 20
-584.76425
 10
-1576.534314
 20
-584.764265
 10
-1576.53401
 20
-584.764278
 10
-1576.533782
 20
-584.764287
 10
-1576.533618
 20
-584.764293
 10
-1576.533509
 20
-584.764298
 10
-1576.533442
 20
-584.764301
 10
-1576.533408
 20
-584.764302
 10
-1576.533395
 20
-584.764302
 10
-1576.533394
 20
-584.764303
 10
-1576.317406
 20
-584.769594
 10
-1576.28342
 20
-584.770404
 10
-1576.246382
 20
-584.771155
 10
-1576.206481
 20
-584.771708
 10
-1576.163904
 20
-584.771925
 10
-1576.118842
 20
-584.771666
 10
-1576.071481
 20
-584.770794
 10
-1576.02201
 20
-584.76917
 10
-1575.970617
 20
-584.766654
 10
-1575.917492
 20
-584.76311
 10
-1575.862821
 20
-584.758396
 10
-1575.806793
 20
-584.752377
 10
-1575.749597
 20
-584.744911
 10
-1575.691421
 20
-584.735862
 10
-1575.632454
 20
-584.72509
 10
-1575.572882
 20
-584.712457
 10
-1575.512896
 20
-584.697824
 10
-1575.452683
 20
-584.681053
 10
-1575.392432
 20
-584.662004
 10
-1575.33233
 20
-584.64054
 10
-1575.272566
 20
-584.616522
 10
-1575.213315
 20
-584.589851
 10
-1575.154696
 20
-584.560589
 10
-1575.096814
 20
-584.528841
 10
-1575.039774
 20
-584.494707
 10
-1574.983682
 20
-584.458291
 10
-1574.928643
 20
-584.419696
 10
-1574.874763
 20
-584.379025
 10
-1574.822147
 20
-584.336379
 10
-1574.7709
 20
-584.291862
 10
-1574.721127
 20
-584.245577
 10
-1574.672934
 20
-584.197626
 10
-1574.626427
 20
-584.148112
 10
-1574.58171
 20
-584.097137
 10
-1574.538889
 20
-584.044805
 10
-1574.49807
 20
-583.991218
 10
-1574.459357
 20
-583.936478
 10
-1574.422856
 20
-583.88069
 10
-1574.388673
 20
-583.823954
 10
-1574.356912
 20
-583.766374
 10
-1574.327679
 20
-583.708053
 10
-1574.301041
 20
-583.649109
 10
-1574.276908
 20
-583.58972
 10
-1574.255154
 20
-583.530082
 10
-1574.23565
 20
-583.470389
 10
-1574.218268
 20
-583.410835
 10
-1574.202882
 20
-583.351615
 10
-1574.189363
 20
-583.292924
 10
-1574.177584
 20
-583.234956
 10
-1574.167417
 20
-583.177906
 10
-1574.158734
 20
-583.121968
 10
-1574.151408
 20
-583.067337
 10
-1574.14531
 20
-583.014207
 10
-1574.140315
 20
-582.962773
 10
-1574.136292
 20
-582.91323
 10
-1574.133116
 20
-582.865771
 10
-1574.130658
 20
-582.820592
 10
-1574.128791
 20
-582.777887
 10
-1574.127387
 20
-582.73785
 10
-1574.126318
 20
-582.700677
 10
-1574.120125
 20
-582.449747
 10
-1574.120119
 20
-582.449512
 10
-1574.120079
 20
-582.447866
 10
-1574.119971
 20
-582.443399
 10
-1574.11976
 20
-582.434701
 10
-1574.119412
 20
-582.420359
 10
-1574.118894
 20
-582.398965
 10
-1574.11817
 20
-582.369107
 10
-1574.117207
 20
-582.329376
 10
-1574.11597
 20
-582.278359
 10
-1574.114425
 20
-582.214646
 10
-1574.112539
 20
-582.136828
 10
-1574.110276
 20
-582.043493
 10
-1574.107603
 20
-581.933231
 10
-1574.104486
 20
-581.804631
 10
-1574.100889
 20
-581.656283
 10
-1574.09678
 20
-581.486775
 10
-1574.092124
 20
-581.294698
 10
-1574.086886
 20
-581.078641
 10
-1574.081033
 20
-580.837193
 10
-1574.07453
 20
-580.568943
 10
-1574.06736
 20
-580.273187
 10
-1574.059575
 20
-579.95204
 10
-1574.051242
 20
-579.608323
 10
-1574.042431
 20
-579.244857
 10
-1574.033209
 20
-578.864465
 10
-1574.023646
 20
-578.469966
 10
-1574.013809
 20
-578.064183
 10
-1574.003766
 20
-577.649936
 10
-1573.993587
 20
-577.230046
 10
-1573.98334
 20
-576.807336
 10
-1573.973092
 20
-576.384625
 10
-1573.962913
 20
-575.964736
 10
-1573.952871
 20
-575.550489
 10
-1573.943034
 20
-575.144705
 10
-1573.93347
 20
-574.750207
 10
-1573.924249
 20
-574.369814
 10
-1573.915437
 20
-574.006349
 10
-1573.907105
 20
-573.662632
 10
-1573.89932
 20
-573.341485
 10
-1573.89215
 20
-573.045728
 10
-1573.885647
 20
-572.777479
 10
-1573.879794
 20
-572.53603
 10
-1573.874556
 20
-572.319973
 10
-1573.869899
 20
-572.127896
 10
-1573.86579
 20
-571.958389
 10
-1573.862194
 20
-571.81004
 10
-1573.859076
 20
-571.68144
 10
-1573.856403
 20
-571.571178
 10
-1573.854141
 20
-571.477843
 10
-1573.852254
 20
-571.400025
 10
-1573.85071
 20
-571.336313
 10
-1573.849473
 20
-571.285296
 10
-1573.84851
 20
-571.245564
 10
-1573.847786
 20
-571.215706
 10
-1573.847267
 20
-571.194312
 10
-1573.84692
 20
-571.179971
 10
-1573.846709
 20
-571.171272
 10
-1573.8466
 20
-571.166805
 10
-1573.84656
 20
-571.16516
 10
-1573.846555
 20
-571.164924
 10
-1571.434485
 20
-570.942489
 10
-1571.055216
 20
-570.907761
 10
-1570.643561
 20
-570.871535
 10
-1570.203314
 20
-570.835648
 10
-1569.738269
 20
-570.801938
 10
-1569.252222
 20
-570.772242
 10
-1568.748966
 20
-570.748399
 10
-1568.232297
 20
-570.732246
 10
-1567.706008
 20
-570.725622
 10
-1567.173894
 20
-570.730362
 10
-1566.639751
 20
-570.748307
 10
-1566.107371
 20
-570.781293
 10
-1565.580551
 20
-570.831158
 10
-1565.063084
 20
-570.89974
 10
-1564.558765
 20
-570.988877
 10
-1564.071389
 20
-571.100406
 10
-1563.60475
 20
-571.236166
 10
-1563.162642
 20
-571.397994
 10
-1562.74886
 20
-571.587727
 10
-1562.3672
 20
-571.807205
 10
-1562.021454
 20
-572.058264
 10
-1561.71444
 20
-572.342115
 10
-1561.44506
 20
-572.657457
 10
-1561.211239
 20
-573.002365
 10
-1561.0109
 20
-573.37491
 10
-1560.841968
 20
-573.773164
 10
-1560.702367
 20
-574.195202
 10
-1560.590022
 20
-574.639095
 10
-1560.502857
 20
-575.102915
 10
-1560.438796
 20
-575.584737
 10
-1560.395763
 20
-576.082632
 10
-1560.371683
 20
-576.594672
 10
-1560.364481
 20
-577.118932
 10
-1560.372079
 20
-577.653483
 10
-1560.392403
 20
-578.196398
 10
-1560.423377
 20
-578.745749
 10
-1560.462925
 20
-579.29961
 10
-1560.508971
 20
-579.856053
 10
-1560.55944
 20
-580.413151
 10
-1560.612257
 20
-580.968976
 10
-1560.665344
 20
-581.521602
 10
-1560.716974
 20
-582.069256
 10
-1560.766804
 20
-582.610791
 10
-1560.814837
 20
-583.145216
 10
-1560.861078
 20
-583.67154
 10
-1560.90553
 20
-584.18877
 10
-1560.948198
 20
-584.695917
 10
-1560.989086
 20
-585.191988
 10
-1561.028197
 20
-585.675991
 10
-1561.065536
 20
-586.146936
 10
-1561.101106
 20
-586.603831
 10
-1561.134912
 20
-587.045685
 10
-1561.166958
 20
-587.471505
 10
-1561.197247
 20
-587.880302
 10
-1561.225784
 20
-588.271083
 10
-1561.252573
 20
-588.642857
 10
-1561.277617
 20
-588.994633
 10
-1561.300921
 20
-589.325418
 10
-1561.322489
 20
-589.634223
 10
-1561.342324
 20
-589.920054
 10
-1561.475389
 20
-591.845622
 10
-1561.530822
 20
-592.646408
 10
-1561.539561
 20
-592.772427
 10
-1561.549178
 20
-592.909836
 10
-1561.559721
 20
-593.058011
 10
-1561.571235
 20
-593.216328
 10
-1561.58377
 20
-593.384165
 10
-1561.59737
 20
-593.560899
 10
-1561.612084
 20
-593.745907
 10
-1561.627958
 20
-593.938567
 10
-1561.64504
 20
-594.138254
 10
-1561.663376
 20
-594.344346
 10
-1561.683012
 20
-594.55622
 10
-1561.703997
 20
-594.773253
 10
-1561.726378
 20
-594.994822
 10
-1561.7502
 20
-595.220305
 10
-1561.775511
 20
-595.449077
 10
-1561.802359
 20
-595.680517
 10
-1561.830789
 20
-595.914001
 10
-1561.860849
 20
-596.148906
 10
-1561.892587
 20
-596.38461
 10
-1561.926048
 20
-596.620489
 10
-1561.961306
 20
-596.856004
 10
-1561.998541
 20
-597.090955
 10
-1562.037957
 20
-597.325226
 10
-1562.07976
 20
-597.5587
 10
-1562.124155
 20
-597.79126
 10
-1562.171348
 20
-598.02279
 10
-1562.221543
 20
-598.253173
 10
-1562.274946
 20
-598.482293
 10
-1562.331763
 20
-598.710034
 10
-1562.392198
 20
-598.936279
 10
-1562.456457
 20
-599.160911
 10
-1562.524745
 20
-599.383815
 10
-1562.597268
 20
-599.604873
 10
-1562.67423
 20
-599.823969
 10
-1562.755838
 20
-600.040987
 10
-1562.842296
 20
-600.25581
 10
-1562.93381
 20
-600.468321
 10
-1563.030584
 20
-600.678405
 10
-1563.132825
 20
-600.885945
 10
-1563.240738
 20
-601.090823
 10
-1563.354374
 20
-601.292894
 10
-1563.473169
 20
-601.491887
 10
-1563.596405
 20
-601.687502
 10
-1563.723364
 20
-601.879438
 10
-1563.85333
 20
-602.067395
 10
-1563.985583
 20
-602.251073
 10
-1564.119406
 20
-602.43017
 10
-1564.254081
 20
-602.604387
 10
-1564.388891
 20
-602.773422
 10
-1564.523118
 20
-602.936976
 10
-1564.656043
 20
-603.094748
 10
-1564.786949
 20
-603.246437
 10
-1564.915119
 20
-603.391744
 10
-1565.039834
 20
-603.530367
 10
-1565.160376
 20
-603.662006
 10
-1565.276028
 20
-603.78636
 10
-1565.386072
 20
-603.90313
 10
-1565.489791
 20
-604.012014
 10
-1565.586465
 20
-604.112712
 10
-1566.240665
 20
-604.790714
 10
-1567.008629
 20
-605.586498
 10
-1567.129476
 20
-605.711726
 10
-1567.2612
 20
-605.848241
 10
-1567.40316
 20
-605.995396
 10
-1567.554712
 20
-606.152541
 10
-1567.715215
 20
-606.319028
 10
-1567.884026
 20
-606.494208
 10
-1568.060503
 20
-606.677431
 10
-1568.244004
 20
-606.86805
 10
-1568.433887
 20
-607.065415
 10
-1568.629509
 20
-607.268878
 10
-1568.830228
 20
-607.477789
 10
-1569.035403
 20
-607.6915
 10
-1569.24439
 20
-607.909363
 10
-1569.456547
 20
-608.130728
 10
-1569.671233
 20
-608.354946
 10
-1569.887805
 20
-608.581369
 10
-1570.105621
 20
-608.809349
 10
-1570.324038
 20
-609.038235
 10
-1570.542415
 20
-609.26738
 10
-1570.760109
 20
-609.496134
 10
-1570.976564
 20
-609.723994
 10
-1571.191571
 20
-609.951037
 10
-1571.405006
 20
-610.177483
 10
-1571.616747
 20
-610.403555
 10
-1571.826669
 20
-610.629474
 10
-1572.034649
 20
-610.855461
 10
-1572.240565
 20
-611.081738
 10
-1572.444292
 20
-611.308527
 10
-1572.645708
 20
-611.536049
 10
-1572.84469
 20
-611.764526
 10
-1573.041113
 20
-611.994179
 10
-1573.234855
 20
-612.22523
 10
-1573.425792
 20
-612.4579
 10
-1573.613801
 20
-612.692411
 10
-1573.798759
 20
-612.928985
 10
-1573.980543
 20
-613.167843
 10
-1574.159028
 20
-613.409206
 10
-1574.334093
 20
-613.653296
 10
-1574.505613
 20
-613.900335
 10
-1574.673465
 20
-614.150544
 10
-1574.837525
 20
-614.40396
 10
-1574.997664
 20
-614.659884
 10
-1575.15375
 20
-614.917432
 10
-1575.305653
 20
-615.175719
 10
-1575.453243
 20
-615.433862
 10
-1575.596388
 20
-615.690976
 10
-1575.734959
 20
-615.946178
 10
-1575.868825
 20
-616.198583
 10
-1575.997854
 20
-616.447307
 10
-1576.121917
 20
-616.691467
 10
-1576.240883
 20
-616.930178
 10
-1576.354621
 20
-617.162556
 10
-1576.463001
 20
-617.387717
 10
-1576.565891
 20
-617.604778
 10
-1576.663162
 20
-617.812853
 10
-1576.754683
 20
-618.01106
 10
-1576.840323
 20
-618.198513
 10
-1576.919951
 20
-618.374329
 10
-1576.993437
 20
-618.537624
 10
-1577.48754
 20
-619.640131
 10
-1577.487564
 20
-619.641084
 10
-1577.487733
 20
-619.647756
 10
-1577.488192
 20
-619.665865
 10
-1577.489085
 20
-619.70113
 10
-1577.490556
 20
-619.75927
 10
-1577.492752
 20
-619.846003
 10
-1577.495817
 20
-619.967049
 10
-1577.499895
 20
-620.128125
 10
-1577.505131
 20
-620.33495
 10
-1577.511671
 20
-620.593244
 10
-1577.519658
 20
-620.908725
 10
-1577.529238
 20
-621.28711
 10
-1577.540555
 20
-621.73412
 10
-1577.553755
 20
-622.255473
 10
-1577.568981
 20
-622.856888
 10
-1577.586379
 20
-623.544082
 10
-1577.606094
 20
-624.322776
 10
-1577.62827
 20
-625.198686
 10
-1577.653052
 20
-626.177534
 10
-1577.680585
 20
-627.265036
 10
-1577.710941
 20
-628.464052
 10
-1577.743904
 20
-629.766004
 10
-1577.779183
 20
-631.159456
 10
-1577.816489
 20
-632.632969
 10
-1577.855532
 20
-634.175106
 10
-1577.896023
 20
-635.774429
 10
-1577.937673
 20
-637.419502
 10
-1577.980191
 20
-639.098888
 10
-1578.023288
 20
-640.801148
 10
-1578.066675
 20
-642.514845
 10
-1578.110062
 20
-644.228542
 10
-1578.153159
 20
-645.930802
 10
-1578.195677
 20
-647.610188
 10
-1578.237327
 20
-649.255261
 10
-1578.277818
 20
-650.854584
 10
-1578.316861
 20
-652.396721
 10
-1578.354167
 20
-653.870234
 10
-1578.389446
 20
-655.263686
 10
-1578.422409
 20
-656.565638
 10
-1578.452765
 20
-657.764654
 10
-1578.480298
 20
-658.852156
 10
-1578.50508
 20
-659.831003
 10
-1578.527256
 20
-660.706914
 10
-1578.546971
 20
-661.485608
 10
-1578.564369
 20
-662.172802
 10
-1578.579596
 20
-662.774217
 10
-1578.592795
 20
-663.29557
 10
-1578.604112
 20
-663.74258
 10
-1578.613692
 20
-664.120965
 10
-1578.621679
 20
-664.436446
 10
-1578.628219
 20
-664.69474
 10
-1578.633455
 20
-664.901565
 10
-1578.637533
 20
-665.062641
 10
-1578.640598
 20
-665.183687
 10
-1578.642794
 20
-665.27042
 10
-1578.644266
 20
-665.32856
 10
-1578.645159
 20
-665.363825
 10
-1578.645617
 20
-665.381934
 10
-1578.645786
 20
-665.388606
 10
-1578.64581
 20
-665.389559
 10
-1578.651804
 20
-665.415312
 10
-1578.652747
 20
-665.419365
 10
-1578.653773
 20
-665.423786
 10
-1578.654877
 20
-665.428555
 10
-1578.656051
 20
-665.433656
 10
-1578.65729
 20
-665.439067
 10
-1578.658586
 20
-665.444772
 10
-1578.659933
 20
-665.450752
 10
-1578.661326
 20
-665.456987
 10
-1578.662757
 20
-665.46346
 10
-1578.664221
 20
-665.470151
 10
-1578.66571
 20
-665.477042
 10
-1578.667218
 20
-665.484115
 10
-1578.668739
 20
-665.49135
 10
-1578.670267
 20
-665.498729
 10
-1578.671795
 20
-665.506234
 10
-1578.673317
 20
-665.513846
 10
-1578.674825
 20
-665.521545
 10
-1578.676315
 20
-665.529314
 10
-1578.677779
 20
-665.537135
 10
-1578.679211
 20
-665.544987
 10
-1578.680605
 20
-665.552856
 10
-1578.681961
 20
-665.560739
 10
-1578.683278
 20
-665.568635
 10
-1578.684556
 20
-665.576545
 10
-1578.685795
 20
-665.584467
 10
-1578.686995
 20
-665.592403
 10
-1578.688156
 20
-665.600352
 10
-1578.689277
 20
-665.608314
 10
-1578.690358
 20
-665.616289
 10
-1578.6914
 20
-665.624277
 10
-1578.692401
 20
-665.632278
 10
-1578.693363
 20
-665.640291
 10
-1578.694284
 20
-665.648316
 10
-1578.695164
 20
-665.656354
 10
-1578.696004
 20
-665.664405
 10
-1578.696804
 20
-665.672467
 10
-1578.697562
 20
-665.680542
 10
-1578.698279
 20
-665.688629
 10
-1578.698955
 20
-665.696728
 10
-1578.69959
 20
-665.704838
 10
-1578.700183
 20
-665.712957
 10
-1578.700737
 20
-665.721067
 10
-1578.701252
 20
-665.729146
 10
-1578.70173
 20
-665.737173
 10
-1578.702173
 20
-665.745127
 10
-1578.702582
 20
-665.752987
 10
-1578.702959
 20
-665.760732
 10
-1578.703306
 20
-665.768341
 10
-1578.703624
 20
-665.775792
 10
-1578.703915
 20
-665.783064
 10
-1578.70418
 20
-665.790136
 10
-1578.70442
 20
-665.796987
 10
-1578.704638
 20
-665.803596
 10
-1578.704836
 20
-665.809941
 10
-1578.705013
 20
-665.816001
 10
-1578.705173
 20
-665.821756
 10
-1578.705317
 20
-665.827183
 10
-1578.705446
 20
-665.832263
 10
-1578.705562
 20
-665.836973
 10
-1578.706328
 20
-665.86874
 10
-1578.706345
 20
-665.869444
 10
-1578.706464
 20
-665.874365
 10
-1578.706788
 20
-665.887725
 10
-1578.70742
 20
-665.91374
 10
-1578.708461
 20
-665.956631
 10
-1578.710013
 20
-666.020615
 10
-1578.71218
 20
-666.109911
 10
-1578.715064
 20
-666.228738
 10
-1578.718766
 20
-666.381316
 10
-1578.72339
 20
-666.571861
 10
-1578.729037
 20
-666.804594
 10
-1578.735811
 20
-667.083733
 10
-1578.743813
 20
-667.413497
 10
-1578.753146
 20
-667.798104
 10
-1578.763912
 20
-668.241773
 10
-1578.776214
 20
-668.748724
 10
-1578.790153
 20
-669.323173
 10
-1578.805833
 20
-669.969341
 10
-1578.823356
 20
-670.691446
 10
-1578.842823
 20
-671.493707
 10
-1578.864287
 20
-672.378233
 10
-1578.887594
 20
-673.338697
 10
-1578.912539
 20
-674.366659
 10
-1578.938916
 20
-675.453684
 10
-1578.966523
 20
-676.591334
 10
-1578.995153
 20
-677.77117
 10
-1579.024601
 20
-678.984757
 10
-1579.054665
 20
-680.223656
 10
-1579.085137
 20
-681.47943
 10
-1579.115815
 20
-682.743641
 10
-1579.146492
 20
-684.007853
 10
-1579.176965
 20
-685.263626
 10
-1579.207028
 20
-686.502525
 10
-1579.236477
 20
-687.716112
 10
-1579.265107
 20
-688.895949
 10
-1579.292713
 20
-690.033598
 10
-1579.319091
 20
-691.120623
 10
-1579.344035
 20
-692.148586
 10
-1579.367342
 20
-693.109049
 10
-1579.388806
 20
-693.993575
 10
-1579.408274
 20
-694.795836
 10
-1579.425796
 20
-695.517941
 10
-1579.441476
 20
-696.164109
 10
-1579.455416
 20
-696.738559
 10
-1579.467717
 20
-697.245509
 10
-1579.478483
 20
-697.689178
 10
-1579.487816
 20
-698.073786
 10
-1579.495818
 20
-698.403549
 10
-1579.502592
 20
-698.682688
 10
-1579.50824
 20
-698.915421
 10
-1579.512863
 20
-699.105967
 10
-1579.516566
 20
-699.258544
 10
-1579.519449
 20
-699.377372
 10
-1579.521616
 20
-699.466668
 10
-1579.523169
 20
-699.530652
 10
-1579.52421
 20
-699.573542
 10
-1579.524841
 20
-699.599558
 10
-1579.525165
 20
-699.612917
 10
-1579.525284
 20
-699.617839
 10
-1579.525301
 20
-699.618542
 10
-1579.530551
 20
-699.836017
 10
-1579.531355
 20
-699.870238
 10
-1579.532101
 20
-699.907531
 10
-1579.532651
 20
-699.947708
 10
-1579.532869
 20
-699.990577
 10
-1579.532616
 20
-700.03595
 10
-1579.531757
 20
-700.083637
 10
-1579.530154
 20
-700.133449
 10
-1579.52767
 20
-700.185195
 10
-1579.524167
 20
-700.238687
 10
-1579.519509
 20
-700.293734
 10
-1579.513559
 20
-700.350148
 10
-1579.506179
 20
-700.407737
 10
-1579.497232
 20
-700.466314
 10
-1579.486581
 20
-700.525687
 10
-1579.474089
 20
-700.585668
 10
-1579.459619
 20
-700.646068
 10
-1579.443034
 20
-700.706695
 10
-1579.424196
 20
-700.767361
 10
-1579.402969
 20
-700.827876
 10
-1579.379216
 20
-700.888051
 10
-1579.352838
 20
-700.947709
 10
-1579.323896
 20
-701.006731
 10
-1579.292492
 20
-701.065011
 10
-1579.258726
 20
-701.122442
 10
-1579.222698
 20
-701.178918
 10
-1579.184508
 20
-701.234334
 10
-1579.144258
 20
-701.288583
 10
-1579.102047
 20
-701.341559
 10
-1579.057976
 20
-701.393155
 10
-1579.012146
 20
-701.443267
 10
-1578.964657
 20
-701.491787
 10
-1578.915609
 20
-701.538609
 10
-1578.865103
 20
-701.583628
 10
-1578.81324
 20
-701.626737
 10
-1578.76012
 20
-701.667831
 10
-1578.705843
 20
-701.706802
 10
-1578.65051
 20
-701.743545
 10
-1578.594222
 20
-701.777954
 10
-1578.537078
 20
-701.809923
 10
-1578.47918
 20
-701.839345
 10
-1578.420643
 20
-701.866153
 10
-1578.361647
 20
-701.890438
 10
-1578.302385
 20
-701.912327
 10
-1578.243054
 20
-701.93195
 10
-1578.183847
 20
-701.949435
 10
-1578.12496
 20
-701.96491
 10
-1578.066586
 20
-701.978505
 10
-1578.008921
 20
-701.990348
 10
-1577.952159
 20
-702.000568
 10
-1577.896495
 20
-702.009293
 10
-1577.842123
 20
-702.016651
 10
-1577.789239
 20
-702.022773
 10
-1577.738036
 20
-702.027786
 10
-1577.68871
 20
-702.031819
 10
-1577.641455
 20
-702.035
 10
-1577.596466
 20
-702.037459
 10
-1577.553937
 20
-702.039324
 10
-1577.514064
 20
-702.040724
 10
-1577.47704
 20
-702.041787
 10
-1577.227115
 20
-702.047933
 10
-1577.011211
 20
-702.053141
 10
-1576.977237
 20
-702.053938
 10
-1576.940213
 20
-702.054675
 10
-1576.900327
 20
-702.055213
 10
-1576.857766
 20
-702.055414
 10
-1576.81272
 20
-702.055139
 10
-1576.765375
 20
-702.05425
 10
-1576.715921
 20
-702.052609
 10
-1576.664545
 20
-702.050076
 10
-1576.611435
 20
-702.046514
 10
-1576.55678
 20
-702.041784
 10
-1576.500768
 20
-702.035747
 10
-1576.443586
 20
-702.028265
 10
-1576.385424
 20
-702.0192
 10
-1576.326468
 20
-702.008413
 10
-1576.266908
 20
-701.995766
 10
-1576.206931
 20
-701.98112
 10
-1576.146725
 20
-701.964337
 10
-1576.086479
 20
-701.945278
 10
-1576.026381
 20
-701.923805
 10
-1575.966619
 20
-701.89978
 10
-1575.907366
 20
-701.873103
 10
-1575.848744
 20
-701.843838
 10
-1575.790856
 20
-701.812088
 10
-1575.733809
 20
-701.777954
 10
-1575.677708
 20
-701.741539
 10
-1575.622659
 20
-701.702946
 10
-1575.568767
 20
-701.662278
 10
-1575.516138
 20
-701.619636
 10
-1575.464878
 20
-701.575125
 10
-1575.415092
 20
-701.528845
 10
-1575.366885
 20
-701.480901
 10
-1575.320363
 20
-701.431393
 10
-1575.275633
 20
-701.380426
 10
-1575.232798
 20
-701.328102
 10
-1575.191966
 20
-701.274522
 10
-1575.15324
 20
-701.219791
 10
-1575.116728
 20
-701.164009
 10
-1575.082534
 20
-701.107281
 10
-1575.050765
 20
-701.049708
 10
-1575.021525
 20
-700.991394
 10
-1574.994881
 20
-700.932455
 10
-1574.970745
 20
-700.873072
 10
-1574.948989
 20
-700.813438
 10
-1574.929484
 20
-700.753749
 10
-1574.912104
 20
-700.694199
 10
-1574.89672
 20
-700.634983
 10
-1574.883204
 20
-700.576295
 10
-1574.871429
 20
-700.518329
 10
-1574.861267
 20
-700.461281
 10
-1574.85259
 20
-700.405345
 10
-1574.84527
 20
-700.350715
 10
-1574.83918
 20
-700.297587
 10
-1574.834192
 20
-700.246153
 10
-1574.830177
 20
-700.19661
 10
-1574.827009
 20
-700.149152
 10
-1574.824558
 20
-700.103973
 10
-1574.822699
 20
-700.061268
 10
-1574.821302
 20
-700.021232
 10
-1574.82024
 20
-699.984059
 10
-1574.814095
 20
-699.733129
 10
-1574.814088
 20
-699.732878
 10
-1574.814046
 20
-699.73112
 10
-1574.81393
 20
-699.726349
 10
-1574.813705
 20
-699.717059
 10
-1574.813334
 20
-699.701742
 10
-1574.81278
 20
-699.678892
 10
-1574.812007
 20
-699.647002
 10
-1574.810978
 20
-699.604567
 10
-1574.809657
 20
-699.550079
 10
-1574.808008
 20
-699.482031
 10
-1574.805993
 20
-699.398918
 10
-1574.803576
 20
-699.299232
 10
-1574.800722
 20
-699.181467
 10
-1574.797392
 20
-699.044116
 10
-1574.793551
 20
-698.885673
 10
-1574.789163
 20
-698.704632
 10
-1574.78419
 20
-698.499485
 10
-1574.778596
 20
-698.268725
 10
-1574.772344
 20
-698.010848
 10
-1574.765399
 20
-697.724345
 10
-1574.757742
 20
-697.408464
 10
-1574.749427
 20
-697.065464
 10
-1574.740528
 20
-696.698359
 10
-1574.731118
 20
-696.310161
 10
-1574.721269
 20
-695.903885
 10
-1574.711055
 20
-695.482542
 10
-1574.700549
 20
-695.049147
 10
-1574.689824
 20
-694.606712
 10
-1574.678953
 20
-694.158251
 10
-1574.668009
 20
-693.706777
 10
-1574.657064
 20
-693.255303
 10
-1574.646193
 20
-692.806842
 10
-1574.635468
 20
-692.364407
 10
-1574.624962
 20
-691.931012
 10
-1574.614748
 20
-691.50967
 10
-1574.6049
 20
-691.103393
 10
-1574.595489
 20
-690.715196
 10
-1574.58659
 20
-690.348091
 10
-1574.578275
 20
-690.005091
 10
-1574.570618
 20
-689.689209
 10
-1574.563673
 20
-689.402707
 10
-1574.557422
 20
-689.144829
 10
-1574.551828
 20
-688.91407
 10
-1574.546855
 20
-688.708923
 10
-1574.542466
 20
-688.527881
 10
-1574.538625
 20
-688.369438
 10
-1574.535296
 20
-688.232088
 10
-1574.532441
 20
-688.114323
 10
-1574.530025
 20
-688.014637
 10
-1574.52801
 20
-687.931524
 10
-1574.52636
 20
-687.863476
 10
-1574.525039
 20
-687.808988
 10
-1574.524011
 20
-687.766552
 10
-1574.523238
 20
-687.734663
 10
-1574.522684
 20
-687.711813
 10
-1574.522312
 20
-687.696496
 10
-1574.522087
 20
-687.687205
 10
-1574.521972
 20
-687.682434
 10
-1574.521929
 20
-687.680677
 10
-1574.521923
 20
-687.680426
 10
-1574.261457
 20
-687.207279
 10
-1574.220256
 20
-687.132972
 10
-1574.174081
 20
-687.052846
 10
-1574.121866
 20
-686.968179
 10
-1574.062545
 20
-686.88025
 10
-1573.995051
 20
-686.790338
 10
-1573.918317
 20
-686.69972
 10
-1573.831278
 20
-686.609675
 10
-1573.732866
 20
-686.521482
 10
-1573.622015
 20
-686.436418
 10
-1573.497658
 20
-686.355763
 10
-1573.358729
 20
-686.280794
 10
-1573.204162
 20
-686.21279
 10
-1573.03289
 20
-686.15303
 10
-1572.843846
 20
-686.102791
 10
-1572.635965
 20
-686.063352
 10
-1572.408179
 20
-686.035992
 10
-1572.159422
 20
-686.021988
 10
-1571.888627
 20
-686.02262
 10
-1571.594728
 20
-686.039165
 10
-1571.276659
 20
-686.072902
 10
-1570.934007
 20
-686.124796
 10
-1570.56898
 20
-686.194551
 10
-1570.184439
 20
-686.281562
 10
-1569.783245
 20
-686.385219
 10
-1569.368261
 20
-686.504916
 10
-1568.942346
 20
-686.640045
 10
-1568.508364
 20
-686.789997
 10
-1568.069174
 20
-686.954165
 10
-1567.62764
 20
-687.131942
 10
-1567.186622
 20
-687.322719
 10
-1566.748981
 20
-687.525889
 10
-1566.31758
 20
-687.740844
 10
-1565.89528
 20
-687.966976
 10
-1565.484942
 20
-688.203678
 10
-1565.089427
 20
-688.450342
 10
-1564.711598
 20
-688.706359
 10
-1564.354315
 20
-688.971123
 10
-1564.020441
 20
-689.244026
 10
-1563.712836
 20
-689.524459
 10
-1563.434362
 20
-689.811816
 10
-1563.187113
 20
-690.105389
 10
-1562.970115
 20
-690.404077
 10
-1562.781625
 20
-690.70668
 10
-1562.619902
 20
-691.011998
 10
-1562.483203
 20
-691.31883
 10
-1562.369786
 20
-691.625977
 10
-1562.27791
 20
-691.932238
 10
-1562.205832
 20
-692.236412
 10
-1562.15181
 20
-692.537301
 10
-1562.114101
 20
-692.833703
 10
-1562.090965
 20
-693.124419
 10
-1562.080659
 20
-693.408248
 10
-1562.081441
 20
-693.68399
 10
-1562.091569
 20
-693.950445
 10
-1562.1093
 20
-694.206413
 10
-1562.132893
 20
-694.450693
 10
-1562.160606
 20
-694.682086
 10
-1562.190696
 20
-694.89939
 10
-1562.221422
 20
-695.101407
 10
-1562.440945
 20
-696.466163
 10
-1562.440979
 20
-696.466647
 10
-1562.441218
 20
-696.470034
 10
-1562.441866
 20
-696.479228
 10
-1562.443127
 20
-696.497132
 10
-1562.445208
 20
-696.526648
 10
-1562.448311
 20
-696.570682
 10
-1562.452642
 20
-696.632135
 10
-1562.458406
 20
-696.713911
 10
-1562.465806
 20
-696.818914
 10
-1562.475048
 20
-696.950047
 10
-1562.486336
 20
-697.110212
 10
-1562.499875
 20
-697.302314
 10
-1562.51587
 20
-697.529255
 10
-1562.534524
 20
-697.79394
 10
-1562.556043
 20
-698.09927
 10
-1562.580632
 20
-698.44815
 10
-1562.608494
 20
-698.843483
 10
-1562.639835
 20
-699.288172
 10
-1562.674859
 20
-699.78512
 10
-1562.713771
 20
-700.337232
 10
-1562.756673
 20
-700.945957
 10
-1562.803258
 20
-701.606942
 10
-1562.853116
 20
-702.31438
 10
-1562.90584
 20
-703.062464
 10
-1562.961019
 20
-703.845387
 10
-1563.018244
 20
-704.657344
 10
-1563.077107
 20
-705.492527
 10
-1563.137196
 20
-706.34513
 10
-1563.198105
 20
-707.209346
 10
-1563.259422
 20
-708.079369
 10
-1563.32074
 20
-708.949391
 10
-1563.381648
 20
-709.813607
 10
-1563.441738
 20
-710.66621
 10
-1563.500601
 20
-711.501393
 10
-1563.557826
 20
-712.31335
 10
-1563.613005
 20
-713.096274
 10
-1563.665728
 20
-713.844358
 10
-1563.715587
 20
-714.551795
 10
-1563.762172
 20
-715.21278
 10
-1563.805074
 20
-715.821506
 10
-1563.843986
 20
-716.373617
 10
-1563.87901
 20
-716.870565
 10
-1563.910351
 20
-717.315254
 10
-1563.938213
 20
-717.710587
 10
-1563.962802
 20
-718.059467
 10
-1563.984321
 20
-718.364798
 10
-1564.002975
 20
-718.629482
 10
-1564.01897
 20
-718.856424
 10
-1564.032509
 20
-719.048525
 10
-1564.043797
 20
-719.208691
 10
-1564.053039
 20
-719.339823
 10
-1564.060439
 20
-719.444826
 10
-1564.066203
 20
-719.526602
 10
-1564.070534
 20
-719.588056
 10
-1564.073637
 20
-719.632089
 10
-1564.075717
 20
-719.661606
 10
-1564.076979
 20
-719.67951
 10
-1564.077627
 20
-719.688703
 10
-1564.077866
 20
-719.692091
 10
-1564.0779
 20
-719.692574
 10
-1564.07818
 20
-719.692568
 10
-1564.080143
 20
-719.69252
 10
-1564.085471
 20
-719.692391
 10
-1564.095847
 20
-719.692139
 10
-1564.112952
 20
-719.691724
 10
-1564.13847
 20
-719.691106
 10
-1564.174083
 20
-719.690242
 10
-1564.221473
 20
-719.689093
 10
-1564.282324
 20
-719.687617
 10
-1564.358317
 20
-719.685774
 10
-1564.451134
 20
-719.683524
 10
-1564.56246
 20
-719.680824
 10
-1564.693975
 20
-719.677635
 10
-1564.847363
 20
-719.673915
 10
-1565.024306
 20
-719.669624
 10
-1565.226486
 20
-719.664722
 10
-1565.455586
 20
-719.659166
 10
-1565.713289
 20
-719.652917
 10
-1566.001276
 20
-719.645933
 10
-1566.321232
 20
-719.638175
 10
-1566.673995
 20
-719.62962
 10
-1567.057044
 20
-719.620331
 10
-1567.467013
 20
-719.61039
 10
-1567.900537
 20
-719.599877
 10
-1568.354251
 20
-719.588875
 10
-1568.824789
 20
-719.577464
 10
-1569.308788
 20
-719.565728
 10
-1569.802882
 20
-719.553746
 10
-1570.303706
 20
-719.541601
 10
-1570.807895
 20
-719.529375
 10
-1571.312083
 20
-719.517149
 10
-1571.812907
 20
-719.505004
 10
-1572.307001
 20
-719.493022
 10
-1572.791
 20
-719.481285
 10
-1573.261538
 20
-719.469875
 10
-1573.715252
 20
-719.458873
 10
-1574.148776
 20
-719.44836
 10
-1574.558745
 20
-719.438418
 10
-1574.941794
 20
-719.42913
 10
-1575.294557
 20
-719.420575
 10
-1575.614513
 20
-719.412816
 10
-1575.9025
 20
-719.405833
 10
-1576.160203
 20
-719.399584
 10
-1576.389303
 20
-719.394028
 10
-1576.591483
 20
-719.389125
 10
-1576.768426
 20
-719.384835
 10
-1576.921814
 20
-719.381115
 10
-1577.053329
 20
-719.377926
 10
-1577.164655
 20
-719.375226
 10
-1577.257473
 20
-719.372975
 10
-1577.333465
 20
-719.371133
 10
-1577.394316
 20
-719.369657
 10
-1577.441706
 20
-719.368508
 10
-1577.477319
 20
-719.367644
 10
-1577.502837
 20
-719.367025
 10
-1577.519942
 20
-719.366611
 10
-1577.530318
 20
-719.366359
 10
-1577.535646
 20
-719.36623
 10
-1577.537609
 20
-719.366182
 10
-1577.537889
 20
-719.366175
 10
-1577.755323
 20
-719.360802
 10
-1577.789537
 20
-719.359978
 10
-1577.826823
 20
-719.359211
 10
-1577.866992
 20
-719.358639
 10
-1577.909853
 20
-719.358398
 10
-1577.955218
 20
-719.358626
 10
-1578.002897
 20
-719.359461
 10
-1578.052699
 20
-719.361039
 10
-1578.104437
 20
-719.363499
 10
-1578.157919
 20
-719.366977
 10
-1578.212957
 20
-719.371611
 10
-1578.269361
 20
-719.377539
 10
-1578.326942
 20
-719.384898
 10
-1578.385509
 20
-719.393824
 10
-1578.444874
 20
-719.404457
 10
-1578.504846
 20
-719.416932
 10
-1578.565237
 20
-719.431388
 10
-1578.625856
 20
-719.447962
 10
-1578.686515
 20
-719.466791
 10
-1578.747023
 20
-719.488013
 10
-1578.807191
 20
-719.511765
 10
-1578.866843
 20
-719.538145
 10
-1578.92586
 20
-719.567091
 10
-1578.984135
 20
-719.598504
 10
-1579.041562
 20
-719.632282
 10
-1579.098034
 20
-719.668324
 10
-1579.153447
 20
-719.706531
 10
-1579.207693
 20
-719.7468
 10
-1579.260666
 20
-719.789032
 10
-1579.312261
 20
-719.833125
 10
-1579.362371
 20
-719.87898
 10
-1579.410889
 20
-719.926494
 10
-1579.457711
 20
-719.975568
 10
-1579.502729
 20
-720.026101
 10
-1579.545837
 20
-720.077992
 10
-1579.58693
 20
-720.13114
 10
-1579.625901
 20
-720.185445
 10
-1579.662644
 20
-720.240805
 10
-1579.697053
 20
-720.297121
 10
-1579.729022
 20
-720.354291
 10
-1579.758444
 20
-720.412215
 10
-1579.785252
 20
-720.470776
 10
-1579.809537
 20
-720.529795
 10
-1579.831426
 20
-720.589078
 10
-1579.851049
 20
-720.64843
 10
-1579.868534
 20
-720.707656
 10
-1579.884009
 20
-720.766562
 10
-1579.897604
 20
-720.824953
 10
-1579.909447
 20
-720.882635
 10
-1579.919666
 20
-720.939412
 10
-1579.928391
 20
-720.995091
 10
-1579.93575
 20
-721.049476
 10
-1579.941872
 20
-721.102373
 10
-1579.946885
 20
-721.153587
 10
-1579.950918
 20
-721.202924
 10
-1579.954099
 20
-721.250189
 10
-1579.956558
 20
-721.295188
 10
-1579.958423
 20
-721.337725
 10
-1579.959823
 20
-721.377606
 10
-1579.960885
 20
-721.414637
 10
-1579.967031
 20
-721.664609
 10
-1579.97224
 20
-721.880473
 10
-1579.973037
 20
-721.91444
 10
-1579.973774
 20
-721.951457
 10
-1579.974312
 20
-721.991336
 10
-1579.974513
 20
-722.033888
 10
-1579.974239
 20
-722.078927
 10
-1579.97335
 20
-722.126263
 10
-1579.971709
 20
-722.175709
 10
-1579.969178
 20
-722.227077
 10
-1579.965616
 20
-722.280179
 10
-1579.960888
 20
-722.334826
 10
-1579.954853
 20
-722.390831
 10
-1579.947373
 20
-722.448005
 10
-1579.93831
 20
-722.506161
 10
-1579.927526
 20
-722.56511
 10
-1579.914882
 20
-722.624665
 10
-1579.90024
 20
-722.684638
 10
-1579.883461
 20
-722.744839
 10
-1579.864407
 20
-722.805083
 10
-1579.84294
 20
-722.865179
 10
-1579.81892
 20
-722.924941
 10
-1579.79225
 20
-722.984194
 10
-1579.762992
 20
-723.042818
 10
-1579.731249
 20
-723.100709
 10
-1579.697123
 20
-723.157759
 10
-1579.660716
 20
-723.213864
 10
-1579.622131
 20
-723.268917
 10
-1579.581471
 20
-723.322814
 10
-1579.538838
 20
-723.375448
 10
-1579.494334
 20
-723.426713
 10
-1579.448063
 20
-723.476504
 10
-1579.400126
 20
-723.524715
 10
-1579.350626
 20
-723.571241
 10
-1579.299665
 20
-723.615975
 10
-1579.247347
 20
-723.658812
 10
-1579.193773
 20
-723.699646
 10
-1579.139046
 20
-723.738372
 10
-1579.083268
 20
-723.774884
 10
-1579.026543
 20
-723.809075
 10
-1578.968972
 20
-723.840841
 10
-1578.910658
 20
-723.870076
 10
-1578.851719
 20
-723.896712
 10
-1578.792334
 20
-723.92084
 10
-1578.732697
 20
-723.942586
 10
-1578.673005
 20
-723.962079
 10
-1578.61345
 20
-723.979446
 10
-1578.554228
 20
-723.994816
 10
-1578.495534
 20
-724.008317
 10
-1578.437562
 20
-724.020076
 10
-1578.380507
 20
-724.030222
 10
-1578.324563
 20
-724.038882
 10
-1578.269925
 20
-724.046184
 10
-1578.216788
 20
-724.052257
 10
-1578.165347
 20
-724.057228
 10
-1578.115796
 20
-724.061226
 10
-1578.068329
 20
-724.064377
 10
-1578.023142
 20
-724.066811
 10
-1577.98043
 20
-724.068655
 10
-1577.940386
 20
-724.070036
 10
-1577.903205
 20
-724.071084
 10
-1577.652228
 20
-724.077134
 10
-1577.651952
 20
-724.077141
 10
-1577.650021
 20
-724.077188
 10
-1577.644779
 20
-724.077315
 10
-1577.634572
 20
-724.077563
 10
-1577.617743
 20
-724.077971
 10
-1577.592639
 20
-724.078581
 10
-1577.557603
 20
-724.079431
 10
-1577.51098
 20
-724.080563
 10
-1577.451115
 20
-724.082016
 10
-1577.376353
 20
-724.083831
 10
-1577.285039
 20
-724.086048
 10
-1577.175517
 20
-724.088706
 10
-1577.046132
 20
-724.091847
 10
-1576.895228
 20
-724.09551
 10
-1576.721151
 20
-724.099735
 10
-1576.522246
 20
-724.104564
 10
-1576.296856
 20
-724.110035
 10
-1576.043328
 20
-724.116189
 10
-1575.760005
 20
-724.123067
 10
-1575.445232
 20
-724.130707
 10
-1575.098182
 20
-724.139132
 10
-1574.721337
 20
-724.148279
 10
-1574.318009
 20
-724.15807
 10
-1573.891507
 20
-724.168423
 10
-1573.445142
 20
-724.179258
 10
-1572.982224
 20
-724.190495
 10
-1572.506065
 20
-724.202053
 10
-1572.019974
 20
-724.213853
 10
-1571.527262
 20
-724.225813
 10
-1571.03124
 20
-724.237854
 10
-1570.535217
 20
-724.249894
 10
-1570.042505
 20
-724.261854
 10
-1569.556415
 20
-724.273654
 10
-1569.080255
 20
-724.285212
 10
-1568.617338
 20
-724.296449
 10
-1568.170973
 20
-724.307284
 10
-1567.744471
 20
-724.317637
 10
-1567.341142
 20
-724.327428
 10
-1566.964298
 20
-724.336575
 10
-1566.617248
 20
-724.345
 10
-1566.302475
 20
-724.352641
 10
-1566.019152
 20
-724.359518
 10
-1565.765623
 20
-724.365672
 10
-1565.540234
 20
-724.371143
 10
-1565.341328
 20
-724.375972
 10
-1565.167251
 20
-724.380197
 10
-1565.016348
 20
-724.38386
 10
-1564.886963
 20
-724.387001
 10
-1564.777441
 20
-724.38966
 10
-1564.686126
 20
-724.391876
 10
-1564.611364
 20
-724.393691
 10
-1564.551499
 20
-724.395144
 10
-1564.504877
 20
-724.396276
 10
-1564.46984
 20
-724.397126
 10
-1564.444736
 20
-724.397736
 10
-1564.427908
 20
-724.398144
 10
-1564.4177
 20
-724.398392
 10
-1564.412459
 20
-724.398519
 10
-1564.410527
 20
-724.398566
 10
-1564.410252
 20
-724.398573
 10
-1564.410254
 20
-724.398603
 10
-1564.410269
 20
-724.398813
 10
-1564.410309
 20
-724.399385
 10
-1564.410387
 20
-724.400498
 10
-1564.410516
 20
-724.402333
 10
-1564.410709
 20
-724.405071
 10
-1564.410978
 20
-724.408891
 10
-1564.411336
 20
-724.413975
 10
-1564.411796
 20
-724.420503
 10
-1564.41237
 20
-724.428656
 10
-1564.413071
 20
-724.438614
 10
-1564.413912
 20
-724.450557
 10
-1564.414906
 20
-724.464666
 10
-1564.416065
 20
-724.481121
 10
-1564.417402
 20
-724.500104
 10
-1564.418929
 20
-724.521794
 10
-1564.42066
 20
-724.546372
 10
-1564.422607
 20
-724.574018
 10
-1564.424783
 20
-724.604913
 10
-1564.4272
 20
-724.639238
 10
-1564.429865
 20
-724.677083
 10
-1564.432759
 20
-724.718177
 10
-1564.435856
 20
-724.762158
 10
-1564.439131
 20
-724.808667
 10
-1564.442559
 20
-724.857341
 10
-1564.446114
 20
-724.907821
 10
-1564.449771
 20
-724.959745
 10
-1564.453504
 20
-725.012751
 10
-1564.457287
 20
-725.06648
 10
-1564.461096
 20
-725.120569
 10
-1564.464906
 20
-725.174659
 10
-1564.468689
 20
-725.228387
 10
-1564.472422
 20
-725.281394
 10
-1564.476079
 20
-725.333318
 10
-1564.479634
 20
-725.383797
 10
-1564.483061
 20
-725.432472
 10
-1564.486337
 20
-725.47898
 10
-1564.489434
 20
-725.522962
 10
-1564.492328
 20
-725.564056
 10
-1564.494993
 20
-725.6019
 10
-1564.49741
 20
-725.636225
 10
-1564.499586
 20
-725.667121
 10
-1564.501533
 20
-725.694767
 10
-1564.503264
 20
-725.719345
 10
-1564.504791
 20
-725.741035
 10
-1564.506128
 20
-725.760018
 10
-1564.507287
 20
-725.776473
 10
-1564.50828
 20
-725.790582
 10
-1564.509121
 20
-725.802525
 10
-1564.509823
 20
-725.812483
 10
-1564.510397
 20
-725.820635
 10
-1564.510857
 20
-725.827163
 10
-1564.511215
 20
-725.832247
 10
-1564.511484
 20
-725.836068
 10
-1564.511676
 20
-725.838805
 10
-1564.511806
 20
-725.84064
 10
-1564.511884
 20
-725.841754
 10
-1564.511924
 20
-725.842325
 10
-1564.511939
 20
-725.842536
 10
-1564.511941
 20
-725.842566
 10
-1564.511951
 20
-725.843316
 10
-1564.512018
 20
-725.848568
 10
-1564.5122
 20
-725.862822
 10
-1564.512554
 20
-725.890581
 10
-1564.513137
 20
-725.936346
 10
-1564.514008
 20
-726.004618
 10
-1564.515224
 20
-726.099898
 10
-1564.516841
 20
-726.226689
 10
-1564.518917
 20
-726.389491
 10
-1564.521511
 20
-726.592806
 10
-1564.524678
 20
-726.841135
 10
-1564.528477
 20
-727.138981
 10
-1564.532966
 20
-727.490843
 10
-1564.5382
 20
-727.901225
 10
-1564.544239
 20
-728.374626
 10
-1564.551138
 20
-728.91555
 10
-1564.558957
 20
-729.528496
 10
-1564.567751
 20
-730.217966
 10
-1564.577579
 20
-730.988463
 10
-1564.588498
 20
-731.844487
 10
-1564.600536
 20
-732.788289
 10
-1564.613608
 20
-733.813117
 10
-1564.627599
 20
-734.909969
 10
-1564.642394
 20
-736.06984
 10
-1564.657877
 20
-737.283728
 10
-1564.673935
 20
-738.542631
 10
-1564.690452
 20
-739.837546
 10
-1564.707314
 20
-741.159469
 10
-1564.724405
 20
-742.499398
 10
-1564.741611
 20
-743.84833
 10
-1564.758817
 20
-745.197262
 10
-1564.775908
 20
-746.537191
 10
-1564.79277
 20
-747.859114
 10
-1564.809287
 20
-749.154028
 10
-1564.825345
 20
-750.412931
 10
-1564.840828
 20
-751.62682
 10
-1564.855623
 20
-752.786691
 10
-1564.869614
 20
-753.883542
 10
-1564.882686
 20
-754.908371
 10
-1564.894724
 20
-755.852173
 10
-1564.905643
 20
-756.708197
 10
-1564.915471
 20
-757.478693
 10
-1564.924266
 20
-758.168164
 10
-1564.932084
 20
-758.78111
 10
-1564.938984
 20
-759.322033
 10
-1564.945022
 20
-759.795435
 10
-1564.950256
 20
-760.205816
 10
-1564.954745
 20
-760.557679
 10
-1564.958544
 20
-760.855524
 10
-1564.961711
 20
-761.103854
 10
-1564.964305
 20
-761.307169
 10
-1564.966381
 20
-761.469971
 10
-1564.967998
 20
-761.596762
 10
-1564.969214
 20
-761.692042
 10
-1564.970085
 20
-761.760314
 10
-1564.970668
 20
-761.806079
 10
-1564.971022
 20
-761.833838
 10
-1564.971204
 20
-761.848092
 10
-1564.971271
 20
-761.853344
 10
-1564.971281
 20
-761.854094
 10
-1564.971729
 20
-761.854083
 10
-1564.974867
 20
-761.854007
 10
-1564.983385
 20
-761.8538
 10
-1564.999973
 20
-761.853398
 10
-1565.027319
 20
-761.852734
 10
-1565.068115
 20
-761.851745
 10
-1565.12505
 20
-761.850363
 10
-1565.200814
 20
-761.848525
 10
-1565.298097
 20
-761.846165
 10
-1565.419589
 20
-761.843217
 10
-1565.567978
 20
-761.839617
 10
-1565.745957
 20
-761.835299
 10
-1565.956213
 20
-761.830198
 10
-1566.201437
 20
-761.824248
 10
-1566.484319
 20
-761.817385
 10
-1566.807549
 20
-761.809542
 10
-1567.173817
 20
-761.800656
 10
-1567.585811
 20
-761.79066
 10
-1568.046223
 20
-761.77949
 10
-1568.557742
 20
-761.767079
 10
-1569.121713
 20
-761.753396
 10
-1569.734102
 20
-761.738538
 10
-1570.389528
 20
-761.722636
 10
-1571.082611
 20
-761.705821
 10
-1571.807973
 20
-761.688222
 10
-1572.560233
 20
-761.66997
 10
-1573.334013
 20
-761.651197
 10
-1574.123931
 20
-761.632032
 10
-1574.924608
 20
-761.612606
 10
-1575.730666
 20
-761.593049
 10
-1576.536723
 20
-761.573493
 10
-1577.3374
 20
-761.554067
 10
-1578.127318
 20
-761.534902
 10
-1578.901098
 20
-761.516128
 10
-1579.653358
 20
-761.497877
 10
-1580.37872
 20
-761.480278
 10
-1581.071803
 20
-761.463462
 10
-1581.727229
 20
-761.44756
 10
-1582.339618
 20
-761.432702
 10
-1582.903589
 20
-761.419019
 10
-1583.415108
 20
-761.406609
 10
-1583.87552
 20
-761.395438
 10
-1584.287514
 20
-761.385443
 10
-1584.653782
 20
-761.376556
 10
-1584.977012
 20
-761.368714
 10
-1585.259894
 20
-761.361851
 10
-1585.505118
 20
-761.355901
 10
-1585.715374
 20
-761.3508
 10
-1585.893353
 20
-761.346482
 10
-1586.041742
 20
-761.342881
 10
-1586.163234
 20
-761.339934
 10
-1586.260517
 20
-761.337573
 10
-1586.336281
 20
-761.335735
 10
-1586.393216
 20
-761.334354
 10
-1586.434012
 20
-761.333364
 10
-1586.461358
 20
-761.332701
 10
-1586.477946
 20
-761.332298
 10
-1586.486464
 20
-761.332091
 10
-1586.489602
 20
-761.332015
 10
-1586.49005
 20
-761.332004
 10
-1586.707484
 20
-761.326755
 10
-1586.741698
 20
-761.325951
 10
-1586.778985
 20
-761.325205
 10
-1586.819153
 20
-761.324655
 10
-1586.862015
 20
-761.324437
 10
-1586.90738
 20
-761.32469
 10
-1586.955059
 20
-761.325549
 10
-1587.004862
 20
-761.327152
 10
-1587.056601
 20
-761.329636
 10
-1587.110084
 20
-761.333139
 10
-1587.165124
 20
-761.337797
 10
-1587.221529
 20
-761.343747
 10
-1587.279112
 20
-761.351127
 10
-1587.337682
 20
-761.360074
 10
-1587.397049
 20
-761.370725
 10
-1587.457025
 20
-761.383217
 10
-1587.517419
 20
-761.397687
 10
-1587.578043
 20
-761.414272
 10
-1587.638706
 20
-761.433109
 10
-1587.699219
 20
-761.454337
 10
-1587.759393
 20
-761.47809
 10
-1587.819052
 20
-761.504468
 10
-1587.878076
 20
-761.533409
 10
-1587.936358
 20
-761.564813
 10
-1587.993793
 20
-761.59858
 10
-1588.050274
 20
-761.634608
 10
-1588.105695
 20
-761.672798
 10
-1588.159949
 20
-761.713048
 10
-1588.21293
 20
-761.755259
 10
-1588.264533
 20
-761.79933
 10
-1588.314651
 20
-761.84516
 10
-1588.363177
 20
-761.892649
 10
-1588.410006
 20
-761.941697
 10
-1588.45503
 20
-761.992203
 10
-1588.498145
 20
-762.044066
 10
-1588.539243
 20
-762.097186
 10
-1588.578219
 20
-762.151463
 10
-1588.614966
 20
-762.206796
 10
-1588.649377
 20
-762.263084
 10
-1588.681347
 20
-762.320228
 10
-1588.71077
 20
-762.378126
 10
-1588.737578
 20
-762.436663
 10
-1588.761861
 20
-762.495659
 10
-1588.783748
 20
-762.55492
 10
-1588.803367
 20
-762.614252
 10
-1588.820847
 20
-762.673458
 10
-1588.836317
 20
-762.732346
 10
-1588.849906
 20
-762.79072
 10
-1588.861742
 20
-762.848385
 10
-1588.871954
 20
-762.905147
 10
-1588.880671
 20
-762.960811
 10
-1588.888022
 20
-763.015183
 10
-1588.894136
 20
-763.068067
 10
-1588.899141
 20
-763.11927
 10
-1588.903165
 20
-763.168596
 10
-1588.906339
 20
-763.215851
 10
-1588.90879
 20
-763.26084
 10
-1588.910647
 20
-763.303369
 10
-1588.912039
 20
-763.343242
 10
-1588.913094
 20
-763.380266
 10
-1588.919193
 20
-763.63019
 10
-1588.924442
 20
-763.846178
 10
-1588.925246
 20
-763.880164
 10
-1588.92599
 20
-763.917202
 10
-1588.926536
 20
-763.957104
 10
-1588.926745
 20
-763.99968
 10
-1588.926479
 20
-764.044742
 10
-1588.925599
 20
-764.092103
 10
-1588.923967
 20
-764.141574
 10
-1588.921444
 20
-764.192967
 10
-1588.917892
 20
-764.246093
 10
-1588.913173
 20
-764.300763
 10
-1588.907147
 20
-764.356791
 10
-1588.899677
 20
-764.413987
 10
-1588.890623
 20
-764.472163
 10
-1588.879848
 20
-764.531131
 10
-1588.867213
 20
-764.590702
 10
-1588.852579
 20
-764.650688
 10
-1588.835808
 20
-764.710901
 10
-1588.816762
 20
-764.771153
 10
-1588.795301
 20
-764.831254
 10
-1588.771288
 20
-764.891018
 10
-1588.744624
 20
-764.950269
 10
-1588.715371
 20
-765.008888
 10
-1588.683633
 20
-765.066771
 10
-1588.64951
 20
-765.12381
 10
-1588.613107
 20
-765.179902
 10
-1588.574525
 20
-765.23494
 10
-1588.533867
 20
-765.288819
 10
-1588.491236
 20
-765.341435
 10
-1588.446733
 20
-765.392681
 10
-1588.400462
 20
-765.442452
 10
-1588.352524
 20
-765.490643
 10
-1588.303023
 20
-765.537148
 10
-1588.252061
 20
-765.581863
 10
-1588.199741
 20
-765.624681
 10
-1588.146164
 20
-765.665497
 10
-1588.091434
 20
-765.704206
 10
-1588.035652
 20
-765.740703
 10
-1587.978922
 20
-765.774881
 10
-1587.921346
 20
-765.806637
 10
-1587.863026
 20
-765.835864
 10
-1587.80408
 20
-765.862495
 10
-1587.744688
 20
-765.886621
 10
-1587.685044
 20
-765.908368
 10
-1587.625343
 20
-765.927864
 10
-1587.565781
 20
-765.945237
 10
-1587.50655
 20
-765.960615
 10
-1587.447847
 20
-765.974125
 10
-1587.389866
 20
-765.985895
 10
-1587.332801
 20
-765.996053
 10
-1587.276848
 20
-766.004726
 10
-1587.222201
 20
-766.012043
 10
-1587.169055
 20
-766.018131
 10
-1587.117604
 20
-766.023118
 10
-1587.068044
 20
-766.027131
 10
-1587.020569
 20
-766.030299
 10
-1586.975374
 20
-766.032748
 10
-1586.932653
 20
-766.034607
 10
-1586.892602
 20
-766.036004
 10
-1586.855414
 20
-766.037066
 10
-1586.604389
 20
-766.043211
 10
-1586.60394
 20
-766.043222
 10
-1586.600794
 20
-766.043299
 10
-1586.592254
 20
-766.043506
 10
-1586.575625
 20
-766.043909
 10
-1586.54821
 20
-766.044574
 10
-1586.507311
 20
-766.045566
 10
-1586.450233
 20
-766.046951
 10
-1586.374279
 20
-766.048794
 10
-1586.276752
 20
-766.051159
 10
-1586.154955
 20
-766.054114
 10
-1586.006192
 20
-766.057723
 10
-1585.827767
 20
-766.062051
 10
-1585.616982
 20
-766.067165
 10
-1585.371142
 20
-766.073128
 10
-1585.087549
 20
-766.080008
 10
-1584.763507
 20
-766.087869
 10
-1584.396319
 20
-766.096776
 10
-1583.983289
 20
-766.106796
 10
-1583.52172
 20
-766.117993
 10
-1583.008916
 20
-766.130433
 10
-1582.443528
 20
-766.144149
 10
-1581.829601
 20
-766.159042
 10
-1581.172528
 20
-766.174981
 10
-1580.477703
 20
-766.191837
 10
-1579.750518
 20
-766.209478
 10
-1578.996368
 20
-766.227772
 10
-1578.220645
 20
-766.24659
 10
-1577.428742
 20
-766.265801
 10
-1576.626052
 20
-766.285273
 10
-1575.81797
 20
-766.304876
 10
-1575.009887
 20
-766.324479
 10
-1574.207198
 20
-766.343952
 10
-1573.415295
 20
-766.363162
 10
-1572.639572
 20
-766.38198
 10
-1571.885421
 20
-766.400275
 10
-1571.158237
 20
-766.417915
 10
-1570.463411
 20
-766.434771
 10
-1569.806339
 20
-766.450711
 10
-1569.192412
 20
-766.465604
 10
-1568.627024
 20
-766.479319
 10
-1568.114219
 20
-766.491759
 10
-1567.65265
 20
-766.502956
 10
-1567.23962
 20
-766.512976
 10
-1566.872433
 20
-766.521884
 10
-1566.548391
 20
-766.529744
 10
-1566.264798
 20
-766.536624
 10
-1566.018957
 20
-766.542588
 10
-1565.808173
 20
-766.547701
 10
-1565.629747
 20
-766.55203
 10
-1565.480985
 20
-766.555638
 10
-1565.359188
 20
-766.558593
 10
-1565.261661
 20
-766.560959
 10
-1565.185706
 20
-766.562801
 10
-1565.128628
 20
-766.564186
 10
-1565.08773
 20
-766.565178
 10
-1565.060314
 20
-766.565843
 10
-1565.043685
 20
-766.566247
 10
-1565.035146
 20
-766.566454
 10
-1565.032
 20
-766.56653
 10
-1565.031551
 20
-766.566541
 10
-1565.06338
 20
-769.05525
 10
-1565.0684
 20
-769.446886
 10
-1565.073938
 20
-769.873832
 10
-1565.080035
 20
-770.334069
 10
-1565.086731
 20
-770.825578
 10
-1565.094068
 20
-771.346339
 10
-1565.102085
 20
-771.894333
 10
-1565.110824
 20
-772.467539
 10
-1565.120325
 20
-773.063938
 10
-1565.130629
 20
-773.681511
 10
-1565.141776
 20
-774.318237
 10
-1565.153808
 20
-774.972098
 10
-1565.166764
 20
-775.641073
 10
-1565.180686
 20
-776.323142
 10
-1565.195615
 20
-777.016287
 10
-1565.21159
 20
-777.718488
 10
-1565.228653
 20
-778.427724
 10
-1565.246844
 20
-779.141976
 10
-1565.266203
 20
-779.859225
 10
-1565.286773
 20
-780.57745
 10
-1565.308593
 20
-781.294633
 10
-1565.331679
 20
-782.009133
 10
-1565.355947
 20
-782.720833
 10
-1565.381288
 20
-783.429993
 10
-1565.407595
 20
-784.136876
 10
-1565.434757
 20
-784.841743
 10
-1565.462666
 20
-785.544855
 10
-1565.491214
 20
-786.246474
 10
-1565.520291
 20
-786.946862
 10
-1565.549789
 20
-787.646281
 10
-1565.5796
 20
-788.344991
 10
-1565.609614
 20
-789.043255
 10
-1565.639722
 20
-789.741334
 10
-1565.669816
 20
-790.43949
 10
-1565.699788
 20
-791.137984
 10
-1565.729528
 20
-791.837078
 10
-1565.758927
 20
-792.537034
 10
-1565.787877
 20
-793.238113
 10
-1565.816269
 20
-793.940577
 10
-1565.843995
 20
-794.644687
 10
-1565.870945
 20
-795.350705
 10
-1565.897029
 20
-796.058527
 10
-1565.922229
 20
-796.766589
 10
-1565.946544
 20
-797.472959
 10
-1565.969976
 20
-798.175708
 10
-1565.992523
 20
-798.872905
 10
-1566.014186
 20
-799.56262
 10
-1566.034965
 20
-800.242922
 10
-1566.054859
 20
-800.911881
 10
-1566.07387
 20
-801.567567
 10
-1566.091996
 20
-802.208049
 10
-1566.109238
 20
-802.831397
 10
-1566.125596
 20
-803.435681
 10
-1566.141069
 20
-804.018969
 10
-1566.155658
 20
-804.579333
 10
-1566.169364
 20
-805.114841
 10
-1566.182185
 20
-805.623563
 10
-1566.194121
 20
-806.103569
 10
-1566.205174
 20
-806.552928
 10
-1566.215342
 20
-806.96971
 10
-1566.283573
 20
-809.781169
 10
-1566.30974
 20
-810.860402
 10
-1566.313968
 20
-811.030219
 10
-1566.319227
 20
-811.215252
 10
-1566.326158
 20
-811.414527
 10
-1566.335399
 20
-811.627074
 10
-1566.347591
 20
-811.851918
 10
-1566.363371
 20
-812.088086
 10
-1566.38338
 20
-812.334607
 10
-1566.408257
 20
-812.590508
 10
-1566.438641
 20
-812.854815
 10
-1566.475171
 20
-813.126556
 10
-1566.518488
 20
-813.404759
 10
-1566.56923
 20
-813.68845
 10
-1566.628036
 20
-813.976657
 10
-1566.695547
 20
-814.268408
 10
-1566.772401
 20
-814.562728
 10
-1566.859237
 20
-814.858647
 10
-1566.956695
 20
-815.15519
 10
-1567.065415
 20
-815.451386
 10
-1567.186035
 20
-815.746261
 10
-1567.319196
 20
-816.038844
 10
-1567.465341
 20
-816.328238
 10
-1567.624137
 20
-816.613865
 10
-1567.795055
 20
-816.89522
 10
-1567.977568
 20
-817.171803
 10
-1568.171146
 20
-817.443109
 10
-1568.375262
 20
-817.708638
 10
-1568.589386
 20
-817.967886
 10
-1568.812991
 20
-818.220351
 10
-1569.045548
 20
-818.46553
 10
-1569.286529
 20
-818.702921
 10
-1569.535404
 20
-818.932022
 10
-1569.791647
 20
-819.15233
 10
-1570.054728
 20
-819.363342
 10
-1570.324119
 20
-819.564556
 10
-1570.599291
 20
-819.75547
 10
-1570.879717
 20
-819.935582
 10
-1571.164867
 20
-820.104387
 10
-1571.454214
 20
-820.261386
 10
-1571.747228
 20
-820.406074
 10
-1572.043382
 20
-820.537949
 10
-1572.342079
 20
-820.656707
 10
-1572.642447
 20
-820.762836
 10
-1572.943546
 20
-820.85702
 10
-1573.244438
 20
-820.939945
 10
-1573.544182
 20
-821.012296
 10
-1573.841838
 20
-821.074759
 10
-1574.136467
 20
-821.128019
 10
-1574.42713
 20
-821.172762
 10
-1574.712886
 20
-821.209673
 10
-1574.992796
 20
-821.239437
 10
-1575.265919
 20
-821.26274
 10
-1575.531317
 20
-821.280267
 10
-1575.78805
 20
-821.292703
 10
-1576.035178
 20
-821.300734
 10
-1576.271761
 20
-821.305045
 10
-1576.49686
 20
-821.306322
 10
-1576.709534
 20
-821.30525
 10
-1576.908845
 20
-821.302514
 10
-1577.093852
 20
-821.2988
 10
-1578.342477
 20
-821.268626
 10
-1578.342702
 20
-821.268621
 10
-1578.344276
 20
-821.268583
 10
-1578.348548
 20
-821.268479
 10
-1578.356867
 20
-821.268277
 10
-1578.370581
 20
-821.267944
 10
-1578.391041
 20
-821.267448
 10
-1578.419595
 20
-821.266755
 10
-1578.457592
 20
-821.265833
 10
-1578.506381
 20
-821.264649
 10
-1578.567311
 20
-821.26317
 10
-1578.64173
 20
-821.261364
 10
-1578.730989
 20
-821.259197
 10
-1578.836436
 20
-821.256638
 10
-1578.95942
 20
-821.253654
 10
-1579.10129
 20
-821.250211
 10
-1579.263395
 20
-821.246276
 10
-1579.447083
 20
-821.241818
 10
-1579.653705
 20
-821.236804
 10
-1579.884609
 20
-821.2312
 10
-1580.141144
 20
-821.224974
 10
-1580.423984
 20
-821.21811
 10
-1580.731107
 20
-821.210656
 10
-1581.059813
 20
-821.202679
 10
-1581.407405
 20
-821.194243
 10
-1581.771186
 20
-821.185414
 10
-1582.148456
 20
-821.176258
 10
-1582.536518
 20
-821.16684
 10
-1582.932675
 20
-821.157226
 10
-1583.334227
 20
-821.147481
 10
-1583.738477
 20
-821.13767
 10
-1584.142727
 20
-821.127859
 10
-1584.54428
 20
-821.118114
 10
-1584.940436
 20
-821.108499
 10
-1585.328498
 20
-821.099081
 10
-1585.705769
 20
-821.089925
 10
-1586.069549
 20
-821.081097
 10
-1586.417141
 20
-821.072661
 10
-1586.745848
 20
-821.064684
 10
-1587.05297
 20
-821.05723
 10
-1587.33581
 20
-821.050366
 10
-1587.592345
 20
-821.04414
 10
-1587.823249
 20
-821.038536
 10
-1588.029871
 20
-821.033521
 10
-1588.21356
 20
-821.029063
 10
-1588.375665
 20
-821.025129
 10
-1588.517534
 20
-821.021686
 10
-1588.640518
 20
-821.018701
 10
-1588.745965
 20
-821.016142
 10
-1588.835224
 20
-821.013976
 10
-1588.909644
 20
-821.01217
 10
-1588.970574
 20
-821.010691
 10
-1589.019362
 20
-821.009507
 10
-1589.057359
 20
-821.008585
 10
-1589.085913
 20
-821.007892
 10
-1589.106373
 20
-821.007396
 10
-1589.120088
 20
-821.007063
 10
-1589.128407
 20
-821.006861
 10
-1589.132678
 20
-821.006757
 10
-1589.134252
 20
-821.006719
 10
-1589.134477
 20
-821.006713
 10
-1589.134463
 20
-821.006125
 10
-1589.134363
 20
-821.002008
 10
-1589.134092
 20
-820.990831
 10
-1589.133563
 20
-820.969066
 10
-1589.132692
 20
-820.933183
 10
-1589.131393
 20
-820.879653
 10
-1589.12958
 20
-820.804946
 10
-1589.127167
 20
-820.705532
 10
-1589.124069
 20
-820.577883
 10
-1589.1202
 20
-820.418469
 10
-1589.115475
 20
-820.22376
 10
-1589.109807
 20
-819.990227
 10
-1589.103111
 20
-819.71434
 10
-1589.095301
 20
-819.39257
 10
-1589.086293
 20
-819.021388
 10
-1589.075999
 20
-818.597263
 10
-1589.064335
 20
-818.116668
 10
-1589.051214
 20
-817.576071
 10
-1589.036552
 20
-816.971944
 10
-1589.020262
 20
-816.300756
 10
-1589.002302
 20
-815.560745
 10
-1588.9828
 20
-814.757202
 10
-1588.961927
 20
-813.897189
 10
-1588.939855
 20
-812.987763
 10
-1588.916755
 20
-812.035983
 10
-1588.892798
 20
-811.048908
 10
-1588.868157
 20
-810.033598
 10
-1588.843001
 20
-808.997111
 10
-1588.817502
 20
-807.946506
 10
-1588.791833
 20
-806.888842
 10
-1588.766163
 20
-805.831178
 10
-1588.740664
 20
-804.780573
 10
-1588.715508
 20
-803.744086
 10
-1588.690867
 20
-802.728776
 10
-1588.66691
 20
-801.741702
 10
-1588.64381
 20
-800.789922
 10
-1588.621738
 20
-799.880496
 10
-1588.600865
 20
-799.020482
 10
-1588.581363
 20
-798.21694
 10
-1588.563403
 20
-797.476928
 10
-1588.547113
 20
-796.805741
 10
-1588.532451
 20
-796.201614
 10
-1588.51933
 20
-795.661017
 10
-1588.507666
 20
-795.180421
 10
-1588.497372
 20
-794.756297
 10
-1588.488364
 20
-794.385114
 10
-1588.480554
 20
-794.063344
 10
-1588.473858
 20
-793.787458
 10
-1588.468191
 20
-793.553925
 10
-1588.463465
 20
-793.359216
 10
-1588.459596
 20
-793.199801
 10
-1588.456498
 20
-793.072152
 10
-1588.454085
 20
-792.972739
 10
-1588.452272
 20
-792.898032
 10
-1588.450973
 20
-792.844501
 10
-1588.450102
 20
-792.808619
 10
-1588.449574
 20
-792.786854
 10
-1588.449302
 20
-792.775677
 10
-1588.449202
 20
-792.771559
 10
-1588.449188
 20
-792.770971
 10
-1588.443856
 20
-792.554033
 10
-1588.443039
 20
-792.519897
 10
-1588.442279
 20
-792.482695
 10
-1588.441714
 20
-792.442615
 10
-1588.441481
 20
-792.399847
 10
-1588.441717
 20
-792.354578
 10
-1588.44256
 20
-792.306997
 10
-1588.444146
 20
-792.257292
 10
-1588.446614
 20
-792.205652
 10
-1588.450101
 20
-792.152264
 10
-1588.454743
 20
-792.097318
 10
-1588.460678
 20
-792.041002
 10
-1588.468044
 20
-791.983503
 10
-1588.476977
 20
-791.925011
 10
-1588.487616
 20
-791.865714
 10
-1588.500097
 20
-791.8058
 10
-1588.514557
 20
-791.745458
 10
-1588.531135
 20
-791.684875
 10
-1588.549967
 20
-791.624241
 10
-1588.571191
 20
-791.563743
 10
-1588.594943
 20
-791.503571
 10
-1588.621322
 20
-791.443898
 10
-1588.650267
 20
-791.384846
 10
-1588.681677
 20
-791.326523
 10
-1588.71545
 20
-791.269035
 10
-1588.751487
 20
-791.21249
 10
-1588.789687
 20
-791.156996
 10
-1588.829949
 20
-791.102659
 10
-1588.872173
 20
-791.049588
 10
-1588.916257
 20
-790.99789
 10
-1588.962101
 20
-790.947672
 10
-1589.009604
 20
-790.899042
 10
-1589.058666
 20
-790.852107
 10
-1589.109186
 20
-790.806975
 10
-1589.161063
 20
-790.763752
 10
-1589.214196
 20
-790.722547
 10
-1589.268485
 20
-790.683466
 10
-1589.323829
 20
-790.646618
 10
-1589.380128
 20
-790.612109
 10
-1589.437281
 20
-790.580047
 10
-1589.495186
 20
-790.55054
 10
-1589.553728
 20
-790.523656
 10
-1589.612728
 20
-790.499304
 10
-1589.671991
 20
-790.477355
 10
-1589.731323
 20
-790.457682
 10
-1589.790528
 20
-790.440153
 10
-1589.849414
 20
-790.424641
 10
-1589.907784
 20
-790.411015
 10
-1589.965445
 20
-790.399147
 10
-1590.022202
 20
-790.388908
 10
-1590.07786
 20
-790.380169
 10
-1590.132226
 20
-790.3728
 10
-1590.185103
 20
-790.366671
 10
-1590.236298
 20
-790.361655
 10
-1590.285617
 20
-790.357622
 10
-1590.332864
 20
-790.354443
 10
-1590.377845
 20
-790.351988
 10
-1590.420366
 20
-790.350128
 10
-1590.460232
 20
-790.348735
 10
-1590.497249
 20
-790.347679
 10
-1590.747126
 20
-790.34158
 10
-1590.963031
 20
-790.336331
 10
-1590.997004
 20
-790.335527
 10
-1591.034028
 20
-790.334782
 10
-1591.073915
 20
-790.334235
 10
-1591.116475
 20
-790.334024
 10
-1591.161522
 20
-790.334286
 10
-1591.208867
 20
-790.335159
 10
-1591.258322
 20
-790.336783
 10
-1591.309699
 20
-790.339294
 10
-1591.36281
 20
-790.342832
 10
-1591.417466
 20
-790.347533
 10
-1591.473481
 20
-790.353536
 10
-1591.530664
 20
-790.36098
 10
-1591.588829
 20
-790.370002
 10
-1591.647787
 20
-790.380741
 10
-1591.707351
 20
-790.393333
 10
-1591.767332
 20
-790.407919
 10
-1591.827542
 20
-790.424635
 10
-1591.887792
 20
-790.44362
 10
-1591.947896
 20
-790.465011
 10
-1592.007664
 20
-790.488948
 10
-1592.066923
 20
-790.515527
 10
-1592.125553
 20
-790.544689
 10
-1592.183448
 20
-790.576331
 10
-1592.240503
 20
-790.610352
 10
-1592.296612
 20
-790.646651
 10
-1592.351669
 20
-790.685128
 10
-1592.405569
 20
-790.725679
 10
-1592.458206
 20
-790.768206
 10
-1592.509474
 20
-790.812605
 10
-1592.559269
 20
-790.858777
 10
-1592.607483
 20
-790.906619
 10
-1592.654012
 20
-790.956031
 10
-1592.698749
 20
-791.006911
 10
-1592.74159
 20
-791.059158
 10
-1592.782428
 20
-791.112671
 10
-1592.821158
 20
-791.167348
 10
-1592.857674
 20
-791.223089
 10
-1592.89187
 20
-791.279792
 10
-1592.923641
 20
-791.337357
 10
-1592.952882
 20
-791.39568
 10
-1592.979525
 20
-791.454647
 10
-1593.003659
 20
-791.514076
 10
-1593.025413
 20
-791.573771
 10
-1593.044914
 20
-791.633537
 10
-1593.062289
 20
-791.693177
 10
-1593.077668
 20
-791.752495
 10
-1593.091178
 20
-791.811295
 10
-1593.102946
 20
-791.869382
 10
-1593.113101
 20
-791.926558
 10
-1593.12177
 20
-791.982628
 10
-1593.129082
 20
-792.037396
 10
-1593.135164
 20
-792.090666
 10
-1593.140145
 20
-792.142242
 10
-1593.144151
 20
-792.191927
 10
-1593.147311
 20
-792.239526
 10
-1593.149753
 20
-792.284843
 10
-1593.151605
 20
-792.327681
 10
-1593.152994
 20
-792.367844
 10
-1593.154049
 20
-792.405137
 10
-1593.160147
 20
-792.65688
 10
-1593.160161
 20
-792.657468
 10
-1593.160261
 20
-792.661586
 10
-1593.160532
 20
-792.672763
 10
-1593.16106
 20
-792.694528
 10
-1593.161931
 20
-792.730411
 10
-1593.16323
 20
-792.783941
 10
-1593.165042
 20
-792.858648
 10
-1593.167454
 20
-792.958061
 10
-1593.170551
 20
-793.08571
 10
-1593.174419
 20
-793.245125
 10
-1593.179143
 20
-793.439834
 10
-1593.184808
 20
-793.673367
 10
-1593.191502
 20
-793.949254
 10
-1593.199308
 20
-794.271023
 10
-1593.208314
 20
-794.642206
 10
-1593.218604
 20
-795.06633
 10
-1593.230264
 20
-795.546926
 10
-1593.243379
 20
-796.087523
 10
-1593.258036
 20
-796.69165
 10
-1593.27432
 20
-797.362837
 10
-1593.292274
 20
-798.102849
 10
-1593.311769
 20
-798.906391
 10
-1593.332635
 20
-799.766405
 10
-1593.354699
 20
-800.675831
 10
-1593.37779
 20
-801.627611
 10
-1593.401738
 20
-802.614685
 10
-1593.426371
 20
-803.629996
 10
-1593.451518
 20
-804.666483
 10
-1593.477007
 20
-805.717088
 10
-1593.502667
 20
-806.774751
 10
-1593.528328
 20
-807.832415
 10
-1593.553817
 20
-808.88302
 10
-1593.578964
 20
-809.919507
 10
-1593.603597
 20
-810.934817
 10
-1593.627545
 20
-811.921892
 10
-1593.650636
 20
-812.873672
 10
-1593.6727
 20
-813.783098
 10
-1593.693566
 20
-814.643112
 10
-1593.713061
 20
-815.446654
 10
-1593.731014
 20
-816.186666
 10
-1593.747298
 20
-816.857853
 10
-1593.761955
 20
-817.46198
 10
-1593.775071
 20
-818.002577
 10
-1593.786731
 20
-818.483173
 10
-1593.797021
 20
-818.907297
 10
-1593.806026
 20
-819.278479
 10
-1593.813833
 20
-819.600249
 10
-1593.820526
 20
-819.876136
 10
-1593.826192
 20
-820.109669
 10
-1593.830916
 20
-820.304378
 10
-1593.834784
 20
-820.463792
 10
-1593.837881
 20
-820.591441
 10
-1593.840293
 20
-820.690855
 10
-1593.842105
 20
-820.765562
 10
-1593.843404
 20
-820.819092
 10
-1593.844275
 20
-820.854975
 10
-1593.844803
 20
-820.87674
 10
-1593.845074
 20
-820.887917
 10
-1593.845174
 20
-820.892034
 10
-1593.845188
 20
-820.892623
 10
-1593.845397
 20
-820.892618
 10
-1593.846859
 20
-820.892582
 10
-1593.850828
 20
-820.892486
 10
-1593.858557
 20
-820.892298
 10
-1593.871299
 20
-820.891989
 10
-1593.890308
 20
-820.891528
 10
-1593.916836
 20
-820.890884
 10
-1593.952138
 20
-820.890027
 10
-1593.997467
 20
-820.888927
 10
-1594.054075
 20
-820.887554
 10
-1594.123217
 20
-820.885876
 10
-1594.206145
 20
-820.883863
 10
-1594.304114
 20
-820.881486
 10
-1594.418375
 20
-820.878713
 10
-1594.550183
 20
-820.875515
 10
-1594.700791
 20
-820.87186
 10
-1594.871452
 20
-820.867719
 10
-1595.06342
 20
-820.86306
 10
-1595.277947
 20
-820.857855
 10
-1595.516288
 20
-820.852071
 10
-1595.779068
 20
-820.845694
 10
-1596.064409
 20
-820.83877
 10
-1596.369802
 20
-820.831359
 10
-1596.692742
 20
-820.823522
 10
-1597.030722
 20
-820.815321
 10
-1597.381235
 20
-820.806815
 10
-1597.741775
 20
-820.798066
 10
-1598.109835
 20
-820.789134
 10
-1598.482908
 20
-820.780081
 10
-1598.858488
 20
-820.770967
 10
-1599.234067
 20
-820.761853
 10
-1599.60714
 20
-820.7528
 10
-1599.9752
 20
-820.743868
 10
-1600.33574
 20
-820.735119
 10
-1600.686253
 20
-820.726614
 10
-1601.024233
 20
-820.718412
 10
-1601.347173
 20
-820.710575
 10
-1601.652566
 20
-820.703164
 10
-1601.937907
 20
-820.69624
 10
-1602.200687
 20
-820.689863
 10
-1602.439028
 20
-820.68408
 10
-1602.653555
 20
-820.678874
 10
-1602.845523
 20
-820.674215
 10
-1603.016184
 20
-820.670074
 10
-1603.166792
 20
-820.666419
 10
-1603.2986
 20
-820.663221
 10
-1603.412861
 20
-820.660448
 10
-1603.51083
 20
-820.658071
 10
-1603.593758
 20
-820.656058
 10
-1603.6629
 20
-820.654381
 10
-1603.719508
 20
-820.653007
 10
-1603.764837
 20
-820.651907
 10
-1603.800139
 20
-820.65105
 10
-1603.826667
 20
-820.650406
 10
-1603.845676
 20
-820.649945
 10
-1603.858418
 20
-820.649636
 10
-1603.866147
 20
-820.649448
 10
-1603.870116
 20
-820.649352
 10
-1603.871578
 20
-820.649317
 10
-1603.871787
 20
-820.649312
 10
-1604.950648
 20
-820.623186
 10
-1605.120409
 20
-820.618965
 10
-1605.305394
 20
-820.613712
 10
-1605.504643
 20
-820.606787
 10
-1605.717199
 20
-820.597551
 10
-1605.942102
 20
-820.585364
 10
-1606.178393
 20
-820.569586
 10
-1606.425113
 20
-820.549577
 10
-1606.681304
 20
-820.524697
 10
-1606.946006
 20
-820.494306
 10
-1607.21826
 20
-820.457765
 10
-1607.497108
 20
-820.414434
 10
-1607.78159
 20
-820.363672
 10
-1608.070747
 20
-820.304841
 10
-1608.363621
 20
-820.2373
 10
-1608.659253
 20
-820.160409
 10
-1608.956683
 20
-820.073529
 10
-1609.254953
 20
-819.97602
 10
-1609.553104
 20
-819.867241
 10
-1609.850176
 20
-819.746554
 10
-1610.145212
 20
-819.613317
 10
-1610.43732
 20
-819.467087
 10
-1610.725891
 20
-819.308198
 10
-1611.010381
 20
-819.13718
 10
-1611.290249
 20
-818.954562
 10
-1611.564952
 20
-818.760875
 10
-1611.83395
 20
-818.556648
 10
-1612.096698
 20
-818.342411
 10
-1612.352657
 20
-818.118693
 10
-1612.601282
 20
-817.886025
 10
-1612.842033
 20
-817.644935
 10
-1613.074368
 20
-817.395955
 10
-1613.297743
 20
-817.139613
 10
-1613.511618
 20
-816.876439
 10
-1613.71545
 20
-816.606964
 10
-1613.908697
 20
-816.331716
 10
-1614.090817
 20
-816.051226
 10
-1614.261269
 20
-815.766023
 10
-1614.419509
 20
-815.476637
 10
-1614.564996
 20
-815.183598
 10
-1614.697187
 20
-814.887436
 10
-1614.815753
 20
-814.588748
 10
-1614.921206
 20
-814.288404
 10
-1615.01427
 20
-813.987344
 10
-1615.09567
 20
-813.686505
 10
-1615.166131
 20
-813.386826
 10
-1615.226376
 20
-813.089245
 10
-1615.27713
 20
-812.794701
 10
-1615.319118
 20
-812.504133
 10
-1615.353063
 20
-812.218477
 10
-1615.379691
 20
-811.938674
 10
-1615.399726
 20
-811.66566
 10
-1615.413891
 20
-811.400376
 10
-1615.422912
 20
-811.143758
 10
-1615.427512
 20
-810.896746
 10
-1615.428417
 20
-810.660278
 10
-1615.42635
 20
-810.435292
 10
-1615.422036
 20
-810.222726
 10
-1615.4162
 20
-810.02352
 10
-1615.409565
 20
-809.838611
 10
-1615.359493
 20
-808.590656
 10
-1615.359486
 20
-808.590483
 10
-1615.359438
 20
-808.589278
 10
-1615.359306
 20
-808.586007
 10
-1615.35905
 20
-808.579637
 10
-1615.358628
 20
-808.569134
 10
-1615.357998
 20
-808.553467
 10
-1615.35712
 20
-808.531601
 10
-1615.35595
 20
-808.502505
 10
-1615.354449
 20
-808.465144
 10
-1615.352574
 20
-808.418486
 10
-1615.350284
 20
-808.361498
 10
-1615.347537
 20
-808.293146
 10
-1615.344292
 20
-808.212399
 10
-1615.340508
 20
-808.118222
 10
-1615.336142
 20
-808.009583
 10
-1615.331153
 20
-807.885449
 10
-1615.325501
 20
-807.744786
 10
-1615.319142
 20
-807.586562
 10
-1615.312037
 20
-807.409744
 10
-1615.304142
 20
-807.213298
 10
-1615.295438
 20
-806.996709
 10
-1615.285987
 20
-806.761525
 10
-1615.275872
 20
-806.509813
 10
-1615.265175
 20
-806.243639
 10
-1615.253981
 20
-805.965068
 10
-1615.242371
 20
-805.676168
 10
-1615.230429
 20
-805.379003
 10
-1615.218238
 20
-805.07564
 10
-1615.205881
 20
-804.768145
 10
-1615.193441
 20
-804.458584
 10
-1615.181001
 20
-804.149023
 10
-1615.168644
 20
-803.841528
 10
-1615.156453
 20
-803.538165
 10
-1615.144511
 20
-803.241
 10
-1615.132901
 20
-802.952099
 10
-1615.121707
 20
-802.673529
 10
-1615.11101
 20
-802.407354
 10
-1615.100895
 20
-802.155642
 10
-1615.091444
 20
-801.920458
 10
-1615.08274
 20
-801.703869
 10
-1615.074846
 20
-801.507423
 10
-1615.06774
 20
-801.330605
 10
-1615.061382
 20
-801.172381
 10
-1615.055729
 20
-801.031719
 10
-1615.05074
 20
-800.907584
 10
-1615.046375
 20
-800.798945
 10
-1615.04259
 20
-800.704768
 10
-1615.039345
 20
-800.624021
 10
-1615.036598
 20
-800.555669
 10
-1615.034308
 20
-800.498681
 10
-1615.032433
 20
-800.452023
 10
-1615.030932
 20
-800.414663
 10
-1615.029763
 20
-800.385566
 10
-1615.028884
 20
-800.3637
 10
-1615.028254
 20
-800.348033
 10
-1615.027832
 20
-800.337531
 10
-1615.027576
 20
-800.33116
 10
-1615.027445
 20
-800.327889
 10
-1615.027396
 20
-800.326684
 10
-1615.027389
 20
-800.326512
 10
-1614.805202
 20
-796.881382
 10
-1614.770246
 20
-796.339206
 10
-1614.732191
 20
-795.747945
 10
-1614.691271
 20
-795.11019
 10
-1614.647719
 20
-794.428532
 10
-1614.601769
 20
-793.705564
 10
-1614.553654
 20
-792.943876
 10
-1614.503609
 20
-792.146061
 10
-1614.451866
 20
-791.314709
 10
-1614.39866
 20
-790.452413
 10
-1614.344224
 20
-789.561763
 10
-1614.288792
 20
-788.645353
 10
-1614.232598
 20
-787.705772
 10
-1614.175874
 20
-786.745612
 10
-1614.118856
 20
-785.767466
 10
-1614.061776
 20
-784.773924
 10
-1614.004869
 20
-783.767578
 10
-1613.948367
 20
-782.75102
 10
-1613.892505
 20
-781.726841
 10
-1613.837516
 20
-780.697632
 10
-1613.783634
 20
-779.665986
 10
-1613.730966
 20
-778.634075
 10
-1613.679116
 20
-777.602395
 10
-1613.62756
 20
-776.571024
 10
-1613.575775
 20
-775.54004
 10
-1613.523238
 20
-774.509519
 10
-1613.469426
 20
-773.47954
 10
-1613.413815
 20
-772.450181
 10
-1613.355883
 20
-771.421518
 10
-1613.295105
 20
-770.393629
 10
-1613.23096
 20
-769.366592
 10
-1613.162924
 20
-768.340485
 10
-1613.090473
 20
-767.315385
 10
-1613.013084
 20
-766.291369
 10
-1612.930235
 20
-765.268516
 10
-1612.841402
 20
-764.246902
 10
-1612.746062
 20
-763.226606
 10
-1612.643692
 20
-762.207704
 10
-1612.533768
 20
-761.190275
 10
-1612.415768
 20
-760.174396
 10
-1612.289168
 20
-759.160145
 10
-1612.153701
 20
-758.147987
 10
-1612.010123
 20
-757.139939
 10
-1611.859446
 20
-756.138409
 10
-1611.702682
 20
-755.1458
 10
-1611.540842
 20
-754.164518
 10
-1611.374939
 20
-753.196971
 10
-1611.205984
 20
-752.245562
 10
-1611.03499
 20
-751.312698
 10
-1610.862968
 20
-750.400784
 10
-1610.69093
 20
-749.512226
 10
-1610.519889
 20
-748.64943
 10
-1610.350855
 20
-747.814801
 10
-1610.184842
 20
-747.010745
 10
-1610.02286
 20
-746.239667
 10
-1609.865922
 20
-745.503974
 10
-1609.71504
 20
-744.80607
 10
-1609.571225
 20
-744.148361
 10
-1609.43549
 20
-743.533254
 10
-1609.308846
 20
-742.963154
 10
-1608.451294
 20
-739.119265
 10
-1607.129121
 20
-733.193322
 10
-1606.921156
 20
-732.260716
 10
-1606.695017
 20
-731.243605
 10
-1606.452365
 20
-730.146371
 10
-1606.194859
 20
-728.973397
 10
-1605.924159
 20
-727.729068
 10
-1605.641923
 20
-726.417765
 10
-1605.349812
 20
-725.043873
 10
-1605.049485
 20
-723.611775
 10
-1604.742602
 20
-722.125853
 10
-1604.430822
 20
-720.590492
 10
-1604.115804
 20
-719.010074
 10
-1603.799209
 20
-717.388983
 10
-1603.482696
 20
-715.731602
 10
-1603.167923
 20
-714.042313
 10
-1602.856552
 20
-712.325502
 10
-1602.550241
 20
-710.58555
 10
-1602.250649
 20
-708.826841
 10
-1601.959437
 20
-707.053758
 10
-1601.678264
 20
-705.270685
 10
-1601.408789
 20
-703.482005
 10
-1601.152315
 20
-701.691347
 10
-1600.908711
 20
-699.899333
 10
-1600.677491
 20
-698.105829
 10
-1600.458168
 20
-696.310703
 10
-1600.250255
 20
-694.51382
 10
-1600.053264
 20
-692.715049
 10
-1599.866709
 20
-690.914256
 10
-1599.690102
 20
-689.111308
 10
-1599.522957
 20
-687.306073
 10
-1599.364786
 20
-685.498418
 10
-1599.215103
 20
-683.688209
 10
-1599.07342
 20
-681.875314
 10
-1598.93925
 20
-680.059599
 10
-1598.812106
 20
-678.240933
 10
-1598.691502
 20
-676.419181
 10
-1598.576949
 20
-674.594211
 10
-1598.467962
 20
-672.76589
 10
-1598.364053
 20
-670.934085
 10
-1598.264734
 20
-669.098663
 10
-1598.169519
 20
-667.259491
 10
-1598.077997
 20
-665.417274
 10
-1597.990052
 20
-663.576069
 10
-1597.905649
 20
-661.740768
 10
-1597.824749
 20
-659.916266
 10
-1597.747314
 20
-658.107458
 10
-1597.673306
 20
-656.319236
 10
-1597.602686
 20
-654.556495
 10
-1597.535419
 20
-652.824129
 10
-1597.471464
 20
-651.127031
 10
-1597.410785
 20
-649.470096
 10
-1597.353342
 20
-647.858218
 10
-1597.2991
 20
-646.29629
 10
-1597.248019
 20
-644.789207
 10
-1597.200061
 20
-643.341862
 10
-1597.155189
 20
-641.95915
 10
-1597.113364
 20
-640.645963
 10
-1597.074549
 20
-639.407197
 10
-1597.038706
 20
-638.247745
 10
-1597.005796
 20
-637.172501
 10
-1596.785259
 20
-629.919962
 10
-1596.785069
 20
-629.913711
 10
-1596.783738
 20
-629.86995
 10
-1596.780127
 20
-629.75117
 10
-1596.773094
 20
-629.519862
 10
-1596.761499
 20
-629.138517
 10
-1596.744202
 20
-628.569625
 10
-1596.720062
 20
-627.775676
 10
-1596.687938
 20
-626.719162
 10
-1596.646691
 20
-625.362573
 10
-1596.59518
 20
-623.6684
 10
-1596.532264
 20
-621.599133
 10
-1596.456802
 20
-619.117263
 10
-1596.367655
 20
-616.18528
 10
-1596.263682
 20
-612.765675
 10
-1596.143742
 20
-608.82094
 10
-1596.006695
 20
-604.313563
 10
-1595.851401
 20
-599.206037
 10
-1595.676718
 20
-593.460851
 10
-1595.481507
 20
-587.040497
 10
-1595.264627
 20
-579.907464
 10
-1595.025507
 20
-572.042999
 10
-1594.765859
 20
-563.503365
 10
-1594.487964
 20
-554.363581
 10
-1594.194101
 20
-544.698666
 10
-1593.886554
 20
-534.583638
 10
-1593.567601
 20
-524.093517
 10
-1593.239525
 20
-513.303321
 10
-1592.904605
 20
-502.288068
 10
-1592.565124
 20
-491.122778
 10
-1592.223362
 20
-479.882469
 10
-1591.8816
 20
-468.64216
 10
-1591.542119
 20
-457.47687
 10
-1591.2072
 20
-446.461617
 10
-1590.879123
 20
-435.671421
 10
-1590.560171
 20
-425.1813
 10
-1590.252623
 20
-415.066272
 10
-1589.95876
 20
-405.401357
 10
-1589.680865
 20
-396.261573
 10
-1589.421217
 20
-387.721939
 10
-1589.182098
 20
-379.857474
 10
-1588.965217
 20
-372.724441
 10
-1588.770006
 20
-366.304087
 10
-1588.595324
 20
-360.558901
 10
-1588.440029
 20
-355.451375
 10
-1588.302982
 20
-350.943998
 10
-1588.183042
 20
-346.999263
 10
-1588.079069
 20
-343.579658
 10
-1587.989922
 20
-340.647675
 10
-1587.91446
 20
-338.165805
 10
-1587.851544
 20
-336.096538
 10
-1587.800033
 20
-334.402365
 10
-1587.758786
 20
-333.045776
 10
-1587.726662
 20
-331.989262
 10
-1587.702522
 20
-331.195313
 10
-1587.685225
 20
-330.626421
 10
-1587.67363
 20
-330.245076
 10
-1587.666597
 20
-330.013768
 10
-1587.662986
 20
-329.894988
 10
-1587.661655
 20
-329.851227
 10
-1587.661465
 20
-329.844976
 10
-1587.651834
 20
-329.529738
 10
-1587.650286
 20
-329.480135
 10
-1587.648412
 20
-329.426088
 10
-1587.646029
 20
-329.36788
 10
-1587.642955
 20
-329.305796
 10
-1587.639008
 20
-329.240119
 10
-1587.634004
 20
-329.171134
 10
-1587.627763
 20
-329.099125
 10
-1587.620102
 20
-329.024374
 10
-1587.610838
 20
-328.947168
 10
-1587.59979
 20
-328.867789
 10
-1587.586775
 20
-328.786522
 10
-1587.571611
 20
-328.70365
 10
-1587.554116
 20
-328.619458
 10
-1587.534107
 20
-328.534229
 10
-1587.511402
 20
-328.448249
 10
-1587.485819
 20
-328.3618
 10
-1587.457176
 20
-328.275166
 10
-1587.425291
 20
-328.188633
 10
-1587.389981
 20
-328.102483
 10
-1587.351064
 20
-328.017001
 10
-1587.308413
 20
-327.932448
 10
-1587.262122
 20
-327.848994
 10
-1587.212342
 20
-327.766785
 10
-1587.159221
 20
-327.685969
 10
-1587.10291
 20
-327.606693
 10
-1587.043557
 20
-327.529104
 10
-1586.981313
 20
-327.453348
 10
-1586.916328
 20
-327.379573
 10
-1586.84875
 20
-327.307926
 10
-1586.778729
 20
-327.238553
 10
-1586.706415
 20
-327.171602
 10
-1586.631958
 20
-327.10722
 10
-1586.555508
 20
-327.045553
 10
-1586.477213
 20
-326.986749
 10
-1586.397223
 20
-326.930954
 10
-1586.315689
 20
-326.878316
 10
-1586.23276
 20
-326.828982
 10
-1586.148585
 20
-326.783098
 10
-1586.063314
 20
-326.740812
 10
-1585.977096
 20
-326.70227
 10
-1585.890103
 20
-326.667561
 10
-1585.802589
 20
-326.636544
 10
-1585.714832
 20
-326.609018
 10
-1585.627107
 20
-326.584782
 10
-1585.53969
 20
-326.563637
 10
-1585.452858
 20
-326.545381
 10
-1585.366888
 20
-326.529815
 10
-1585.282056
 20
-326.516739
 10
-1585.198637
 20
-326.505951
 10
-1585.116909
 20
-326.497252
 10
-1585.037148
 20
-326.490442
 10
-1584.95963
 20
-326.48532
 10
-1584.884632
 20
-326.481685
 10
-1584.812429
 20
-326.479338
 10
-1584.743299
 20
-326.478078
 10
-1584.677518
 20
-326.477705
 10
-1584.615361
 20
-326.478018
 10
-1584.557106
 20
-326.478817
 10
-1584.503028
 20
-326.479903
 10
-1584.138043
 20
-326.488721
 10
-1584.137951
 20
-326.488724
 10
-1584.13731
 20
-326.488739
 10
-1584.135568
 20
-326.488781
 10
-1584.132175
 20
-326.488864
 10
-1584.126582
 20
-326.488999
 10
-1584.118239
 20
-326.489201
 10
-1584.106595
 20
-326.489484
 10
-1584.0911
 20
-326.489859
 10
-1584.071204
 20
-326.490341
 10
-1584.046357
 20
-326.490943
 10
-1584.016009
 20
-326.491679
 10
-1583.97961
 20
-326.492561
 10
-1583.936609
 20
-326.493603
 10
-1583.886457
 20
-326.494818
 10
-1583.828603
 20
-326.49622
 10
-1583.762497
 20
-326.497822
 10
-1583.68759
 20
-326.499638
 10
-1583.60333
 20
-326.501679
 10
-1583.509169
 20
-326.503961
 10
-1583.404555
 20
-326.506496
 10
-1583.289214
 20
-326.509292
 10
-1583.163971
 20
-326.512327
 10
-1583.029926
 20
-326.515575
 10
-1582.888179
 20
-326.51901
 10
-1582.739831
 20
-326.522605
 10
-1582.585982
 20
-326.526333
 10
-1582.427732
 20
-326.530168
 10
-1582.266181
 20
-326.534083
 10
-1582.10243
 20
-326.538052
 10
-1581.937578
 20
-326.542046
 10
-1581.772727
 20
-326.546041
 10
-1581.608976
 20
-326.55001
 10
-1581.447425
 20
-326.553925
 10
-1581.289175
 20
-326.55776
 10
-1581.135326
 20
-326.561488
 10
-1580.986978
 20
-326.565083
 10
-1580.845231
 20
-326.568518
 10
-1580.711186
 20
-326.571766
 10
-1580.585943
 20
-326.574801
 10
-1580.470602
 20
-326.577597
 10
-1580.365988
 20
-326.580132
 10
-1580.271827
 20
-326.582414
 10
-1580.187567
 20
-326.584455
 10
-1580.11266
 20
-326.586271
 10
-1580.046554
 20
-326.587873
 10
-1579.9887
 20
-326.589275
 10
-1579.938548
 20
-326.59049
 10
-1579.895547
 20
-326.591532
 10
-1579.859148
 20
-326.592414
 10
-1579.8288
 20
-326.59315
 10
-1579.803953
 20
-326.593752
 10
-1579.784057
 20
-326.594234
 10
-1579.768562
 20
-326.594609
 10
-1579.756918
 20
-326.594892
 10
-1579.748574
 20
-326.595094
 10
-1579.742981
 20
-326.595229
 10
-1579.739589
 20
-326.595312
 10
-1579.737847
 20
-326.595354
 10
-1579.737205
 20
-326.595369
 10
-1579.737114
 20
-326.595372
 10
-1579.438617
 20
-326.602606
 10
-1579.391649
 20
-326.603773
 10
-1579.340469
 20
-326.605215
 10
-1579.285345
 20
-326.607101
 10
-1579.226544
 20
-326.609596
 10
-1579.164332
 20
-326.612867
 10
-1579.098976
 20
-326.617082
 10
-1579.030743
 20
-326.622407
 10
-1578.959898
 20
-326.62901
 10
-1578.886709
 20
-326.637058
 10
-1578.811443
 20
-326.646718
 10
-1578.734366
 20
-326.658156
 10
-1578.655745
 20
-326.671539
 10
-1578.575846
 20
-326.687036
 10
-1578.494936
 20
-326.704812
 10
-1578.413282
 20
-326.725034
 10
-1578.331151
 20
-326.747871
 10
-1578.248808
 20
-326.773488
 10
-1578.166521
 20
-326.802053
 10
-1578.084557
 20
-326.833732
 10
-1578.003181
 20
-326.868693
 10
-1577.922638
 20
-326.907054
 10
-1577.843074
 20
-326.948732
 10
-1577.764615
 20
-326.993598
 10
-1577.687386
 20
-327.041521
 10
-1577.611509
 20
-327.092369
 10
-1577.537111
 20
-327.146013
 10
-1577.464315
 20
-327.202321
 10
-1577.393246
 20
-327.261163
 10
-1577.324028
 20
-327.322408
 10
-1577.256785
 20
-327.385926
 10
-1577.191643
 20
-327.451585
 10
-1577.128726
 20
-327.519255
 10
-1577.068157
 20
-327.588806
 10
-1577.010062
 20
-327.660106
 10
-1576.954565
 20
-327.733024
 10
-1576.90179
 20
-327.807431
 10
-1576.851862
 20
-327.883196
 10
-1576.804905
 20
-327.960187
 10
-1576.761044
 20
-328.038274
 10
-1576.720403
 20
-328.117327
 10
-1576.683061
 20
-328.197192
 10
-1576.648909
 20
-328.27763
 10
-1576.617796
 20
-328.358381
 10
-1576.589567
 20
-328.439182
 10
-1576.564069
 20
-328.519773
 10
-1576.541149
 20
-328.599891
 10
-1576.520653
 20
-328.679276
 10
-1576.502428
 20
-328.757666
 10
-1576.486321
 20
-328.834801
 10
-1576.472178
 20
-328.910418
 10
-1576.459846
 20
-328.984256
 10
-1576.449172
 20
-329.056055
 10
-1576.440001
 20
-329.125552
 10
-1576.432182
 20
-329.192487
 10
-1576.42556
 20
-329.256597
 10
-1576.419981
 20
-329.317623
 10
-1576.415294
 20
-329.375302
 10
-1576.411344
 20
-329.429373
 10
-1576.407977
 20
-329.479574
 10
-1576.386564
 20
-329.818437
 10
-1576.38658
 20
-329.819128
 10
-1576.386698
 20
-329.823959
 10
-1576.387016
 20
-329.837074
 10
-1576.387636
 20
-329.862613
 10
-1576.388658
 20
-329.904718
 10
-1576.390182
 20
-329.967531
 10
-1576.39231
 20
-330.055193
 10
-1576.395141
 20
-330.171845
 10
-1576.398776
 20
-330.321629
 10
-1576.403316
 20
-330.508687
 10
-1576.408861
 20
-330.737159
 10
-1576.415511
 20
-331.011188
 10
-1576.423368
 20
-331.334915
 10
-1576.432531
 20
-331.712482
 10
-1576.443101
 20
-332.148029
 10
-1576.45518
 20
-332.645699
 10
-1576.468866
 20
-333.209633
 10
-1576.484261
 20
-333.843972
 10
-1576.501465
 20
-334.552858
 10
-1576.520579
 20
-335.340433
 10
-1576.541653
 20
-336.208767
 10
-1576.564536
 20
-337.151648
 10
-1576.589027
 20
-338.160793
 10
-1576.614926
 20
-339.227918
 10
-1576.642031
 20
-340.344742
 10
-1576.67014
 20
-341.50298
 10
-1576.699054
 20
-342.694351
 10
-1576.728571
 20
-343.910571
 10
-1576.75849
 20
-345.143356
 10
-1576.78861
 20
-346.384425
 10
-1576.81873
 20
-347.625493
 10
-1576.848649
 20
-348.858279
 10
-1576.878166
 20
-350.074499
 10
-1576.907079
 20
-351.265869
 10
-1576.935189
 20
-352.424108
 10
-1576.962294
 20
-353.540931
 10
-1576.988192
 20
-354.608057
 10
-1577.012684
 20
-355.617202
 10
-1577.035567
 20
-356.560083
 10
-1577.056641
 20
-357.428416
 10
-1577.075755
 20
-358.215991
 10
-1577.092959
 20
-358.924877
 10
-1577.108354
 20
-359.559217
 10
-1577.12204
 20
-360.12315
 10
-1577.134118
 20
-360.62082
 10
-1577.144689
 20
-361.056368
 10
-1577.153852
 20
-361.433934
 10
-1577.161709
 20
-361.757661
 10
-1577.168359
 20
-362.03169
 10
-1577.173904
 20
-362.260163
 10
-1577.178444
 20
-362.44722
 10
-1577.182079
 20
-362.597005
 10
-1577.18491
 20
-362.713657
 10
-1577.187038
 20
-362.801318
 10
-1577.188562
 20
-362.864131
 10
-1577.189584
 20
-362.906236
 10
-1577.190204
 20
-362.931776
 10
-1577.190522
 20
-362.94489
 10
-1577.190639
 20
-362.949722
 10
-1577.190656
 20
-362.950412
 10
-1577.195906
 20
-363.167846
 10
-1577.19671
 20
-363.202061
 10
-1577.197455
 20
-363.239347
 10
-1577.198005
 20
-363.279516
 10
-1577.198223
 20
-363.322378
 10
-1577.19797
 20
-363.367743
 10
-1577.19711
 20
-363.415422
 10
-1577.195507
 20
-363.465226
 10
-1577.193021
 20
-363.516966
 10
-1577.189518
 20
-363.57045
 10
-1577.184858
 20
-363.625491
 10
-1577.178906
 20
-363.681898
 10
-1577.171524
 20
-363.739483
 10
-1577.162575
 20
-363.798055
 10
-1577.151921
 20
-363.857425
 10
-1577.139426
 20
-363.917404
 10
-1577.124953
 20
-363.977803
 10
-1577.108363
 20
-364.03843
 10
-1577.089521
 20
-364.099098
 10
-1577.068288
 20
-364.159617
 10
-1577.044529
 20
-364.219797
 10
-1577.018144
 20
-364.279462
 10
-1576.989196
 20
-364.338493
 10
-1576.957785
 20
-364.396783
 10
-1576.924011
 20
-364.454226
 10
-1576.887974
 20
-364.510715
 10
-1576.849777
 20
-364.566144
 10
-1576.809518
 20
-364.620407
 10
-1576.767299
 20
-364.673398
 10
-1576.72322
 20
-364.72501
 10
-1576.677382
 20
-364.775137
 10
-1576.629885
 20
-364.823672
 10
-1576.58083
 20
-364.87051
 10
-1576.530318
 20
-364.915544
 10
-1576.478448
 20
-364.958668
 10
-1576.425323
 20
-364.999775
 10
-1576.371041
 20
-365.038759
 10
-1576.315704
 20
-365.075513
 10
-1576.259413
 20
-365.109932
 10
-1576.202268
 20
-365.14191
 10
-1576.144369
 20
-365.171339
 10
-1576.085833
 20
-365.198153
 10
-1576.026838
 20
-365.222441
 10
-1575.96758
 20
-365.244332
 10
-1575.908252
 20
-365.263956
 10
-1575.84905
 20
-365.28144
 10
-1575.790168
 20
-365.296913
 10
-1575.7318
 20
-365.310504
 10
-1575.674142
 20
-365.322343
 10
-1575.617387
 20
-365.332557
 10
-1575.56173
 20
-365.341276
 10
-1575.507367
 20
-365.348629
 10
-1575.45449
 20
-365.354743
 10
-1575.403296
 20
-365.359749
 10
-1575.353978
 20
-365.363774
 10
-1575.306731
 20
-365.366948
 10
-1575.26175
 20
-365.369399
 10
-1575.219229
 20
-365.371257
 10
-1575.179364
 20
-365.372649
 10
-1575.142347
 20
-365.373705
 10
-1574.89247
 20
-365.379803
 10
-1574.676607
 20
-365.385011
 10
-1574.64264
 20
-365.385809
 10
-1574.605623
 20
-365.386545
 10
-1574.565746
 20
-365.387083
 10
-1574.523196
 20
-365.387284
 10
-1574.478162
 20
-365.387009
 10
-1574.430833
 20
-365.38612
 10
-1574.381397
 20
-365.384477
 10
-1574.330042
 20
-365.381944
 10
-1574.276957
 20
-365.37838
 10
-1574.222331
 20
-365.373649
 10
-1574.166352
 20
-365.36761
 10
-1574.109208
 20
-365.360127
 10
-1574.051089
 20
-365.351059
 10
-1573.992182
 20
-365.340269
 10
-1573.932676
 20
-365.327619
 10
-1573.872759
 20
-365.312969
 10
-1573.812621
 20
-365.296182
 10
-1573.752449
 20
-365.277118
 10
-1573.692432
 20
-365.25564
 10
-1573.632758
 20
-365.231609
 10
-1573.573603
 20
-365.204926
 10
-1573.515084
 20
-365.175654
 10
-1573.457305
 20
-365.143896
 10
-1573.400371
 20
-365.109753
 10
-1573.344387
 20
-365.07333
 10
-1573.289455
 20
-365.034729
 10
-1573.235681
 20
-364.994051
 10
-1573.183169
 20
-364.951401
 10
-1573.132023
 20
-364.90688
 10
-1573.082348
 20
-364.860591
 10
-1573.034247
 20
-364.812637
 10
-1572.987825
 20
-364.763121
 10
-1572.943186
 20
-364.712145
 10
-1572.900435
 20
-364.659811
 10
-1572.859675
 20
-364.606223
 10
-1572.821011
 20
-364.551483
 10
-1572.784548
 20
-364.495694
 10
-1572.750389
 20
-364.438958
 10
-1572.718638
 20
-364.381378
 10
-1572.689401
 20
-364.323057
 10
-1572.662743
 20
-364.264113
 10
-1572.638575
 20
-364.204724
 10
-1572.616772
 20
-364.145086
 10
-1572.597206
 20
-364.085393
 10
-1572.579753
 20
-364.025839
 10
-1572.564284
 20
-363.966619
 10
-1572.550674
 20
-363.907928
 10
-1572.538796
 20
-363.849961
 10
-1572.528525
 20
-363.79291
 10
-1572.519732
 20
-363.736972
 10
-1572.512293
 20
-363.682341
 10
-1572.50608
 20
-363.629211
 10
-1572.500967
 20
-363.577777
 10
-1572.496828
 20
-363.528234
 10
-1572.493536
 20
-363.480775
 10
-1572.490965
 20
-363.435596
 10
-1572.488988
 20
-363.392891
 10
-1572.48748
 20
-363.352854
 10
-1572.486312
 20
-363.315681
 10
-1572.479449
 20
-363.064751
 10
-1572.479443
 20
-363.064527
 10
-1572.4794
 20
-363.062956
 10
-1572.479283
 20
-363.058694
 10
-1572.479056
 20
-363.050393
 10
-1572.478681
 20
-363.036707
 10
-1572.478122
 20
-363.016291
 10
-1572.477342
 20
-362.987798
 10
-1572.476303
 20
-362.949883
 10
-1572.47497
 20
-362.901198
 10
-1572.473305
 20
-362.840398
 10
-1572.471272
 20
-362.766138
 10
-1572.468833
 20
-362.67707
 10
-1572.465951
 20
-362.571848
 10
-1572.462591
 20
-362.449127
 10
-1572.458714
 20
-362.307561
 10
-1572.454284
 20
-362.145802
 10
-1572.449265
 20
-361.962506
 10
-1572.443619
 20
-361.756326
 10
-1572.437309
 20
-361.525915
 10
-1572.430299
 20
-361.269929
 10
-1572.42257
 20
-360.987693
 10
-1572.414178
 20
-360.681227
 10
-1572.405196
 20
-360.353223
 10
-1572.395697
 20
-360.006374
 10
-1572.385757
 20
-359.643371
 10
-1572.375448
 20
-359.266907
 10
-1572.364844
 20
-358.879674
 10
-1572.354018
 20
-358.484365
 10
-1572.343046
 20
-358.083671
 10
-1572.331999
 20
-357.680284
 10
-1572.320953
 20
-357.276898
 10
-1572.30998
 20
-356.876204
 10
-1572.299155
 20
-356.480894
 10
-1572.28855
 20
-356.093662
 10
-1572.278241
 20
-355.717198
 10
-1572.268301
 20
-355.354195
 10
-1572.258802
 20
-355.007345
 10
-1572.24982
 20
-354.679342
 10
-1572.241428
 20
-354.372876
 10
-1572.233699
 20
-354.09064
 10
-1572.226689
 20
-353.834653
 10
-1572.220379
 20
-353.604243
 10
-1572.214733
 20
-353.398063
 10
-1572.209714
 20
-353.214767
 10
-1572.205284
 20
-353.053008
 10
-1572.201408
 20
-352.911442
 10
-1572.198047
 20
-352.788721
 10
-1572.195166
 20
-352.683499
 10
-1572.192726
 20
-352.594431
 10
-1572.190693
 20
-352.52017
 10
-1572.189028
 20
-352.459371
 10
-1572.187695
 20
-352.410686
 10
-1572.186656
 20
-352.372771
 10
-1572.185876
 20
-352.344278
 10
-1572.185317
 20
-352.323862
 10
-1572.184942
 20
-352.310176
 10
-1572.184715
 20
-352.301875
 10
-1572.184598
 20
-352.297612
 10
-1572.184555
 20
-352.296042
 10
-1572.184549
 20
-352.295818
  0
LWPOLYLINE
  5
33
330
1F
100
AcDbEntity
  8
0
100
AcDbPolyline
 90
      105
 70
   128
 43
0.0
 10
-1260.851046
 20
-619.712006
 10
-1488.445117
 20
-617.589718
 10
-1488.576259
 20
-617.593741
 10
-1488.703706
 20
-617.607945
 10
-1488.826802
 20
-617.63182
 10
-1488.944887
 20
-617.664854
 10
-1489.057304
 20
-617.706537
 10
-1489.163397
 20
-617.756356
 10
-1489.262506
 20
-617.813801
 10
-1489.353975
 20
-617.878361
 10
-1489.437146
 20
-617.949525
 10
-1489.511361
 20
-618.026782
 10
-1489.575963
 20
-618.10962
 10
-1489.630293
 20
-618.197529
 10
-1489.673695
 20
-618.289997
 10
-1489.705511
 20
-618.386514
 10
-1489.725082
 20
-618.486568
 10
-1489.731752
 20
-618.589648
 10
-1489.731752
 20
-621.337006
 10
-1477.016158
 20
-621.337006
 10
-1477.016158
 20
-623.712006
 10
-1477.016158
 20
-626.087006
 10
-1489.731752
 20
-626.087006
 10
-1489.731752
 20
-628.834365
 10
-1489.725082
 20
-628.937445
 10
-1489.705511
 20
-629.037498
 10
-1489.673695
 20
-629.134015
 10
-1489.630293
 20
-629.226483
 10
-1489.575963
 20
-629.314392
 10
-1489.511361
 20
-629.39723
 10
-1489.437146
 20
-629.474487
 10
-1489.353975
 20
-629.545651
 10
-1489.262506
 20
-629.610211
 10
-1489.163397
 20
-629.667656
 10
-1489.057304
 20
-629.717476
 10
-1488.944887
 20
-629.759158
 10
-1488.826802
 20
-629.792192
 10
-1488.703706
 20
-629.816067
 10
-1488.576259
 20
-629.830271
 10
-1488.445117
 20
-629.834294
 10
-1260.851046
 20
-627.712006
 10
-1260.538123
 20
-627.706208
 10
-1260.235134
 20
-627.689057
 10
-1259.94208
 20
-627.66092
 10
-1259.658959
 20
-627.622162
 10
-1259.385772
 20
-627.573151
 10
-1259.12252
 20
-627.514252
 10
-1258.869201
 20
-627.445832
 10
-1258.625817
 20
-627.368256
 10
-1258.392367
 20
-627.281891
 10
-1258.16885
 20
-627.187104
 10
-1257.955268
 20
-627.08426
 10
-1257.75162
 20
-626.973725
 10
-1257.557906
 20
-626.855866
 10
-1257.374126
 20
-626.731049
 10
-1257.20028
 20
-626.59964
 10
-1257.036368
 20
-626.462006
 10
-1256.88239
 20
-626.318512
 10
-1256.738346
 20
-626.169526
 10
-1256.604236
 20
-626.015412
 10
-1256.48006
 20
-625.856537
 10
-1256.365819
 20
-625.693268
 10
-1256.261511
 20
-625.525971
 10
-1256.167137
 20
-625.355011
 10
-1256.082698
 20
-625.180756
 10
-1256.008193
 20
-625.003571
 10
-1255.943621
 20
-624.823823
 10
-1255.888984
 20
-624.641877
 10
-1255.844281
 20
-624.4581
 10
-1255.809511
 20
-624.272858
 10
-1255.784676
 20
-624.086518
 10
-1255.769775
 20
-623.899445
 10
-1255.764808
 20
-623.712006
 10
-1255.769775
 20
-623.524567
 10
-1255.784676
 20
-623.337494
 10
-1255.809511
 20
-623.151154
 10
-1255.844281
 20
-622.965912
 10
-1255.888984
 20
-622.782136
 10
-1255.943621
 20
-622.60019
 10
-1256.008193
 20
-622.420441
 10
-1256.082698
 20
-622.243256
 10
-1256.167137
 20
-622.069001
 10
-1256.261511
 20
-621.898041
 10
-1256.365819
 20
-621.730744
 10
-1256.48006
 20
-621.567475
 10
-1256.604236
 20
-621.4086
 10
-1256.738346
 20
-621.254487
 10
-1256.88239
 20
-621.1055
 10
-1257.036368
 20
-620.962006
 10
-1257.20028
 20
-620.824372
 10
-1257.374126
 20
-620.692963
 10
-1257.557906
 20
-620.568146
 10
-1257.75162
 20
-620.450287
 10
-1257.955268
 20
-620.339753
 10
-1258.16885
 20
-620.236908
 10
-1258.392367
 20
-620.142121
 10
-1258.625817
 20
-620.055756
 10
-1258.869201
 20
-619.97818
 10
-1259.12252
 20
-619.90976
 10
-1259.385772
 20
-619.850861
 10
-1259.658959
 20
-619.80185
 10
-1259.94208
 20
-619.763093
 10
-1260.235134
 20
-619.734955
 10
-1260.538123
 20
-619.717804
 10
-1260.851046
 20
-619.712006
  0
LWPOLYLINE
  5
34
330
1F
100
AcDbEntity
  8
0
100
AcDbPolyline
 90
       12
 70
   128
 43
0.0
 10
-1336.798478
 20
-294.596219
 10
-1487.087663
 20
-391.830064
 42
0.417691
 10
-1487.377561
 20
-393.222785
 10
-1485.857941
 20
-395.511613
 10
-1477.526926
 20
-389.980413
 10
-1476.213266
 20
-391.959029
 10
-1474.899606
 20
-393.937645
 10
-1483.230621
 20
-399.468846
 10
-1481.711002
 20
-401.757674
 42
0.417691
 10
-1480.314942
 20
-402.031039
 10
-1332.373517
 20
-301.261031
 42
1.0
 10
-1336.798478
 20
-294.596219
  0
LWPOLYLINE
  5
35
330
1F
100
AcDbEntity
  8
0
100
AcDbPolyline
 90
      245
 70
   128
 43
0.0
 10
-1445.785397
 20
-589.757441
 10
-1445.994352
 20
-589.553108
 10
-1446.027211
 20
-589.520935
 10
-1446.062893
 20
-589.485752
 10
-1446.101088
 20
-589.447614
 10
-1446.141486
 20
-589.406576
 10
-1446.183775
 20
-589.362693
 10
-1446.227646
 20
-589.316021
 10
-1446.272786
 20
-589.266615
 10
-1446.318887
 20
-589.214529
 10
-1446.365637
 20
-589.159818
 10
-1446.412725
 20
-589.102538
 10
-1446.459841
 20
-589.042745
 10
-1446.506674
 20
-588.980491
 10
-1446.552914
 20
-588.915834
 10
-1446.598249
 20
-588.848828
 10
-1446.64237
 20
-588.779528
 10
-1446.684965
 20
-588.70799
 10
-1446.725724
 20
-588.634267
 10
-1446.764336
 20
-588.558416
 10
-1446.800491
 20
-588.480491
 10
-1446.833878
 20
-588.400548
 10
-1446.864238
 20
-588.318664
 10
-1446.891517
 20
-588.23501
 10
-1446.915713
 20
-588.149778
 10
-1446.936824
 20
-588.063161
 10
-1446.954848
 20
-587.975353
 10
-1446.969783
 20
-587.886545
 10
-1446.981626
 20
-587.796932
 10
-1446.990377
 20
-587.706705
 10
-1446.996032
 20
-587.616059
 10
-1446.99859
 20
-587.525184
 10
-1446.998049
 20
-587.434276
 10
-1446.994405
 20
-587.343526
 10
-1446.987659
 20
-587.253127
 10
-1446.977806
 20
-587.163273
 10
-1446.964846
 20
-587.074156
 10
-1446.948776
 20
-586.985968
 10
-1446.929594
 20
-586.898904
 10
-1446.907299
 20
-586.813156
 10
-1446.881887
 20
-586.728916
 10
-1446.853357
 20
-586.646378
 10
-1446.821758
 20
-586.565713
 10
-1446.787349
 20
-586.487005
 10
-1446.750438
 20
-586.410314
 10
-1446.711335
 20
-586.335705
 10
-1446.670348
 20
-586.263238
 10
-1446.627787
 20
-586.192975
 10
-1446.583962
 20
-586.124978
 10
-1446.539181
 20
-586.05931
 10
-1446.493754
 20
-585.996032
 10
-1446.447989
 20
-585.935206
 10
-1446.402197
 20
-585.876895
 10
-1446.356686
 20
-585.82116
 10
-1446.311766
 20
-585.768063
 10
-1446.267746
 20
-585.717666
 10
-1446.224935
 20
-585.670031
 10
-1446.183643
 20
-585.62522
 10
-1446.144178
 20
-585.583295
 10
-1446.10685
 20
-585.544318
 10
-1446.071968
 20
-585.508351
 10
-1445.835535
 20
-585.266532
 10
-1445.631202
 20
-585.057577
 10
-1445.599029
 20
-585.024719
 10
-1445.563846
 20
-584.989036
 10
-1445.525708
 20
-584.950841
 10
-1445.484671
 20
-584.910443
 10
-1445.440789
 20
-584.868153
 10
-1445.394117
 20
-584.824282
 10
-1445.344712
 20
-584.779141
 10
-1445.292627
 20
-584.733039
 10
-1445.237918
 20
-584.686288
 10
-1445.180641
 20
-584.639198
 10
-1445.120849
 20
-584.59208
 10
-1445.058599
 20
-584.545244
 10
-1444.993946
 20
-584.499001
 10
-1444.926944
 20
-584.453662
 10
-1444.857649
 20
-584.409537
 10
-1444.786116
 20
-584.366937
 10
-1444.712399
 20
-584.326172
 10
-1444.636555
 20
-584.287553
 10
-1444.558639
 20
-584.251391
 10
-1444.478704
 20
-584.217997
 10
-1444.39683
 20
-584.187629
 10
-1444.313187
 20
-584.16034
 10
-1444.227966
 20
-584.136135
 10
-1444.141361
 20
-584.115013
 10
-1444.053565
 20
-584.096978
 10
-1443.96477
 20
-584.082032
 10
-1443.87517
 20
-584.070177
 10
-1443.784956
 20
-584.061415
 10
-1443.694322
 20
-584.055748
 10
-1443.603461
 20
-584.053179
 10
-1443.512565
 20
-584.053709
 10
-1443.421828
 20
-584.057342
 10
-1443.331441
 20
-584.064078
 10
-1443.241598
 20
-584.073921
 10
-1443.152491
 20
-584.086871
 10
-1443.064314
 20
-584.102933
 10
-1442.977258
 20
-584.122107
 10
-1442.891518
 20
-584.144396
 10
-1442.807285
 20
-584.169802
 10
-1442.724752
 20
-584.198327
 10
-1442.644091
 20
-584.229922
 10
-1442.565385
 20
-584.264329
 10
-1442.488696
 20
-584.301239
 10
-1442.414087
 20
-584.340342
 10
-1442.341619
 20
-584.381329
 10
-1442.271355
 20
-584.423891
 10
-1442.203356
 20
-584.467719
 10
-1442.137684
 20
-584.512503
 10
-1442.074403
 20
-584.557933
 10
-1442.013573
 20
-584.603702
 10
-1441.955256
 20
-584.649498
 10
-1441.899516
 20
-584.695013
 10
-1441.846413
 20
-584.739938
 10
-1441.79601
 20
-584.783963
 10
-1441.74837
 20
-584.826779
 10
-1441.703553
 20
-584.868077
 10
-1441.661622
 20
-584.907547
 10
-1441.62264
 20
-584.94488
 10
-1441.586667
 20
-584.979766
 10
-1441.344813
 20
-585.21623
 10
-1441.135827
 20
-585.420591
 10
-1441.102964
 20
-585.452768
 10
-1441.067276
 20
-585.487956
 10
-1441.029075
 20
-585.526099
 10
-1440.988671
 20
-585.567142
 10
-1440.946376
 20
-585.61103
 10
-1440.902499
 20
-585.657708
 10
-1440.857351
 20
-585.70712
 10
-1440.811244
 20
-585.759213
 10
-1440.764487
 20
-585.813929
 10
-1440.717392
 20
-585.871215
 10
-1440.670269
 20
-585.931015
 10
-1440.623429
 20
-585.993274
 10
-1440.577183
 20
-586.057937
 10
-1440.531841
 20
-586.124949
 10
-1440.487713
 20
-586.194255
 10
-1440.445112
 20
-586.265799
 10
-1440.404347
 20
-586.339527
 10
-1440.365729
 20
-586.415383
 10
-1440.329568
 20
-586.493313
 10
-1440.296177
 20
-586.57326
 10
-1440.265813
 20
-586.655148
 10
-1440.23853
 20
-586.738806
 10
-1440.21433
 20
-586.82404
 10
-1440.193216
 20
-586.91066
 10
-1440.175189
 20
-586.99847
 10
-1440.160251
 20
-587.08728
 10
-1440.148405
 20
-587.176894
 10
-1440.139652
 20
-587.267122
 10
-1440.133994
 20
-587.357769
 10
-1440.131434
 20
-587.448643
 10
-1440.131974
 20
-587.539552
 10
-1440.135614
 20
-587.630301
 10
-1440.142359
 20
-587.720698
 10
-1440.152209
 20
-587.810551
 10
-1440.165167
 20
-587.899666
 10
-1440.181234
 20
-587.987851
 10
-1440.200413
 20
-588.074912
 10
-1440.222705
 20
-588.160657
 10
-1440.248114
 20
-588.244892
 10
-1440.27664
 20
-588.327426
 10
-1440.308234
 20
-588.408086
 10
-1440.342638
 20
-588.486789
 10
-1440.379544
 20
-588.563474
 10
-1440.418643
 20
-588.638077
 10
-1440.459624
 20
-588.710538
 10
-1440.502179
 20
-588.780795
 10
-1440.545998
 20
-588.848785
 10
-1440.590773
 20
-588.914446
 10
-1440.636195
 20
-588.977717
 10
-1440.681953
 20
-589.038536
 10
-1440.727739
 20
-589.09684
 10
-1440.773243
 20
-589.152568
 10
-1440.818157
 20
-589.205659
 10
-1440.862172
 20
-589.256049
 10
-1440.904977
 20
-589.303677
 10
-1440.946264
 20
-589.348482
 10
-1440.985724
 20
-589.390401
 10
-1441.023047
 20
-589.429372
 10
-1441.057924
 20
-589.465334
 10
-1441.294325
 20
-589.707117
 10
-1441.498716
 20
-589.916075
 10
-1441.530899
 20
-589.948934
 10
-1441.566092
 20
-589.984617
 10
-1441.60424
 20
-590.022814
 10
-1441.645289
 20
-590.063212
 10
-1441.689182
 20
-590.105503
 10
-1441.735866
 20
-590.149375
 10
-1441.785283
 20
-590.194518
 10
-1441.83738
 20
-590.240621
 10
-1441.892101
 20
-590.287374
 10
-1441.949391
 20
-590.334466
 10
-1442.009194
 20
-590.381586
 10
-1442.071455
 20
-590.428424
 10
-1442.13612
 20
-590.474669
 10
-1442.203132
 20
-590.520011
 10
-1442.272437
 20
-590.564139
 10
-1442.343979
 20
-590.606742
 10
-1442.417704
 20
-590.647511
 10
-1442.493555
 20
-590.686133
 10
-1442.571477
 20
-590.722299
 10
-1442.651417
 20
-590.755698
 10
-1442.733294
 20
-590.786071
 10
-1442.81694
 20
-590.813365
 10
-1442.902162
 20
-590.837576
 10
-1442.988767
 20
-590.858703
 10
-1443.076562
 20
-590.876743
 10
-1443.165355
 20
-590.891695
 10
-1443.254953
 20
-590.903556
 10
-1443.345164
 20
-590.912324
 10
-1443.435795
 20
-590.917996
 10
-1443.526652
 20
-590.92057
 10
-1443.617544
 20
-590.920045
 10
-1443.708278
 20
-590.916418
 10
-1443.798661
 20
-590.909686
 10
-1443.888501
 20
-590.899847
 10
-1443.977604
 20
-590.8869
 10
-1444.065779
 20
-590.870842
 10
-1444.152831
 20
-590.85167
 10
-1444.23857
 20
-590.829383
 10
-1444.322802
 20
-590.803978
 10
-1444.405334
 20
-590.775453
 10
-1444.485995
 20
-590.743858
 10
-1444.564703
 20
-590.70945
 10
-1444.641393
 20
-590.672539
 10
-1444.716006
 20
-590.633433
 10
-1444.788477
 20
-590.592442
 10
-1444.858746
 20
-590.549877
 10
-1444.926749
 20
-590.506045
 10
-1444.992426
 20
-590.461257
 10
-1445.055713
 20
-590.415822
 10
-1445.116548
 20
-590.370048
 10
-1445.174871
 20
-590.324247
 10
-1445.230617
 20
-590.278726
 10
-1445.283726
 20
-590.233796
 10
-1445.334135
 20
-590.189765
 10
-1445.381782
 20
-590.146944
 10
-1445.426605
 20
-590.105641
 10
-1445.468541
 20
-590.066166
 10
-1445.507529
 20
-590.028828
 10
-1445.543507
 20
-589.993937
 10
-1445.785397
 20
-589.757441
  0
LWPOLYLINE
  5
36
330
1F
100
AcDbEntity
  8
0
100
AcDbPolyline
 90
      245
 70
   128
 43
0.0
 10
-1352.881822
 20
-338.628284
 10
-1353.090777
 20
-338.423951
 10
-1353.123636
 20
-338.391778
 10
-1353.159318
 20
-338.356595
 10
-1353.197513
 20
-338.318457
 10
-1353.237911
 20
-338.277419
 10
-1353.2802
 20
-338.233536
 10
-1353.324071
 20
-338.186864
 10
-1353.369211
 20
-338.137458
 10
-1353.415312
 20
-338.085372
 10
-1353.462062
 20
-338.030661
 10
-1353.50915
 20
-337.973381
 10
-1353.556266
 20
-337.913588
 10
-1353.603099
 20
-337.851334
 10
-1353.649339
 20
-337.786677
 10
-1353.694674
 20
-337.719671
 10
-1353.738795
 20
-337.650371
 10
-1353.78139
 20
-337.578833
 10
-1353.822149
 20
-337.50511
 10
-1353.860761
 20
-337.429259
 10
-1353.896916
 20
-337.351334
 10
-1353.930303
 20
-337.271391
 10
-1353.960663
 20
-337.189507
 10
-1353.987942
 20
-337.105853
 10
-1354.012138
 20
-337.020621
 10
-1354.033249
 20
-336.934004
 10
-1354.051273
 20
-336.846196
 10
-1354.066208
 20
-336.757388
 10
-1354.078051
 20
-336.667775
 10
-1354.086802
 20
-336.577548
 10
-1354.092457
 20
-336.486902
 10
-1354.095015
 20
-336.396027
 10
-1354.094474
 20
-336.305119
 10
-1354.09083
 20
-336.214369
 10
-1354.084084
 20
-336.12397
 10
-1354.074231
 20
-336.034116
 10
-1354.061271
 20
-335.944999
 10
-1354.045201
 20
-335.856811
 10
-1354.026019
 20
-335.769747
 10
-1354.003724
 20
-335.683999
 10
-1353.978312
 20
-335.599759
 10
-1353.949782
 20
-335.517221
 10
-1353.918183
 20
-335.436556
 10
-1353.883774
 20
-335.357848
 10
-1353.846863
 20
-335.281157
 10
-1353.80776
 20
-335.206548
 10
-1353.766773
 20
-335.134081
 10
-1353.724212
 20
-335.063818
 10
-1353.680387
 20
-334.995821
 10
-1353.635606
 20
-334.930153
 10
-1353.590179
 20
-334.866875
 10
-1353.544414
 20
-334.806049
 10
-1353.498622
 20
-334.747738
 10
-1353.453111
 20
-334.692003
 10
-1353.408191
 20
-334.638906
 10
-1353.364171
 20
-334.588509
 10
-1353.32136
 20
-334.540874
 10
-1353.280068
 20
-334.496063
 10
-1353.240603
 20
-334.454138
 10
-1353.203275
 20
-334.415161
 10
-1353.168393
 20
-334.379194
 10
-1352.93196
 20
-334.137375
 10
-1352.727627
 20
-333.92842
 10
-1352.695454
 20
-333.895562
 10
-1352.660271
 20
-333.859879
 10
-1352.622133
 20
-333.821684
 10
-1352.581096
 20
-333.781286
 10
-1352.537214
 20
-333.738996
 10
-1352.490542
 20
-333.695125
 10
-1352.441137
 20
-333.649984
 10
-1352.389052
 20
-333.603882
 10
-1352.334343
 20
-333.557131
 10
-1352.277066
 20
-333.510041
 10
-1352.217274
 20
-333.462923
 10
-1352.155024
 20
-333.416087
 10
-1352.090371
 20
-333.369844
 10
-1352.023369
 20
-333.324505
 10
-1351.954074
 20
-333.28038
 10
-1351.882541
 20
-333.23778
 10
-1351.808824
 20
-333.197015
 10
-1351.73298
 20
-333.158396
 10
-1351.655064
 20
-333.122234
 10
-1351.575129
 20
-333.08884
 10
-1351.493255
 20
-333.058472
 10
-1351.409612
 20
-333.031183
 10
-1351.324391
 20
-333.006978
 10
-1351.237786
 20
-332.985856
 10
-1351.14999
 20
-332.967821
 10
-1351.061195
 20
-332.952875
 10
-1350.971595
 20
-332.94102
 10
-1350.881381
 20
-332.932258
 10
-1350.790747
 20
-332.926591
 10
-1350.699886
 20
-332.924022
 10
-1350.60899
 20
-332.924552
 10
-1350.518253
 20
-332.928185
 10
-1350.427866
 20
-332.934921
 10
-1350.338023
 20
-332.944764
 10
-1350.248916
 20
-332.957714
 10
-1350.160739
 20
-332.973776
 10
-1350.073683
 20
-332.99295
 10
-1349.987943
 20
-333.015239
 10
-1349.90371
 20
-333.040645
 10
-1349.821177
 20
-333.06917
 10
-1349.740516
 20
-333.100765
 10
-1349.66181
 20
-333.135172
 10
-1349.585121
 20
-333.172082
 10
-1349.510512
 20
-333.211185
 10
-1349.438044
 20
-333.252172
 10
-1349.36778
 20
-333.294734
 10
-1349.299781
 20
-333.338562
 10
-1349.234109
 20
-333.383346
 10
-1349.170828
 20
-333.428776
 10
-1349.109998
 20
-333.474545
 10
-1349.051681
 20
-333.520341
 10
-1348.995941
 20
-333.565856
 10
-1348.942838
 20
-333.610781
 10
-1348.892435
 20
-333.654806
 10
-1348.844795
 20
-333.697622
 10
-1348.799978
 20
-333.73892
 10
-1348.758047
 20
-333.77839
 10
-1348.719065
 20
-333.815723
 10
-1348.683092
 20
-333.850609
 10
-1348.441238
 20
-334.087073
 10
-1348.232252
 20
-334.291434
 10
-1348.199389
 20
-334.323611
 10
-1348.163701
 20
-334.358799
 10
-1348.1255
 20
-334.396942
 10
-1348.085096
 20
-334.437985
 10
-1348.042801
 20
-334.481873
 10
-1347.998924
 20
-334.528551
 10
-1347.953776
 20
-334.577963
 10
-1347.907669
 20
-334.630056
 10
-1347.860912
 20
-334.684772
 10
-1347.813817
 20
-334.742058
 10
-1347.766694
 20
-334.801858
 10
-1347.719854
 20
-334.864117
 10
-1347.673608
 20
-334.92878
 10
-1347.628266
 20
-334.995792
 10
-1347.584138
 20
-335.065098
 10
-1347.541537
 20
-335.136642
 10
-1347.500772
 20
-335.21037
 10
-1347.462154
 20
-335.286226
 10
-1347.425993
 20
-335.364156
 10
-1347.392602
 20
-335.444103
 10
-1347.362238
 20
-335.525991
 10
-1347.334955
 20
-335.609649
 10
-1347.310755
 20
-335.694883
 10
-1347.289641
 20
-335.781503
 10
-1347.271614
 20
-335.869313
 10
-1347.256676
 20
-335.958123
 10
-1347.24483
 20
-336.047737
 10
-1347.236077
 20
-336.137965
 10
-1347.230419
 20
-336.228612
 10
-1347.227859
 20
-336.319486
 10
-1347.228399
 20
-336.410395
 10
-1347.232039
 20
-336.501144
 10
-1347.238784
 20
-336.591541
 10
-1347.248634
 20
-336.681394
 10
-1347.261592
 20
-336.770509
 10
-1347.277659
 20
-336.858694
 10
-1347.296838
 20
-336.945755
 10
-1347.31913
 20
-337.0315
 10
-1347.344539
 20
-337.115735
 10
-1347.373065
 20
-337.198269
 10
-1347.404659
 20
-337.278929
 10
-1347.439063
 20
-337.357632
 10
-1347.475969
 20
-337.434317
 10
-1347.515068
 20
-337.50892
 10
-1347.556049
 20
-337.581381
 10
-1347.598604
 20
-337.651638
 10
-1347.642423
 20
-337.719628
 10
-1347.687198
 20
-337.785289
 10
-1347.73262
 20
-337.84856
 10
-1347.778378
 20
-337.909379
 10
-1347.824164
 20
-337.967683
 10
-1347.869668
 20
-338.023411
 10
-1347.914582
 20
-338.076502
 10
-1347.958597
 20
-338.126892
 10
-1348.001402
 20
-338.17452
 10
-1348.042689
 20
-338.219325
 10
-1348.082149
 20
-338.261244
 10
-1348.119472
 20
-338.300215
 10
-1348.154349
 20
-338.336177
 10
-1348.39075
 20
-338.57796
 10
-1348.595141
 20
-338.786918
 10
-1348.627324
 20
-338.819777
 10
-1348.662517
 20
-338.85546
 10
-1348.700665
 20
-338.893657
 10
-1348.741714
 20
-338.934055
 10
-1348.785607
 20
-338.976346
 10
-1348.832291
 20
-339.020218
 10
-1348.881708
 20
-339.065361
 10
-1348.933805
 20
-339.111464
 10
-1348.988526
 20
-339.158217
 10
-1349.045816
 20
-339.205309
 10
-1349.105619
 20
-339.252429
 10
-1349.16788
 20
-339.299267
 10
-1349.232545
 20
-339.345512
 10
-1349.299557
 20
-339.390854
 10
-1349.368862
 20
-339.434982
 10
-1349.440404
 20
-339.477585
 10
-1349.514129
 20
-339.518354
 10
-1349.58998
 20
-339.556976
 10
-1349.667902
 20
-339.593142
 10
-1349.747842
 20
-339.626541
 10
-1349.829719
 20
-339.656914
 10
-1349.913365
 20
-339.684208
 10
-1349.998587
 20
-339.708419
 10
-1350.085192
 20
-339.729546
 10
-1350.172987
 20
-339.747586
 10
-1350.26178
 20
-339.762538
 10
-1350.351378
 20
-339.774399
 10
-1350.441589
 20
-339.783167
 10
-1350.53222
 20
-339.788839
 10
-1350.623077
 20
-339.791413
 10
-1350.713969
 20
-339.790888
 10
-1350.804703
 20
-339.787261
 10
-1350.895086
 20
-339.780529
 10
-1350.984926
 20
-339.77069
 10
-1351.074029
 20
-339.757743
 10
-1351.162204
 20
-339.741685
 10
-1351.249256
 20
-339.722513
 10
-1351.334995
 20
-339.700226
 10
-1351.419227
 20
-339.674821
 10
-1351.501759
 20
-339.646296
 10
-1351.58242
 20
-339.614701
 10
-1351.661128
 20
-339.580293
 10
-1351.737818
 20
-339.543382
 10
-1351.812431
 20
-339.504276
 10
-1351.884902
 20
-339.463285
 10
-1351.955171
 20
-339.42072
 10
-1352.023174
 20
-339.376888
 10
-1352.088851
 20
-339.3321
 10
-1352.152138
 20
-339.286665
 10
-1352.212973
 20
-339.240891
 10
-1352.271296
 20
-339.19509
 10
-1352.327042
 20
-339.149569
 10
-1352.380151
 20
-339.104639
 10
-1352.43056
 20
-339.060608
 10
-1352.478207
 20
-339.017787
 10
-1352.52303
 20
-338.976484
 10
-1352.564966
 20
-338.937009
 10
-1352.603954
 20
-338.899671
 10
-1352.639932
 20
-338.86478
 10
-1352.881822
 20
-338.628284
  0
LWPOLYLINE
  5
37
330
1F
100
AcDbEntity
  8
0
100
AcDbPolyline
 90
      245
 70
   128
 43
0.0
 10
-1449.062296
 20
-400.702335
 10
-1449.271251
 20
-400.498002
 10
-1449.30411
 20
-400.465829
 10
-1449.339792
 20
-400.430646
 10
-1449.377987
 20
-400.392508
 10
-1449.418385
 20
-400.35147
 10
-1449.460674
 20
-400.307587
 10
-1449.504545
 20
-400.260915
 10
-1449.549685
 20
-400.211509
 10
-1449.595786
 20
-400.159423
 10
-1449.642536
 20
-400.104712
 10
-1449.689624
 20
-400.047432
 10
-1449.73674
 20
-399.987639
 10
-1449.783573
 20
-399.925385
 10
-1449.829813
 20
-399.860728
 10
-1449.875148
 20
-399.793722
 10
-1449.919269
 20
-399.724422
 10
-1449.961864
 20
-399.652884
 10
-1450.002623
 20
-399.579161
 10
-1450.041235
 20
-399.50331
 10
-1450.07739
 20
-399.425385
 10
-1450.110777
 20
-399.345442
 10
-1450.141137
 20
-399.263558
 10
-1450.168416
 20
-399.179904
 10
-1450.192612
 20
-399.094672
 10
-1450.213723
 20
-399.008055
 10
-1450.231747
 20
-398.920247
 10
-1450.246682
 20
-398.831439
 10
-1450.258525
 20
-398.741826
 10
-1450.267276
 20
-398.651599
 10
-1450.272931
 20
-398.560953
 10
-1450.275489
 20
-398.470078
 10
-1450.274948
 20
-398.37917
 10
-1450.271304
 20
-398.28842
 10
-1450.264558
 20
-398.198021
 10
-1450.254705
 20
-398.108167
 10
-1450.241745
 20
-398.01905
 10
-1450.225675
 20
-397.930862
 10
-1450.206493
 20
-397.843798
 10
-1450.184198
 20
-397.75805
 10
-1450.158786
 20
-397.67381
 10
-1450.130256
 20
-397.591272
 10
-1450.098657
 20
-397.510607
 10
-1450.064248
 20
-397.431899
 10
-1450.027337
 20
-397.355208
 10
-1449.988234
 20
-397.280599
 10
-1449.947247
 20
-397.208132
 10
-1449.904686
 20
-397.137869
 10
-1449.860861
 20
-397.069872
 10
-1449.81608
 20
-397.004204
 10
-1449.770653
 20
-396.940926
 10
-1449.724888
 20
-396.8801
 10
-1449.679096
 20
-396.821789
 10
-1449.633585
 20
-396.766054
 10
-1449.588665
 20
-396.712957
 10
-1449.544645
 20
-396.66256
 10
-1449.501834
 20
-396.614925
 10
-1449.460542
 20
-396.570114
 10
-1449.421077
 20
-396.528189
 10
-1449.383749
 20
-396.489212
 10
-1449.348867
 20
-396.453245
 10
-1449.112434
 20
-396.211426
 10
-1448.908101
 20
-396.002471
 10
-1448.875928
 20
-395.969613
 10
-1448.840745
 20
-395.93393
 10
-1448.802607
 20
-395.895735
 10
-1448.76157
 20
-395.855337
 10
-1448.717688
 20
-395.813047
 10
-1448.671016
 20
-395.769176
 10
-1448.621611
 20
-395.724035
 10
-1448.569526
 20
-395.677933
 10
-1448.514817
 20
-395.631182
 10
-1448.45754
 20
-395.584092
 10
-1448.397748
 20
-395.536974
 10
-1448.335498
 20
-395.490138
 10
-1448.270845
 20
-395.443895
 10
-1448.203843
 20
-395.398556
 10
-1448.134548
 20
-395.354431
 10
-1448.063015
 20
-395.311831
 10
-1447.989298
 20
-395.271066
 10
-1447.913454
 20
-395.232447
 10
-1447.835538
 20
-395.196285
 10
-1447.755603
 20
-395.162891
 10
-1447.673729
 20
-395.132523
 10
-1447.590086
 20
-395.105234
 10
-1447.504865
 20
-395.081029
 10
-1447.41826
 20
-395.059907
 10
-1447.330464
 20
-395.041872
 10
-1447.241669
 20
-395.026926
 10
-1447.152069
 20
-395.015071
 10
-1447.061855
 20
-395.006309
 10
-1446.971221
 20
-395.000642
 10
-1446.88036
 20
-394.998073
 10
-1446.789464
 20
-394.998603
 10
-1446.698727
 20
-395.002236
 10
-1446.60834
 20
-395.008972
 10
-1446.518497
 20
-395.018815
 10
-1446.42939
 20
-395.031765
 10
-1446.341213
 20
-395.047827
 10
-1446.254157
 20
-395.067001
 10
-1446.168417
 20
-395.08929
 10
-1446.084184
 20
-395.114696
 10
-1446.001651
 20
-395.143221
 10
-1445.92099
 20
-395.174816
 10
-1445.842284
 20
-395.209223
 10
-1445.765595
 20
-395.246133
 10
-1445.690986
 20
-395.285236
 10
-1445.618518
 20
-395.326223
 10
-1445.548254
 20
-395.368785
 10
-1445.480255
 20
-395.412613
 10
-1445.414583
 20
-395.457397
 10
-1445.351302
 20
-395.502827
 10
-1445.290472
 20
-395.548596
 10
-1445.232155
 20
-395.594392
 10
-1445.176415
 20
-395.639907
 10
-1445.123312
 20
-395.684832
 10
-1445.072909
 20
-395.728857
 10
-1445.025269
 20
-395.771673
 10
-1444.980452
 20
-395.812971
 10
-1444.938521
 20
-395.852441
 10
-1444.899539
 20
-395.889774
 10
-1444.863566
 20
-395.92466
 10
-1444.621712
 20
-396.161124
 10
-1444.412726
 20
-396.365485
 10
-1444.379863
 20
-396.397662
 10
-1444.344175
 20
-396.43285
 10
-1444.305974
 20
-396.470993
 10
-1444.26557
 20
-396.512036
 10
-1444.223275
 20
-396.555924
 10
-1444.179398
 20
-396.602602
 10
-1444.13425
 20
-396.652014
 10
-1444.088143
 20
-396.704107
 10
-1444.041386
 20
-396.758823
 10
-1443.994291
 20
-396.816109
 10
-1443.947168
 20
-396.875909
 10
-1443.900328
 20
-396.938168
 10
-1443.854082
 20
-397.002831
 10
-1443.80874
 20
-397.069843
 10
-1443.764612
 20
-397.139149
 10
-1443.722011
 20
-397.210693
 10
-1443.681246
 20
-397.284421
 10
-1443.642628
 20
-397.360277
 10
-1443.606467
 20
-397.438207
 10
-1443.573076
 20
-397.518154
 10
-1443.542712
 20
-397.600042
 10
-1443.515429
 20
-397.6837
 10
-1443.491229
 20
-397.768934
 10
-1443.470115
 20
-397.855554
 10
-1443.452088
 20
-397.943364
 10
-1443.43715
 20
-398.032174
 10
-1443.425304
 20
-398.121788
 10
-1443.416551
 20
-398.212016
 10
-1443.410893
 20
-398.302663
 10
-1443.408333
 20
-398.393537
 10
-1443.408873
 20
-398.484446
 10
-1443.412513
 20
-398.575195
 10
-1443.419258
 20
-398.665592
 10
-1443.429108
 20
-398.755445
 10
-1443.442066
 20
-398.84456
 10
-1443.458133
 20
-398.932745
 10
-1443.477312
 20
-399.019806
 10
-1443.499604
 20
-399.105551
 10
-1443.525013
 20
-399.189786
 10
-1443.553539
 20
-399.27232
 10
-1443.585133
 20
-399.35298
 10
-1443.619537
 20
-399.431683
 10
-1443.656443
 20
-399.508368
 10
-1443.695542
 20
-399.582971
 10
-1443.736523
 20
-399.655432
 10
-1443.779078
 20
-399.725689
 10
-1443.822897
 20
-399.793679
 10
-1443.867672
 20
-399.85934
 10
-1443.913094
 20
-399.922611
 10
-1443.958852
 20
-399.98343
 10
-1444.004638
 20
-400.041734
 10
-1444.050142
 20
-400.097462
 10
-1444.095056
 20
-400.150553
 10
-1444.139071
 20
-400.200943
 10
-1444.181876
 20
-400.248571
 10
-1444.223163
 20
-400.293376
 10
-1444.262623
 20
-400.335295
 10
-1444.299946
 20
-400.374266
 10
-1444.334823
 20
-400.410228
 10
-1444.571224
 20
-400.652011
 10
-1444.775615
 20
-400.860969
 10
-1444.807798
 20
-400.893828
 10
-1444.842991
 20
-400.929511
 10
-1444.881139
 20
-400.967708
 10
-1444.922188
 20
-401.008106
 10
-1444.966081
 20
-401.050397
 10
-1445.012765
 20
-401.094269
 10
-1445.062182
 20
-401.139412
 10
-1445.114279
 20
-401.185515
 10
-1445.169
 20
-401.232268
 10
-1445.22629
 20
-401.27936
 10
-1445.286093
 20
-401.32648
 10
-1445.348354
 20
-401.373318
 10
-1445.413019
 20
-401.419563
 10
-1445.480031
 20
-401.464905
 10
-1445.549336
 20
-401.509033
 10
-1445.620878
 20
-401.551636
 10
-1445.694603
 20
-401.592405
 10
-1445.770454
 20
-401.631027
 10
-1445.848376
 20
-401.667193
 10
-1445.928316
 20
-401.700592
 10
-1446.010193
 20
-401.730965
 10
-1446.093839
 20
-401.758259
 10
-1446.179061
 20
-401.78247
 10
-1446.265666
 20
-401.803597
 10
-1446.353461
 20
-401.821637
 10
-1446.442254
 20
-401.836589
 10
-1446.531852
 20
-401.84845
 10
-1446.622063
 20
-401.857218
 10
-1446.712694
 20
-401.86289
 10
-1446.803551
 20
-401.865464
 10
-1446.894443
 20
-401.864939
 10
-1446.985177
 20
-401.861312
 10
-1447.07556
 20
-401.85458
 10
-1447.1654
 20
-401.844741
 10
-1447.254503
 20
-401.831794
 10
-1447.342678
 20
-401.815736
 10
-1447.42973
 20
-401.796564
 10
-1447.515469
 20
-401.774277
 10
-1447.599701
 20
-401.748872
 10
-1447.682233
 20
-401.720347
 10
-1447.762894
 20
-401.688752
 10
-1447.841602
 20
-401.654344
 10
-1447.918292
 20
-401.617433
 10
-1447.992905
 20
-401.578327
 10
-1448.065376
 20
-401.537336
 10
-1448.135645
 20
-401.494771
 10
-1448.203648
 20
-401.450939
 10
-1448.269325
 20
-401.406151
 10
-1448.332612
 20
-401.360716
 10
-1448.393447
 20
-401.314942
 10
-1448.45177
 20
-401.269141
 10
-1448.507516
 20
-401.22362
 10
-1448.560625
 20
-401.17869
 10
-1448.611034
 20
-401.134659
 10
-1448.658681
 20
-401.091838
 10
-1448.703504
 20
-401.050535
 10
-1448.74544
 20
-401.01106
 10
-1448.784428
 20
-400.973722
 10
-1448.820406
 20
-400.938831
 10
-1449.062296
 20
-400.702335
  0
LWPOLYLINE
  5
38
330
1F
100
AcDbEntity
  8
0
100
AcDbPolyline
 90
      245
 70
   128
 43
0.0
 10
-1284.362211
 20
-587.69055
 10
-1284.571166
 20
-587.486217
 10
-1284.604025
 20
-587.454044
 10
-1284.639707
 20
-587.418861
 10
-1284.677902
 20
-587.380723
 10
-1284.7183
 20
-587.339685
 10
-1284.760589
 20
-587.295802
 10
-1284.80446
 20
-587.24913
 10
-1284.8496
 20
-587.199724
 10
-1284.895701
 20
-587.147638
 10
-1284.942451
 20
-587.092927
 10
-1284.989539
 20
-587.035647
 10
-1285.036655
 20
-586.975854
 10
-1285.083488
 20
-586.9136
 10
-1285.129728
 20
-586.848943
 10
-1285.175063
 20
-586.781937
 10
-1285.219184
 20
-586.712637
 10
-1285.261779
 20
-586.641099
 10
-1285.302538
 20
-586.567376
 10
-1285.34115
 20
-586.491525
 10
-1285.377305
 20
-586.4136
 10
-1285.410692
 20
-586.333657
 10
-1285.441052
 20
-586.251773
 10
-1285.468331
 20
-586.168119
 10
-1285.492527
 20
-586.082887
 10
-1285.513638
 20
-585.99627
 10
-1285.531662
 20
-585.908462
 10
-1285.546597
 20
-585.819654
 10
-1285.55844
 20
-585.730041
 10
-1285.567191
 20
-585.639814
 10
-1285.572846
 20
-585.549168
 10
-1285.575404
 20
-585.458293
 10
-1285.574863
 20
-585.367385
 10
-1285.571219
 20
-585.276635
 10
-1285.564473
 20
-585.186236
 10
-1285.55462
 20
-585.096382
 10
-1285.54166
 20
-585.007265
 10
-1285.52559
 20
-584.919077
 10
-1285.506408
 20
-584.832013
 10
-1285.484113
 20
-584.746265
 10
-1285.458701
 20
-584.662025
 10
-1285.430171
 20
-584.579487
 10
-1285.398572
 20
-584.498822
 10
-1285.364163
 20
-584.420114
 10
-1285.327252
 20
-584.343423
 10
-1285.288149
 20
-584.268814
 10
-1285.247162
 20
-584.196347
 10
-1285.204601
 20
-584.126084
 10
-1285.160776
 20
-584.058087
 10
-1285.115995
 20
-583.992419
 10
-1285.070568
 20
-583.929141
 10
-1285.024803
 20
-583.868315
 10
-1284.979011
 20
-583.810004
 10
-1284.9335
 20
-583.754269
 10
-1284.88858
 20
-583.701172
 10
-1284.84456
 20
-583.650775
 10
-1284.801749
 20
-583.60314
 10
-1284.760457
 20
-583.558329
 10
-1284.720992
 20
-583.516404
 10
-1284.683664
 20
-583.477427
 10
-1284.648782
 20
-583.44146
 10
-1284.412349
 20
-583.199641
 10
-1284.208016
 20
-582.990686
 10
-1284.175843
 20
-582.957828
 10
-1284.14066
 20
-582.922145
 10
-1284.102522
 20
-582.88395
 10
-1284.061485
 20
-582.843552
 10
-1284.017603
 20
-582.801262
 10
-1283.970931
 20
-582.757391
 10
-1283.921526
 20
-582.71225
 10
-1283.869441
 20
-582.666148
 10
-1283.814732
 20
-582.619397
 10
-1283.757455
 20
-582.572307
 10
-1283.697663
 20
-582.525189
 10
-1283.635413
 20
-582.478353
 10
-1283.57076
 20
-582.43211
 10
-1283.503758
 20
-582.386771
 10
-1283.434463
 20
-582.342646
 10
-1283.36293
 20
-582.300046
 10
-1283.289213
 20
-582.259281
 10
-1283.213369
 20
-582.220662
 10
-1283.135453
 20
-582.1845
 10
-1283.055518
 20
-582.151106
 10
-1282.973644
 20
-582.120738
 10
-1282.890001
 20
-582.093449
 10
-1282.80478
 20
-582.069244
 10
-1282.718175
 20
-582.048122
 10
-1282.630379
 20
-582.030087
 10
-1282.541584
 20
-582.015141
 10
-1282.451984
 20
-582.003286
 10
-1282.36177
 20
-581.994524
 10
-1282.271136
 20
-581.988857
 10
-1282.180275
 20
-581.986288
 10
-1282.089379
 20
-581.986818
 10
-1281.998642
 20
-581.990451
 10
-1281.908255
 20
-581.997187
 10
-1281.818412
 20
-582.00703
 10
-1281.729305
 20
-582.01998
 10
-1281.641128
 20
-582.036042
 10
-1281.554072
 20
-582.055216
 10
-1281.468332
 20
-582.077505
 10
-1281.384099
 20
-582.102911
 10
-1281.301566
 20
-582.131436
 10
-1281.220905
 20
-582.163031
 10
-1281.142199
 20
-582.197438
 10
-1281.06551
 20
-582.234348
 10
-1280.990901
 20
-582.273451
 10
-1280.918433
 20
-582.314438
 10
-1280.848169
 20
-582.357
 10
-1280.78017
 20
-582.400828
 10
-1280.714498
 20
-582.445612
 10
-1280.651217
 20
-582.491042
 10
-1280.590387
 20
-582.536811
 10
-1280.53207
 20
-582.582607
 10
-1280.47633
 20
-582.628122
 10
-1280.423227
 20
-582.673047
 10
-1280.372824
 20
-582.717072
 10
-1280.325184
 20
-582.759888
 10
-1280.280367
 20
-582.801186
 10
-1280.238436
 20
-582.840656
 10
-1280.199454
 20
-582.877989
 10
-1280.163481
 20
-582.912875
 10
-1279.921627
 20
-583.149339
 10
-1279.712641
 20
-583.3537
 10
-1279.679778
 20
-583.385877
 10
-1279.64409
 20
-583.421065
 10
-1279.605889
 20
-583.459208
 10
-1279.565485
 20
-583.500251
 10
-1279.52319
 20
-583.544139
 10
-1279.479313
 20
-583.590817
 10
-1279.434165
 20
-583.640229
 10
-1279.388058
 20
-583.692322
 10
-1279.341301
 20
-583.747038
 10
-1279.294206
 20
-583.804324
 10
-1279.247083
 20
-583.864124
 10
-1279.200243
 20
-583.926383
 10
-1279.153997
 20
-583.991046
 10
-1279.108655
 20
-584.058058
 10
-1279.064527
 20
-584.127364
 10
-1279.021926
 20
-584.198908
 10
-1278.981161
 20
-584.272636
 10
-1278.942543
 20
-584.348492
 10
-1278.906382
 20
-584.426422
 10
-1278.872991
 20
-584.506369
 10
-1278.842627
 20
-584.588257
 10
-1278.815344
 20
-584.671915
 10
-1278.791144
 20
-584.757149
 10
-1278.77003
 20
-584.843769
 10
-1278.752003
 20
-584.931579
 10
-1278.737065
 20
-585.020389
 10
-1278.725219
 20
-585.110003
 10
-1278.716466
 20
-585.200231
 10
-1278.710808
 20
-585.290878
 10
-1278.708248
 20
-585.381752
 10
-1278.708788
 20
-585.472661
 10
-1278.712428
 20
-585.56341
 10
-1278.719173
 20
-585.653807
 10
-1278.729023
 20
-585.74366
 10
-1278.741981
 20
-585.832775
 10
-1278.758048
 20
-585.92096
 10
-1278.777227
 20
-586.008021
 10
-1278.799519
 20
-586.093766
 10
-1278.824928
 20
-586.178001
 10
-1278.853454
 20
-586.260535
 10
-1278.885048
 20
-586.341195
 10
-1278.919452
 20
-586.419898
 10
-1278.956358
 20
-586.496583
 10
-1278.995457
 20
-586.571186
 10
-1279.036438
 20
-586.643647
 10
-1279.078993
 20
-586.713904
 10
-1279.122812
 20
-586.781894
 10
-1279.167587
 20
-586.847555
 10
-1279.213009
 20
-586.910826
 10
-1279.258767
 20
-586.971645
 10
-1279.304553
 20
-587.029949
 10
-1279.350057
 20
-587.085677
 10
-1279.394971
 20
-587.138768
 10
-1279.438986
 20
-587.189158
 10
-1279.481791
 20
-587.236786
 10
-1279.523078
 20
-587.281591
 10
-1279.562538
 20
-587.32351
 10
-1279.599861
 20
-587.362481
 10
-1279.634738
 20
-587.398443
 10
-1279.871139
 20
-587.640226
 10
-1280.07553
 20
-587.849184
 10
-1280.107713
 20
-587.882043
 10
-1280.142906
 20
-587.917726
 10
-1280.181054
 20
-587.955923
 10
-1280.222103
 20
-587.996321
 10
-1280.265996
 20
-588.038612
 10
-1280.31268
 20
-588.082484
 10
-1280.362097
 20
-588.127627
 10
-1280.414194
 20
-588.17373
 10
-1280.468915
 20
-588.220483
 10
-1280.526205
 20
-588.267575
 10
-1280.586008
 20
-588.314695
 10
-1280.648269
 20
-588.361533
 10
-1280.712934
 20
-588.407778
 10
-1280.779946
 20
-588.45312
 10
-1280.849251
 20
-588.497248
 10
-1280.920793
 20
-588.539851
 10
-1280.994518
 20
-588.58062
 10
-1281.070369
 20
-588.619242
 10
-1281.148291
 20
-588.655408
 10
-1281.228231
 20
-588.688807
 10
-1281.310108
 20
-588.71918
 10
-1281.393754
 20
-588.746474
 10
-1281.478976
 20
-588.770685
 10
-1281.565581
 20
-588.791812
 10
-1281.653376
 20
-588.809852
 10
-1281.742169
 20
-588.824804
 10
-1281.831767
 20
-588.836665
 10
-1281.921978
 20
-588.845433
 10
-1282.012609
 20
-588.851105
 10
-1282.103466
 20
-588.853679
 10
-1282.194358
 20
-588.853154
 10
-1282.285092
 20
-588.849527
 10
-1282.375475
 20
-588.842795
 10
-1282.465315
 20
-588.832956
 10
-1282.554418
 20
-588.820009
 10
-1282.642593
 20
-588.803951
 10
-1282.729645
 20
-588.784779
 10
-1282.815384
 20
-588.762492
 10
-1282.899616
 20
-588.737087
 10
-1282.982148
 20
-588.708562
 10
-1283.062809
 20
-588.676967
 10
-1283.141517
 20
-588.642559
 10
-1283.218207
 20
-588.605648
 10
-1283.29282
 20
-588.566542
 10
-1283.365291
 20
-588.525551
 10
-1283.43556
 20
-588.482986
 10
-1283.503563
 20
-588.439154
 10
-1283.56924
 20
-588.394366
 10
-1283.632527
 20
-588.348931
 10
-1283.693362
 20
-588.303157
 10
-1283.751685
 20
-588.257356
 10
-1283.807431
 20
-588.211835
 10
-1283.86054
 20
-588.166905
 10
-1283.910949
 20
-588.122874
 10
-1283.958596
 20
-588.080053
 10
-1284.003419
 20
-588.03875
 10
-1284.045355
 20
-587.999275
 10
-1284.084343
 20
-587.961937
 10
-1284.120321
 20
-587.927046
 10
-1284.362211
 20
-587.69055
  0
LWPOLYLINE
  5
39
330
1F
100
AcDbEntity
  8
0
100
AcDbPolyline
 90
      128
 70
   128
 43
0.0
 10
-1342.428533
 20
-316.974176
 10
-1341.528427
 20
-321.295985
 10
-1340.641933
 20
-325.620227
 10
-1339.767654
 20
-329.946595
 10
-1338.904196
 20
-334.274781
 10
-1338.05016
 20
-338.604478
 10
-1337.20415
 20
-342.935377
 10
-1335.530625
 20
-351.599556
 10
-1333.872449
 20
-360.264858
 10
-1332.218449
 20
-368.928824
 10
-1330.557454
 20
-377.588995
 10
-1328.878292
 20
-386.24291
 10
-1328.028407
 20
-390.566753
 10
-1327.169792
 20
-394.888111
 10
-1326.301049
 20
-399.206675
 10
-1325.420781
 20
-403.522138
 10
-1324.527594
 20
-407.834192
 10
-1323.620089
 20
-412.142531
 10
-1322.696871
 20
-416.446847
 10
-1321.756543
 20
-420.746832
 10
-1320.797709
 20
-425.042178
 10
-1319.818972
 20
-429.332579
 10
-1318.818936
 20
-433.617728
 10
-1317.796203
 20
-437.897316
 10
-1316.749379
 20
-442.171036
 10
-1315.677066
 20
-446.43858
 10
-1314.577868
 20
-450.699642
 10
-1314.017751
 20
-452.827646
 10
-1313.450389
 20
-454.953914
 10
-1312.225598
 20
-459.481165
 10
-1310.985138
 20
-464.004038
 10
-1309.729011
 20
-468.522534
 10
-1308.457215
 20
-473.036652
 10
-1307.169751
 20
-477.546393
 10
-1305.866618
 20
-482.051757
 10
-1304.547817
 20
-486.552746
 10
-1303.213346
 20
-491.04936
 10
-1301.863206
 20
-495.541598
 10
-1300.497397
 20
-500.029463
 10
-1299.115919
 20
-504.512953
 10
-1297.718771
 20
-508.99207
 10
-1296.305953
 20
-513.466814
 10
-1294.877465
 20
-517.937186
 10
-1293.433306
 20
-522.403186
 10
-1291.973478
 20
-526.864815
 10
-1290.497979
 20
-531.322072
 10
-1289.00681
 20
-535.77496
 10
-1287.499969
 20
-540.223477
 10
-1285.977458
 20
-544.667625
 10
-1284.439276
 20
-549.107404
 10
-1282.885422
 20
-553.542815
 10
-1281.315897
 20
-557.973857
 10
-1279.7307
 20
-562.400533
 10
-1278.129832
 20
-566.822841
 10
-1276.513292
 20
-571.240783
 10
-1274.881079
 20
-575.654359
 10
-1273.233195
 20
-580.06357
 10
-1271.569637
 20
-584.468416
 10
-1269.890408
 20
-588.868897
 10
-1268.195505
 20
-593.265015
 10
-1266.48493
 20
-597.656768
 10
-1269.523533
 20
-597.361997
 10
-1272.560841
 20
-597.049402
 10
-1275.596947
 20
-596.72083
 10
-1278.631947
 20
-596.37813
 10
-1281.665935
 20
-596.023148
 10
-1284.699007
 20
-595.657732
 10
-1290.762779
 20
-594.90299
 10
-1296.824023
 20
-594.128684
 10
-1302.883498
 20
-593.349592
 10
-1308.941961
 20
-592.580497
 10
-1311.971051
 20
-592.204317
 10
-1315.000173
 20
-591.836178
 10
-1318.029422
 20
-591.477928
 10
-1321.058892
 20
-591.131415
 10
-1324.088679
 20
-590.798486
 10
-1327.118877
 20
-590.480988
 10
-1330.149581
 20
-590.18077
 10
-1333.180887
 20
-589.899679
 10
-1336.212888
 20
-589.639562
 10
-1339.24568
 20
-589.402266
 10
-1342.279358
 20
-589.18964
 10
-1345.314016
 20
-589.003531
 10
-1348.34975
 20
-588.845786
 10
-1349.868049
 20
-588.778128
 10
-1351.386653
 20
-588.718253
 10
-1352.905574
 20
-588.666394
 10
-1354.424822
 20
-588.62278
 10
-1355.944411
 20
-588.587643
 10
-1357.464351
 20
-588.561213
 10
-1358.984655
 20
-588.543722
 10
-1360.505335
 20
-588.535401
 10
-1362.026402
 20
-588.536481
 10
-1363.547868
 20
-588.547191
 10
-1366.345845
 20
-588.584956
 10
-1369.142866
 20
-588.640859
 10
-1371.938929
 20
-588.714899
 10
-1374.734037
 20
-588.807078
 10
-1377.528189
 20
-588.917394
 10
-1380.321384
 20
-589.045849
 10
-1383.113625
 20
-589.192442
 10
-1385.90491
 20
-589.357172
 10
-1388.695241
 20
-589.540041
 10
-1391.484618
 20
-589.741048
 10
-1394.27304
 20
-589.960194
 10
-1397.060508
 20
-590.197477
 10
-1399.847023
 20
-590.452899
 10
-1402.632585
 20
-590.726459
 10
-1405.417194
 20
-591.018157
 10
-1408.20085
 20
-591.327994
 10
-1410.983554
 20
-591.65597
 10
-1413.765306
 20
-592.002083
 10
-1416.546106
 20
-592.366336
 10
-1419.325955
 20
-592.748726
 10
-1422.104853
 20
-593.149256
 10
-1424.882801
 20
-593.567923
 10
-1427.659797
 20
-594.00473
 10
-1430.435844
 20
-594.459675
 10
-1433.210941
 20
-594.932759
 10
-1435.985089
 20
-595.423982
 10
-1438.758287
 20
-595.933343
 10
-1441.530537
 20
-596.460843
 10
-1444.301838
 20
-597.006483
 10
-1447.072191
 20
-597.570261
 10
-1449.841595
 20
-598.152177
 10
-1452.610053
 20
-598.752233
 10
-1455.393246
 20
-394.651393
 10
-1342.428533
 20
-316.974176
  0
ENDSEC
  0
SECTION
  2
OBJECTS
  0
DICTIONARY
  5
C
330
0
100
AcDbDictionary
281
     1
  3
ACAD_GROUP
350
D
  3
ACAD_LAYOUT
350
1A
  3
ACAD_MLINESTYLE
350
17
  3
ACAD_PLOTSETTINGS
350
19
  3
ACAD_PLOTSTYLENAME
350
E
  0
DICTIONARY
  5
D
102
{ACAD_REACTORS
330
C
102
}
330
C
100
AcDbDictionary
281
     1
  0
DICTIONARY
  5
1A
102
{ACAD_REACTORS
330
C
102
}
330
C
100
AcDbDictionary
281
     1
  3
Layout1
350
1E
  3
Layout2
350
26
  3
Model
350
22
  0
DICTIONARY
  5
17
102
{ACAD_REACTORS
330
C
102
}
330
C
100
AcDbDictionary
281
     1
  3
Standard
350
18
  0
DICTIONARY
  5
19
102
{ACAD_REACTORS
330
C
102
}
330
C
100
AcDbDictionary
281
     1
  0
ACDBDICTIONARYWDFLT
  5
E
102
{ACAD_REACTORS
330
C
102
}
330
C
100
AcDbDictionary
281
     1
  3
Normal
350
F
100
AcDbDictionaryWithDefault
340
F
  0
LAYOUT
  5
1E
102
{ACAD_REACTORS
330
1A
102
}
330
1A
100
AcDbPlotSettings
  1

  2

  4

  6

 40
0.0
 41
0.0
 42
0.0
 43
0.0
 44
0.0
 45
0.0
 46
0.0
 47
0.0
 48
0.0
 49
0.0
140
0.0
141
0.0
142
1.0
143
1.0
 70
   688
 72
     0
 73
     0
 74
     5
  7

 75
    16
147
1.0
148
0.0
149
0.0
100
AcDbLayout
  1
Layout1
 70
     1
 71
     1
 10
0.0
 20
0.0
 11
420.0
 21
297.0
 12
0.0
 22
0.0
 32
0.0
 14
1.000000E+20
 24
1.000000E+20
 34
1.000000E+20
 15
-1.000000E+20
 25
-1.000000E+20
 35
-1.000000E+20
146
0.0
 13
0.0
 23
0.0
 33
0.0
 16
1.0
 26
0.0
 36
0.0
 17
0.0
 27
1.0
 37
0.0
 76
     0
330
1B
  0
LAYOUT
  5
26
102
{ACAD_REACTORS
330
1A
102
}
330
1A
100
AcDbPlotSettings
  1

  2

  4

  6

 40
0.0
 41
0.0
 42
0.0
 43
0.0
 44
0.0
 45
0.0
 46
0.0
 47
0.0
 48
0.0
 49
0.0
140
0.0
141
0.0
142
1.0
143
1.0
 70
   688
 72
     0
 73
     0
 74
     5
  7

 75
    16
147
1.0
148
0.0
149
0.0
100
AcDbLayout
  1
Layout2
 70
     1
 71
     2
 10
0.0
 20
0.0
 11
0.0
 21
0.0
 12
0.0
 22
0.0
 32
0.0
 14
0.0
 24
0.0
 34
0.0
 15
0.0
 25
0.0
 35
0.0
146
0.0
 13
0.0
 23
0.0
 33
0.0
 16
1.0
 26
0.0
 36
0.0
 17
0.0
 27
1.0
 37
0.0
 76
     0
330
23
  0
LAYOUT
  5
22
102
{ACAD_REACTORS
330
1A
102
}
330
1A
100
AcDbPlotSettings
  1

  2

  4

  6

 40
0.0
 41
0.0
 42
0.0
 43
0.0
 44
0.0
 45
0.0
 46
0.0
 47
0.0
 48
0.0
 49
0.0
140
0.0
141
0.0
142
1.0
143
1.0
 70
  1712
 72
     0
 73
     0
 74
     0
  7

 75
     0
147
1.0
148
0.0
149
0.0
100
AcDbLayout
  1
Model
 70
     1
 71
     0
 10
0.0
 20
0.0
 11
0.0
 21
0.0
 12
0.0
 22
0.0
 32
0.0
 14
0.0
 24
0.0
 34
0.0
 15
0.0
 25
0.0
 35
0.0
146
0.0
 13
0.0
 23
0.0
 33
0.0
 16
1.0
 26
0.0
 36
0.0
 17
0.0
 27
1.0
 37
0.0
 76
     0
330
1F
  0
MLINESTYLE
  5
18
102
{ACAD_REACTORS
330
17
102
}
330
17
100
AcDbMlineStyle
  2
Standard
 70
     0
  3

 62
   256
 51
90.0
 52
90.0
 71
     2
 49
1.0
 62
   256
  6
BYLAYER
 49
-1.0
 62
   256
  6
BYLAYER
  0
ACDBPLACEHOLDER
  5
F
102
{ACAD_REACTORS
330
E
102
}
330
E
  0
ENDSEC
  0
EOF
