  0
SECTION
  2
HEADER
  9
$ACADVER
  1
AC1015
  9
$ACADMAINTVER
 70
     6
  9
$DWGCODEPAGE
  3
ANSI_1252
  9
$INSBASE
 10
0.0
 20
0.0
 30
0.0
  9
$EXTMIN
 10
1.000000E+20
 20
1.000000E+20
 30
1.000000E+20
  9
$EXTMAX
 10
-1.000000E+20
 20
-1.000000E+20
 30
-1.000000E+20
  9
$LIMMIN
 10
0.0
 20
0.0
  9
$LIMMAX
 10
420.0
 20
297.0
  9
$ORTHOMODE
 70
     0
  9
$REGENMODE
 70
     1
  9
$FILLMODE
 70
     1
  9
$QTEXTMODE
 70
     0
  9
$MIRRTEXT
 70
     1
  9
$LTSCALE
 40
1.0
  9
$ATTMODE
 70
     1
  9
$TEXTSIZE
 40
2.5
  9
$TRACEWID
 40
1.0
  9
$TEXTSTYLE
  7
Standard
  9
$CLAYER
  8
0
  9
$CELTYPE
  6
ByLayer
  9
$CECOLOR
 62
   256
  9
$CELTSCALE
 40
1.0
  9
$DISPSILH
 70
     0
  9
$DIMSCALE
 40
1.0
  9
$DIMASZ
 40
2.5
  9
$DIMEXO
 40
0.625
  9
$DIMDLI
 40
3.75
  9
$DIMRND
 40
0.0
  9
$DIMDLE
 40
0.0
  9
$DIMEXE
 40
1.25
  9
$DIMTP
 40
0.0
  9
$DIMTM
 40
0.0
  9
$DIMTXT
 40
2.5
  9
$DIMCEN
 40
2.5
  9
$DIMTSZ
 40
0.0
  9
$DIMTOL
 70
     0
  9
$DIMLIM
 70
     0
  9
$DIMTIH
 70
     0
  9
$DIMTOH
 70
     0
  9
$DIMSE1
 70
     0
  9
$DIMSE2
 70
     0
  9
$DIMTAD
 70
     1
  9
$DIMZIN
 70
     8
  9
$DIMBLK
  1

  9
$DIMASO
 70
     1
  9
$DIMSHO
 70
     1
  9
$DIMPOST
  1

  9
$DIMAPOST
  1

  9
$DIMALT
 70
     0
  9
$DIMALTD
 70
     3
  9
$DIMALTF
 40
0.03937
  9
$DIMLFAC
 40
1.0
  9
$DIMTOFL
 70
     1
  9
$DIMTVP
 40
0.0
  9
$DIMTIX
 70
     0
  9
$DIMSOXD
 70
     0
  9
$DIMSAH
 70
     0
  9
$DIMBLK1
  1

  9
$DIMBLK2
  1

  9
$DIMSTYLE
  2
ISO-25
  9
$DIMCLRD
 70
     0
  9
$DIMCLRE
 70
     0
  9
$DIMCLRT
 70
     0
  9
$DIMTFAC
 40
1.0
  9
$DIMGAP
 40
0.625
  9
$DIMJUST
 70
     0
  9
$DIMSD1
 70
     0
  9
$DIMSD2
 70
     0
  9
$DIMTOLJ
 70
     0
  9
$DIMTZIN
 70
     8
  9
$DIMALTZ
 70
     0
  9
$DIMALTTZ
 70
     0
  9
$DIMUPT
 70
     0
  9
$DIMDEC
 70
     2
  9
$DIMTDEC
 70
     2
  9
$DIMALTU
 70
     2
  9
$DIMALTTD
 70
     3
  9
$DIMTXSTY
  7
Standard
  9
$DIMAUNIT
 70
     0
  9
$DIMADEC
 70
     0
  9
$DIMALTRND
 40
0.0
  9
$DIMAZIN
 70
     0
  9
$DIMDSEP
 70
    44
  9
$DIMATFIT
 70
     3
  9
$DIMFRAC
 70
     0
  9
$DIMLDRBLK
  1

  9
$DIMLUNIT
 70
     2
  9
$DIMLWD
 70
    -2
  9
$DIMLWE
 70
    -2
  9
$DIMTMOVE
 70
     0
  9
$LUNITS
 70
     2
  9
$LUPREC
 70
     4
  9
$SKETCHINC
 40
1.0
  9
$FILLETRAD
 40
10.0
  9
$AUNITS
 70
     0
  9
$AUPREC
 70
     0
  9
$MENU
  1
.
  9
$ELEVATION
 40
0.0
  9
$PELEVATION
 40
0.0
  9
$THICKNESS
 40
0.0
  9
$LIMCHECK
 70
     0
  9
$CHAMFERA
 40
10.0
  9
$CHAMFERB
 40
10.0
  9
$CHAMFERC
 40
20.0
  9
$CHAMFERD
 40
0.0
  9
$SKPOLY
 70
     0
  9
$TDCREATE
 40
2455270.091433738
  9
$TDUCREATE
 40
2455269.549767072
  9
$TDUPDATE
 40
2455270.09143375
  9
$TDUUPDATE
 40
2455269.549767084
  9
$TDINDWG
 40
0.0000000116
  9
$TDUSRTIMER
 40
0.0000000116
  9
$USRTIMER
 70
     1
  9
$ANGBASE
 50
0.0
  9
$ANGDIR
 70
     0
  9
$PDMODE
 70
     3
  9
$PDSIZE
 40
-0.7
  9
$PLINEWID
 40
0.0
  9
$SPLFRAME
 70
     0
  9
$SPLINETYPE
 70
     6
  9
$SPLINESEGS
 70
     8
  9
$HANDSEED
  5
3A
  9
$SURFTAB1
 70
     6
  9
$SURFTAB2
 70
     6
  9
$SURFTYPE
 70
     6
  9
$SURFU
 70
     6
  9
$SURFV
 70
     6
  9
$UCSBASE
  2

  9
$UCSNAME
  2

  9
$UCSORG
 10
0.0
 20
0.0
 30
0.0
  9
$UCSXDIR
 10
1.0
 20
0.0
 30
0.0
  9
$UCSYDIR
 10
0.0
 20
1.0
 30
0.0
  9
$UCSORTHOREF
  2

  9
$UCSORTHOVIEW
 70
     0
  9
$UCSORGTOP
 10
0.0
 20
0.0
 30
0.0
  9
$UCSORGBOTTOM
 10
0.0
 20
0.0
 30
0.0
  9
$UCSORGLEFT
 10
0.0
 20
0.0
 30
0.0
  9
$UCSORGRIGHT
 10
0.0
 20
0.0
 30
0.0
  9
$UCSORGFRONT
 10
0.0
 20
0.0
 30
0.0
  9
$UCSORGBACK
 10
0.0
 20
0.0
 30
0.0
  9
$PUCSBASE
  2

  9
$PUCSNAME
  2

  9
$PUCSORG
 10
0.0
 20
0.0
 30
0.0
  9
$PUCSXDIR
 10
1.0
 20
0.0
 30
0.0
  9
$PUCSYDIR
 10
0.0
 20
1.0
 30
0.0
  9
$PUCSORTHOREF
  2

  9
$PUCSORTHOVIEW
 70
     0
  9
$PUCSORGTOP
 10
0.0
 20
0.0
 30
0.0
  9
$PUCSORGBOTTOM
 10
0.0
 20
0.0
 30
0.0
  9
$PUCSORGLEFT
 10
0.0
 20
0.0
 30
0.0
  9
$PUCSORGRIGHT
 10
0.0
 20
0.0
 30
0.0
  9
$PUCSORGFRONT
 10
0.0
 20
0.0
 30
0.0
  9
$PUCSORGBACK
 10
0.0
 20
0.0
 30
0.0
  9
$USERI1
 70
     0
  9
$USERI2
 70
     0
  9
$USERI3
 70
     0
  9
$USERI4
 70
     0
  9
$USERI5
 70
     0
  9
$USERR1
 40
0.0
  9
$USERR2
 40
0.0
  9
$USERR3
 40
0.0
  9
$USERR4
 40
0.0
  9
$USERR5
 40
0.0
  9
$WORLDVIEW
 70
     1
  9
$SHADEDGE
 70
     3
  9
$SHADEDIF
 70
    70
  9
$TILEMODE
 70
     1
  9
$MAXACTVP
 70
    64
  9
$PINSBASE
 10
0.0
 20
0.0
 30
0.0
  9
$PLIMCHECK
 70
     0
  9
$PEXTMIN
 10
1.000000E+20
 20
1.000000E+20
 30
1.000000E+20
  9
$PEXTMAX
 10
-1.000000E+20
 20
-1.000000E+20
 30
-1.000000E+20
  9
$PLIMMIN
 10
0.0
 20
0.0
  9
$PLIMMAX
 10
420.0
 20
297.0
  9
$UNITMODE
 70
     0
  9
$VISRETAIN
 70
     1
  9
$PLINEGEN
 70
     0
  9
$PSLTSCALE
 70
     1
  9
$TREEDEPTH
 70
  3020
  9
$CMLSTYLE
  2
Standard
  9
$CMLJUST
 70
     1
  9
$CMLSCALE
 40
1.0
  9
$PROXYGRAPHICS
 70
     1
  9
$MEASUREMENT
 70
     1
  9
$CELWEIGHT
370
    -1
  9
$ENDCAPS
280
     0
  9
$JOINSTYLE
280
     0
  9
$LWDISPLAY
290
     0
  9
$INSUNITS
 70
     4
  9
$HYPERLINKBASE
  1

  9
$STYLESHEET
  1

  9
$XEDIT
290
     1
  9
$CEPSNTYPE
380
     0
  9
$PSTYLEMODE
290
     1
  9
$FINGERPRINTGUID
  2
{FAEB1C30-E019-11D5-929B-00C0DF256EC4}
  9
$VERSIONGUID
  2
{FAEB1C32-E019-11D5-929B-00C0DF256EC4}
  9
$EXTNAMES
290
     1
  9
$PSVPSCALE
 40
0.0
  9
$OLESTARTUP
290
     0
  0
ENDSEC
  0
SECTION
  2
CLASSES
  0
CLASS
  1
ACDBDICTIONARYWDFLT
  2
AcDbDictionaryWithDefault
  3
ObjectDBX Classes
 90
        0
280
     0
281
     0
  0
CLASS
  1
ACDBPLACEHOLDER
  2
AcDbPlaceHolder
  3
ObjectDBX Classes
 90
        0
280
     0
281
     0
  0
CLASS
  1
LAYOUT
  2
AcDbLayout
  3
ObjectDBX Classes
 90
        0
280
     0
281
     0
  0
ENDSEC
  0
SECTION
  2
TABLES
  0
TABLE
  2
VPORT
  5
8
330
0
100
AcDbSymbolTable
 70
     2
  0
VPORT
  5
29
330
8
100
AcDbSymbolTableRecord
100
AcDbViewportTableRecord
  2
*Active
 70
     0
 10
0.0
 20
0.0
 11
1.0
 21
1.0
 12
50.0
 22
50.0
 13
0.0
 23
0.0
 14
10.0
 24
10.0
 15
10.0
 25
10.0
 16
0.0
 26
0.0
 36
1.0
 17
0.0
 27
0.0
 37
0.0
 40
103.921569
 41
1.0
 42
50.0
 43
0.0
 44
0.0
 50
0.0
 51
0.0
 71
     0
 72
   100
 73
     1
 74
     3
 75
     0
 76
     0
 77
     0
 78
     0
281
     0
 65
     1
110
0.0
120
0.0
130
0.0
111
1.0
121
0.0
131
0.0
112
0.0
122
1.0
132
0.0
 79
     0
146
0.0
  0
ENDTAB
  0
TABLE
  2
LTYPE
  5
5
330
0
100
AcDbSymbolTable
 70
     1
  0
LTYPE
  5
14
330
5
100
AcDbSymbolTableRecord
100
AcDbLinetypeTableRecord
  2
ByBlock
 70
     0
  3

 72
    65
 73
     0
 40
0.0
  0
LTYPE
  5
15
330
5
100
AcDbSymbolTableRecord
100
AcDbLinetypeTableRecord
  2
ByLayer
 70
     0
  3

 72
    65
 73
     0
 40
0.0
  0
LTYPE
  5
16
330
5
100
AcDbSymbolTableRecord
100
AcDbLinetypeTableRecord
  2
Continuous
 70
     0
  3

 72
    65
 73
     0
 40
0.0
  0
ENDTAB
  0
TABLE
  2
LAYER
  5
2
330
0
100
AcDbSymbolTable
 70
     1
  0
LAYER
  5
10
330
2
100
AcDbSymbolTableRecord
100
AcDbLayerTableRecord
  2
0
 70
     0
 62
     7
  6
Continuous
370
    -3
390
F
  0
ENDTAB
  0
TABLE
  2
STYLE
  5
3
330
0
100
AcDbSymbolTable
 70
     1
  0
STYLE
  5
11
330
3
100
AcDbSymbolTableRecord
100
AcDbTextStyleTableRecord
  2
Standard
 70
     0
 40
1.0
 41
1.0
 50
0.0
 71
     0
 42
2.5
  3
RomanS
  4

  0
ENDTAB
  0
TABLE
  2
VIEW
  5
6
330
0
100
AcDbSymbolTable
 70
     0
  0
ENDTAB
  0
TABLE
  2
UCS
  5
7
330
0
100
AcDbSymbolTable
 70
     0
  0
ENDTAB
  0
TABLE
  2
APPID
  5
9
330
0
100
AcDbSymbolTable
 70
     1
  0
APPID
  5
12
330
9
100
AcDbSymbolTableRecord
100
AcDbRegAppTableRecord
  2
ACAD
 70
     0
  0
ENDTAB
  0
TABLE
  2
DIMSTYLE
  5
A
330
0
100
AcDbSymbolTable
 70
     1
100
AcDbDimStyleTable
  0
DIMSTYLE
105
27
330
A
100
AcDbSymbolTableRecord
100
AcDbDimStyleTableRecord
  2
ISO-25
 70
     0
 41
2.5
 42
0.625
 44
1.25
 73
     0
 74
     0
 77
     1
 78
     8
 79
     2
140
2.5
141
2.5
146
0.0
147
0.625
271
     2
272
     0
273
     0
274
     0
278
    44
283
     0
289
     0
340
11
  0
ENDTAB
  0
TABLE
  2
BLOCK_RECORD
  5
1
330
0
100
AcDbSymbolTable
 70
     1
  0
BLOCK_RECORD
  5
1F
330
1
100
AcDbSymbolTableRecord
100
AcDbBlockTableRecord
  2
*Model_Space
340
22
  0
BLOCK_RECORD
  5
1B
330
1
100
AcDbSymbolTableRecord
100
AcDbBlockTableRecord
  2
*Paper_Space
340
1E
  0
BLOCK_RECORD
  5
23
330
1
100
AcDbSymbolTableRecord
100
AcDbBlockTableRecord
  2
*Paper_Space0
340
26
  0
ENDTAB
  0
ENDSEC
  0
SECTION
  2
BLOCKS
  0
BLOCK
  5
20
330
1F
100
AcDbEntity
  8
0
100
AcDbBlockBegin
  2
*Model_Space
 70
     0
 71
     0
 10
0.0
 20
0.0
 30
0.0
  3
*Model_Space
  1

  0
ENDBLK
  5
21
330
1F
100
AcDbEntity
  8
0
100
AcDbBlockEnd
  0
BLOCK
  5
1C
330
1B
100
AcDbEntity
 67
     1
  8
0
100
AcDbBlockBegin
  2
*Paper_Space
 70
     0
 71
     0
 10
0.0
 20
0.0
 30
0.0
  3
*Paper_Space
  1

  0
ENDBLK
  5
1D
330
1B
100
AcDbEntity
 67
     1
  8
0
100
AcDbBlockEnd
  0
BLOCK
  5
24
330
23
100
AcDbEntity
  8
0
100
AcDbBlockBegin
  2
*Paper_Space0
 70
     0
 71
     0
 10
0.0
 20
0.0
 30
0.0
  3
*Paper_Space0
  1

  0
ENDBLK
  5
25
330
23
100
AcDbEntity
  8
0
100
AcDbBlockEnd
  0
ENDSEC
  0
SECTION
  2
ENTITIES
  0
LWPOLYLINE
  5
2A
330
1F
100
AcDbEntity
  8
0
100
AcDbPolyline
 90
     1417
 70
   128
 43
0.0
 10
-337.266257
 20
-205.292038
 10
-337.266212
 20
-205.292009
 10
-337.265899
 20
-205.291805
 10
-337.265049
 20
-205.291251
 10
-337.263392
 20
-205.290171
 10
-337.260662
 20
-205.288392
 10
-337.256589
 20
-205.285738
 10
-337.250905
 20
-205.282033
 10
-337.243341
 20
-205.277104
 10
-337.233628
 20
-205.270774
 10
-337.221499
 20
-205.26287
 10
-337.206684
 20
-205.253215
 10
-337.188915
 20
-205.241635
 10
-337.167924
 20
-205.227955
 10
-337.143441
 20
-205.212
 10
-337.115199
 20
-205.193594
 10
-337.082929
 20
-205.172564
 10
-337.046361
 20
-205.148733
 10
-337.005229
 20
-205.121927
 10
-336.959262
 20
-205.091971
 10
-336.908194
 20
-205.058689
 10
-336.851888
 20
-205.021995
 10
-336.790749
 20
-204.982151
 10
-336.725313
 20
-204.939507
 10
-336.656117
 20
-204.894412
 10
-336.583699
 20
-204.847217
 10
-336.508595
 20
-204.798272
 10
-336.431343
 20
-204.747927
 10
-336.352479
 20
-204.696532
 10
-336.272542
 20
-204.644437
 10
-336.192067
 20
-204.591992
 10
-336.111592
 20
-204.539547
 10
-336.031655
 20
-204.487452
 10
-335.952791
 20
-204.436057
 10
-335.875539
 20
-204.385712
 10
-335.800435
 20
-204.336767
 10
-335.728017
 20
-204.289572
 10
-335.658821
 20
-204.244477
 10
-335.593385
 20
-204.201833
 10
-335.532246
 20
-204.161988
 10
-335.47594
 20
-204.125294
 10
-335.424872
 20
-204.092013
 10
-335.378905
 20
-204.062057
 10
-335.337773
 20
-204.035251
 10
-335.301206
 20
-204.01142
 10
-335.268935
 20
-203.990389
 10
-335.240693
 20
-203.971984
 10
-335.21621
 20
-203.956029
 10
-335.195219
 20
-203.942349
 10
-335.17745
 20
-203.930769
 10
-335.162635
 20
-203.921114
 10
-335.150506
 20
-203.913209
 10
-335.140793
 20
-203.90688
 10
-335.133229
 20
-203.90195
 10
-335.127545
 20
-203.898246
 10
-335.123472
 20
-203.895592
 10
-335.120742
 20
-203.893812
 10
-335.119086
 20
-203.892733
 10
-335.118235
 20
-203.892179
 10
-335.117922
 20
-203.891975
 10
-335.117877
 20
-203.891945
 10
-335.117775
 20
-203.892101
 10
-335.117064
 20
-203.893193
 10
-335.115132
 20
-203.896157
 10
-335.11137
 20
-203.901928
 10
-335.105168
 20
-203.911442
 10
-335.095916
 20
-203.925636
 10
-335.083003
 20
-203.945445
 10
-335.06582
 20
-203.971805
 10
-335.043757
 20
-204.005652
 10
-335.016203
 20
-204.047921
 10
-334.982549
 20
-204.099549
 10
-334.942184
 20
-204.161472
 10
-334.894499
 20
-204.234624
 10
-334.838883
 20
-204.319943
 10
-334.774727
 20
-204.418364
 10
-334.70142
 20
-204.530822
 10
-334.618352
 20
-204.658255
 10
-334.524914
 20
-204.801596
 10
-334.420494
 20
-204.961783
 10
-334.304484
 20
-205.139752
 10
-334.176578
 20
-205.335969
 10
-334.037691
 20
-205.549032
 10
-333.889043
 20
-205.777069
 10
-333.731855
 20
-206.018208
 10
-333.567346
 20
-206.270576
 10
-333.396737
 20
-206.532304
 10
-333.221248
 20
-206.801518
 10
-333.042098
 20
-207.076347
 10
-332.860508
 20
-207.35492
 10
-332.677698
 20
-207.635365
 10
-332.494888
 20
-207.915809
 10
-332.313298
 20
-208.194382
 10
-332.134148
 20
-208.469211
 10
-331.958658
 20
-208.738425
 10
-331.788049
 20
-209.000153
 10
-331.62354
 20
-209.252522
 10
-331.466352
 20
-209.49366
 10
-331.317704
 20
-209.721697
 10
-331.178817
 20
-209.93476
 10
-331.050911
 20
-210.130977
 10
-330.934901
 20
-210.308946
 10
-330.830482
 20
-210.469133
 10
-330.737043
 20
-210.612475
 10
-330.653975
 20
-210.739907
 10
-330.580668
 20
-210.852365
 10
-330.516512
 20
-210.950786
 10
-330.460896
 20
-211.036105
 10
-330.413211
 20
-211.109258
 10
-330.372846
 20
-211.17118
 10
-330.339192
 20
-211.222808
 10
-330.311639
 20
-211.265077
 10
-330.289575
 20
-211.298924
 10
-330.272392
 20
-211.325284
 10
-330.25948
 20
-211.345093
 10
-330.250227
 20
-211.359287
 10
-330.244025
 20
-211.368801
 10
-330.240263
 20
-211.374572
 10
-330.238332
 20
-211.377536
 10
-330.23762
 20
-211.378628
 10
-330.237518
 20
-211.378784
 10
-330.118839
 20
-211.560874
 10
-330.100146
 20
-211.589515
 10
-330.079667
 20
-211.620653
 10
-330.057395
 20
-211.654055
 10
-330.033326
 20
-211.689487
 10
-330.007452
 20
-211.726717
 10
-329.979769
 20
-211.765509
 10
-329.950269
 20
-211.805631
 10
-329.918947
 20
-211.846849
 10
-329.885797
 20
-211.88893
 10
-329.850813
 20
-211.931638
 10
-329.813989
 20
-211.974742
 10
-329.775319
 20
-212.018007
 10
-329.734797
 20
-212.0612
 10
-329.692417
 20
-212.104087
 10
-329.648174
 20
-212.146435
 10
-329.60206
 20
-212.188009
 10
-329.55407
 20
-212.228576
 10
-329.504198
 20
-212.267903
 10
-329.452439
 20
-212.305755
 10
-329.398785
 20
-212.3419
 10
-329.343257
 20
-212.376138
 10
-329.285972
 20
-212.408403
 10
-329.227074
 20
-212.438665
 10
-329.166705
 20
-212.466892
 10
-329.10501
 20
-212.493055
 10
-329.042132
 20
-212.517122
 10
-328.978214
 20
-212.539063
 10
-328.913399
 20
-212.558846
 10
-328.84783
 20
-212.57644
 10
-328.781651
 20
-212.591815
 10
-328.715005
 20
-212.60494
 10
-328.648036
 20
-212.615784
 10
-328.580886
 20
-212.624316
 10
-328.5137
 20
-212.630505
 10
-328.446619
 20
-212.63432
 10
-328.379788
 20
-212.635731
 10
-328.31335
 20
-212.634706
 10
-328.247448
 20
-212.631215
 10
-328.182226
 20
-212.625227
 10
-328.117826
 20
-212.61671
 10
-328.054384
 20
-212.605676
 10
-327.991994
 20
-212.5923
 10
-327.930746
 20
-212.576797
 10
-327.870725
 20
-212.559384
 10
-327.812021
 20
-212.540278
 10
-327.754719
 20
-212.519695
 10
-327.698908
 20
-212.497851
 10
-327.644674
 20
-212.474963
 10
-327.592106
 20
-212.451248
 10
-327.541291
 20
-212.426921
 10
-327.492315
 20
-212.402199
 10
-327.445267
 20
-212.377298
 10
-327.400234
 20
-212.352436
 10
-327.357303
 20
-212.327827
 10
-327.316561
 20
-212.303689
 10
-327.278097
 20
-212.280238
 10
-327.241997
 20
-212.257691
 10
-327.208349
 20
-212.236263
 10
-327.17724
 20
-212.216172
 10
-326.967824
 20
-212.079698
 10
-326.786932
 20
-211.961763
 10
-326.758481
 20
-211.943187
 10
-326.727549
 20
-211.922834
 10
-326.694371
 20
-211.900697
 10
-326.65918
 20
-211.876768
 10
-326.622209
 20
-211.85104
 10
-326.583692
 20
-211.823504
 10
-326.543862
 20
-211.794154
 10
-326.502953
 20
-211.762981
 10
-326.461197
 20
-211.729978
 10
-326.418829
 20
-211.695138
 10
-326.376082
 20
-211.658452
 10
-326.333189
 20
-211.619913
 10
-326.290384
 20
-211.579514
 10
-326.2479
 20
-211.537246
 10
-326.20597
 20
-211.493103
 10
-326.164828
 20
-211.447076
 10
-326.124708
 20
-211.399159
 10
-326.085842
 20
-211.349342
 10
-326.048465
 20
-211.29762
 10
-326.012809
 20
-211.243983
 10
-325.979075
 20
-211.18845
 10
-325.947324
 20
-211.13114
 10
-325.917586
 20
-211.072197
 10
-325.88989
 20
-211.011765
 10
-325.864265
 20
-210.949988
 10
-325.84074
 20
-210.887012
 10
-325.819344
 20
-210.82298
 10
-325.800105
 20
-210.758036
 10
-325.783053
 20
-210.692325
 10
-325.768217
 20
-210.625991
 10
-325.755625
 20
-210.559178
 10
-325.745307
 20
-210.492031
 10
-325.737292
 20
-210.424694
 10
-325.731607
 20
-210.357311
 10
-325.728284
 20
-210.290026
 10
-325.72735
 20
-210.222984
 10
-325.728834
 20
-210.15633
 10
-325.732765
 20
-210.090206
 10
-325.739173
 20
-210.024758
 10
-325.748086
 20
-209.96013
 10
-325.759492
 20
-209.896457
 10
-325.773217
 20
-209.833837
 10
-325.789045
 20
-209.772356
 10
-325.806761
 20
-209.712104
 10
-325.826149
 20
-209.653169
 10
-325.846994
 20
-209.595639
 10
-325.86908
 20
-209.539601
 10
-325.892191
 20
-209.485144
 10
-325.916113
 20
-209.432357
 10
-325.940629
 20
-209.381326
 10
-325.965525
 20
-209.332141
 10
-325.990584
 20
-209.284889
 10
-326.015592
 20
-209.239659
 10
-326.040332
 20
-209.196539
 10
-326.064589
 20
-209.155616
 10
-326.088148
 20
-209.116979
 10
-326.110793
 20
-209.080716
 10
-326.132308
 20
-209.046915
 10
-326.152479
 20
-209.015664
 10
-326.28948
 20
-208.805292
 10
-326.289581
 20
-208.805136
 10
-326.290293
 20
-208.804044
 10
-326.292225
 20
-208.80108
 10
-326.295987
 20
-208.795309
 10
-326.302189
 20
-208.785795
 10
-326.311441
 20
-208.771602
 10
-326.324354
 20
-208.751794
 10
-326.341537
 20
-208.725435
 10
-326.3636
 20
-208.691589
 10
-326.391154
 20
-208.649321
 10
-326.424808
 20
-208.597695
 10
-326.465173
 20
-208.535774
 10
-326.512858
 20
-208.462624
 10
-326.568474
 20
-208.377308
 10
-326.63263
 20
-208.278891
 10
-326.705937
 20
-208.166436
 10
-326.789005
 20
-208.039008
 10
-326.882443
 20
-207.895671
 10
-326.986863
 20
-207.735489
 10
-327.102873
 20
-207.557527
 10
-327.230779
 20
-207.361315
 10
-327.369666
 20
-207.14826
 10
-327.518313
 20
-206.920231
 10
-327.675502
 20
-206.6791
 10
-327.84001
 20
-206.426739
 10
-328.01062
 20
-206.165021
 10
-328.186109
 20
-205.895815
 10
-328.365259
 20
-205.620995
 10
-328.546849
 20
-205.342432
 10
-328.729659
 20
-205.061996
 10
-328.912469
 20
-204.781561
 10
-329.094059
 20
-204.502998
 10
-329.273209
 20
-204.228177
 10
-329.448699
 20
-203.958972
 10
-329.619308
 20
-203.697253
 10
-329.783817
 20
-203.444893
 10
-329.941005
 20
-203.203762
 10
-330.089653
 20
-202.975733
 10
-330.228539
 20
-202.762677
 10
-330.356445
 20
-202.566466
 10
-330.472456
 20
-202.388504
 10
-330.576875
 20
-202.228322
 10
-330.670314
 20
-202.084985
 10
-330.753381
 20
-201.957557
 10
-330.826688
 20
-201.845102
 10
-330.890845
 20
-201.746685
 10
-330.946461
 20
-201.661369
 10
-330.994146
 20
-201.588219
 10
-331.03451
 20
-201.526298
 10
-331.068164
 20
-201.474672
 10
-331.095718
 20
-201.432404
 10
-331.117781
 20
-201.398558
 10
-331.134964
 20
-201.372199
 10
-331.147877
 20
-201.352391
 10
-331.157129
 20
-201.338198
 10
-331.163331
 20
-201.328683
 10
-331.167093
 20
-201.322913
 10
-331.169025
 20
-201.319949
 10
-331.169737
 20
-201.318857
 10
-331.169839
 20
-201.318701
 10
-331.169785
 20
-201.318667
 10
-331.169414
 20
-201.318424
 10
-331.168404
 20
-201.317766
 10
-331.166438
 20
-201.316484
 10
-331.163197
 20
-201.314371
 10
-331.158362
 20
-201.311219
 10
-331.151614
 20
-201.30682
 10
-331.142634
 20
-201.300965
 10
-331.131104
 20
-201.293448
 10
-331.116705
 20
-201.284061
 10
-331.099117
 20
-201.272595
 10
-331.078023
 20
-201.258842
 10
-331.053104
 20
-201.242596
 10
-331.024039
 20
-201.223647
 10
-330.990512
 20
-201.201789
 10
-330.952202
 20
-201.176813
 10
-330.908792
 20
-201.148512
 10
-330.859962
 20
-201.116677
 10
-330.805393
 20
-201.081101
 10
-330.744768
 20
-201.041576
 10
-330.677925
 20
-200.997998
 10
-330.605344
 20
-200.950679
 10
-330.527663
 20
-200.900035
 10
-330.445518
 20
-200.84648
 10
-330.359547
 20
-200.790432
 10
-330.270388
 20
-200.732305
 10
-330.178679
 20
-200.672515
 10
-330.085057
 20
-200.611478
 10
-329.99016
 20
-200.54961
 10
-329.894626
 20
-200.487326
 10
-329.799091
 20
-200.425043
 10
-329.704194
 20
-200.363174
 10
-329.610572
 20
-200.302138
 10
-329.518863
 20
-200.242348
 10
-329.429704
 20
-200.184221
 10
-329.343734
 20
-200.128173
 10
-329.261589
 20
-200.074618
 10
-329.183907
 20
-200.023974
 10
-329.111326
 20
-199.976654
 10
-329.044484
 20
-199.933077
 10
-328.983858
 20
-199.893552
 10
-328.929289
 20
-199.857976
 10
-328.880459
 20
-199.826141
 10
-328.837049
 20
-199.79784
 10
-328.79874
 20
-199.772864
 10
-328.765212
 20
-199.751005
 10
-328.736148
 20
-199.732057
 10
-328.711228
 20
-199.715811
 10
-328.690134
 20
-199.702058
 10
-328.672547
 20
-199.690592
 10
-328.658147
 20
-199.681205
 10
-328.646617
 20
-199.673688
 10
-328.637638
 20
-199.667833
 10
-328.63089
 20
-199.663434
 10
-328.626054
 20
-199.660282
 10
-328.622813
 20
-199.658169
 10
-328.620847
 20
-199.656887
 10
-328.619838
 20
-199.656229
 10
-328.619466
 20
-199.655986
 10
-328.619413
 20
-199.655952
 10
-327.69474
 20
-199.053172
 10
-327.549179
 20
-198.958418
 10
-327.390197
 20
-198.855724
 10
-327.218245
 20
-198.746191
 10
-327.033772
 20
-198.630923
 10
-326.837227
 20
-198.511021
 10
-326.629061
 20
-198.387586
 10
-326.409723
 20
-198.26172
 10
-326.179663
 20
-198.134526
 10
-325.93933
 20
-198.007104
 10
-325.689175
 20
-197.880558
 10
-325.429646
 20
-197.755988
 10
-325.161194
 20
-197.634497
 10
-324.884268
 20
-197.517186
 10
-324.599319
 20
-197.405158
 10
-324.306794
 20
-197.299514
 10
-324.007146
 20
-197.201355
 10
-323.700822
 20
-197.111785
 10
-323.388273
 20
-197.031904
 10
-323.069949
 20
-196.962815
 10
-322.746298
 20
-196.905619
 10
-322.417818
 20
-196.861209
 10
-322.085191
 20
-196.82964
 10
-321.749147
 20
-196.810758
 10
-321.410413
 20
-196.804409
 10
-321.06972
 20
-196.810438
 10
-320.727796
 20
-196.828693
 10
-320.385371
 20
-196.859018
 10
-320.043174
 20
-196.90126
 10
-319.701933
 20
-196.955264
 10
-319.362379
 20
-197.020877
 10
-319.02524
 20
-197.097944
 10
-318.691244
 20
-197.186312
 10
-318.361123
 20
-197.285825
 10
-318.035604
 20
-197.396331
 10
-317.715416
 20
-197.517675
 10
-317.401289
 20
-197.649703
 10
-317.093952
 20
-197.79226
 10
-316.794135
 20
-197.945193
 10
-316.502565
 20
-198.108348
 10
-316.219972
 20
-198.281571
 10
-315.946959
 20
-198.464534
 10
-315.683619
 20
-198.656222
 10
-315.429919
 20
-198.855445
 10
-315.185825
 20
-199.061015
 10
-314.951304
 20
-199.271742
 10
-314.726323
 20
-199.486438
 10
-314.510849
 20
-199.703913
 10
-314.304847
 20
-199.922978
 10
-314.108285
 20
-200.142445
 10
-313.92113
 20
-200.361124
 10
-313.743348
 20
-200.577826
 10
-313.574906
 20
-200.791362
 10
-313.41577
 20
-201.000544
 10
-313.265907
 20
-201.204182
 10
-313.125284
 20
-201.401086
 10
-312.993868
 20
-201.59007
 10
-312.871624
 20
-201.769942
 10
-312.758521
 20
-201.939514
 10
-312.654524
 20
-202.097597
 10
-311.956944
 20
-203.167469
 10
-311.956838
 20
-203.167632
 10
-311.956093
 20
-203.168775
 10
-311.954071
 20
-203.171877
 10
-311.950133
 20
-203.177918
 10
-311.943641
 20
-203.187877
 10
-311.933957
 20
-203.202734
 10
-311.920441
 20
-203.223469
 10
-311.902456
 20
-203.251061
 10
-311.879362
 20
-203.28649
 10
-311.850521
 20
-203.330735
 10
-311.815295
 20
-203.384777
 10
-311.773045
 20
-203.449593
 10
-311.723133
 20
-203.526166
 10
-311.66492
 20
-203.615472
 10
-311.597767
 20
-203.718494
 10
-311.521036
 20
-203.836209
 10
-311.434089
 20
-203.969598
 10
-311.336286
 20
-204.11964
 10
-311.22699
 20
-204.287315
 10
-311.105562
 20
-204.473602
 10
-310.971682
 20
-204.678991
 10
-310.826309
 20
-204.902014
 10
-310.670719
 20
-205.14071
 10
-310.506189
 20
-205.39312
 10
-310.333997
 20
-205.657285
 10
-310.155419
 20
-205.931247
 10
-309.971734
 20
-206.213045
 10
-309.784217
 20
-206.500721
 10
-309.594146
 20
-206.792315
 10
-309.402798
 20
-207.085868
 10
-309.21145
 20
-207.379422
 10
-309.021379
 20
-207.671016
 10
-308.833862
 20
-207.958692
 10
-308.650176
 20
-208.24049
 10
-308.471599
 20
-208.514452
 10
-308.299407
 20
-208.778617
 10
-308.134877
 20
-209.031027
 10
-307.979287
 20
-209.269723
 10
-307.833913
 20
-209.492745
 10
-307.700034
 20
-209.698135
 10
-307.578605
 20
-209.884422
 10
-307.469309
 20
-210.052097
 10
-307.371506
 20
-210.202139
 10
-307.284559
 20
-210.335528
 10
-307.207828
 20
-210.453243
 10
-307.140675
 20
-210.556264
 10
-307.082462
 20
-210.645571
 10
-307.03255
 20
-210.722143
 10
-306.9903
 20
-210.78696
 10
-306.955074
 20
-210.841001
 10
-306.926234
 20
-210.885247
 10
-306.90314
 20
-210.920676
 10
-306.885154
 20
-210.948268
 10
-306.871639
 20
-210.969003
 10
-306.861954
 20
-210.98386
 10
-306.855462
 20
-210.993819
 10
-306.851525
 20
-210.99986
 10
-306.849503
 20
-211.002962
 10
-306.848758
 20
-211.004105
 10
-306.848651
 20
-211.004268
 10
-306.057704
 20
-211.015223
 10
-305.933246
 20
-211.01698
 10
-305.797614
 20
-211.019092
 10
-305.651502
 20
-211.021749
 10
-305.4956
 20
-211.025142
 10
-305.3306
 20
-211.029462
 10
-305.157194
 20
-211.034899
 10
-304.976074
 20
-211.041643
 10
-304.787931
 20
-211.049886
 10
-304.593457
 20
-211.059817
 10
-304.393343
 20
-211.071627
 10
-304.18828
 20
-211.085507
 10
-303.978962
 20
-211.101648
 10
-303.766078
 20
-211.120239
 10
-303.550321
 20
-211.141472
 10
-303.332383
 20
-211.165536
 10
-303.112955
 20
-211.192624
 10
-302.892728
 20
-211.222924
 10
-302.672395
 20
-211.256627
 10
-302.452646
 20
-211.293925
 10
-302.234174
 20
-211.335008
 10
-302.017576
 20
-211.380034
 10
-301.803076
 20
-211.429038
 10
-301.590805
 20
-211.482023
 10
-301.380892
 20
-211.538992
 10
-301.173468
 20
-211.599948
 10
-300.968663
 20
-211.664892
 10
-300.766606
 20
-211.733829
 10
-300.567428
 20
-211.806761
 10
-300.371259
 20
-211.88369
 10
-300.178229
 20
-211.96462
 10
-299.988469
 20
-212.049554
 10
-299.802108
 20
-212.138494
 10
-299.619276
 20
-212.231442
 10
-299.440104
 20
-212.328403
 10
-299.264722
 20
-212.429378
 10
-299.093259
 20
-212.534371
 10
-298.925847
 20
-212.643384
 10
-298.762615
 20
-212.756421
 10
-298.603692
 20
-212.873483
 10
-298.449211
 20
-212.994574
 10
-298.299284
 20
-213.119595
 10
-298.153965
 20
-213.248037
 10
-298.013293
 20
-213.37929
 10
-297.877304
 20
-213.512745
 10
-297.746037
 20
-213.647791
 10
-297.619529
 20
-213.783817
 10
-297.497818
 20
-213.920215
 10
-297.380942
 20
-214.056373
 10
-297.268938
 20
-214.191682
 10
-297.161844
 20
-214.325531
 10
-297.059699
 20
-214.45731
 10
-296.96254
 20
-214.586409
 10
-296.870404
 20
-214.712218
 10
-296.783329
 20
-214.834128
 10
-296.701354
 20
-214.951526
 10
-296.624515
 20
-215.063805
 10
-296.552852
 20
-215.170353
 10
-296.4864
 20
-215.27056
 10
-296.425199
 20
-215.363816
 10
-296.01424
 20
-215.994254
 10
-295.659194
 20
-216.538955
 10
-295.603365
 20
-216.624698
 10
-295.542753
 20
-216.718331
 10
-295.477901
 20
-216.819574
 10
-295.409351
 20
-216.928144
 10
-295.337648
 20
-217.043762
 10
-295.263332
 20
-217.166146
 10
-295.186949
 20
-217.295016
 10
-295.109039
 20
-217.430091
 10
-295.030146
 20
-217.57109
 10
-294.950813
 20
-217.717733
 10
-294.871583
 20
-217.869738
 10
-294.792998
 20
-218.026825
 10
-294.715601
 20
-218.188713
 10
-294.639935
 20
-218.355121
 10
-294.566544
 20
-218.525768
 10
-294.495969
 20
-218.700374
 10
-294.428754
 20
-218.878658
 10
-294.365441
 20
-219.060339
 10
-294.306573
 20
-219.245136
 10
-294.252694
 20
-219.432769
 10
-294.204246
 20
-219.622983
 10
-294.161274
 20
-219.815635
 10
-294.123723
 20
-220.010604
 10
-294.091538
 20
-220.207775
 10
-294.064664
 20
-220.407029
 10
-294.043047
 20
-220.608247
 10
-294.026631
 20
-220.811313
 10
-294.015362
 20
-221.016108
 10
-294.009185
 20
-221.222513
 10
-294.008044
 20
-221.430413
 10
-294.011886
 20
-221.639687
 10
-294.020654
 20
-221.850219
 10
-294.034294
 20
-222.06189
 10
-294.052752
 20
-222.274582
 10
-294.075971
 20
-222.488179
 10
-294.103898
 20
-222.70256
 10
-294.136478
 20
-222.91761
 10
-294.173655
 20
-223.133209
 10
-294.215374
 20
-223.34924
 10
-294.261581
 20
-223.565585
 10
-294.312155
 20
-223.782053
 10
-294.366708
 20
-223.998161
 10
-294.424786
 20
-224.213353
 10
-294.485937
 20
-224.427074
 10
-294.549707
 20
-224.638767
 10
-294.615641
 20
-224.847877
 10
-294.683287
 20
-225.053847
 10
-294.752191
 20
-225.256123
 10
-294.8219
 20
-225.454147
 10
-294.891959
 20
-225.647365
 10
-294.961916
 20
-225.835221
 10
-295.031316
 20
-226.017158
 10
-295.099707
 20
-226.19262
 10
-295.166635
 20
-226.361053
 10
-295.231646
 20
-226.5219
 10
-295.294287
 20
-226.674604
 10
-295.354103
 20
-226.818611
 10
-295.410642
 20
-226.953365
 10
-295.463451
 20
-227.078309
 10
-295.821277
 20
-227.920961
 10
-295.821207
 20
-227.921069
 10
-295.820715
 20
-227.921824
 10
-295.819379
 20
-227.923873
 10
-295.816779
 20
-227.927863
 10
-295.812491
 20
-227.934441
 10
-295.806094
 20
-227.944254
 10
-295.797166
 20
-227.95795
 10
-295.785287
 20
-227.976174
 10
-295.770033
 20
-227.999575
 10
-295.750983
 20
-228.0288
 10
-295.727716
 20
-228.064494
 10
-295.699809
 20
-228.107306
 10
-295.666841
 20
-228.157882
 10
-295.628391
 20
-228.21687
 10
-295.584035
 20
-228.284916
 10
-295.533353
 20
-228.362668
 10
-295.475923
 20
-228.450772
 10
-295.411323
 20
-228.549875
 10
-295.339131
 20
-228.660626
 10
-295.258925
 20
-228.783669
 10
-295.170495
 20
-228.91933
 10
-295.074474
 20
-229.066638
 10
-294.971704
 20
-229.224298
 10
-294.863029
 20
-229.391016
 10
-294.749294
 20
-229.565499
 10
-294.63134
 20
-229.746452
 10
-294.510013
 20
-229.932581
 10
-294.386155
 20
-230.122593
 10
-294.26061
 20
-230.315193
 10
-294.134221
 20
-230.509086
 10
-294.007833
 20
-230.70298
 10
-293.882288
 20
-230.89558
 10
-293.75843
 20
-231.085591
 10
-293.637102
 20
-231.271721
 10
-293.519149
 20
-231.452674
 10
-293.405413
 20
-231.627157
 10
-293.296739
 20
-231.793875
 10
-293.193969
 20
-231.951535
 10
-293.097947
 20
-232.098843
 10
-293.009517
 20
-232.234503
 10
-292.929312
 20
-232.357547
 10
-292.85712
 20
-232.468297
 10
-292.79252
 20
-232.567401
 10
-292.735089
 20
-232.655505
 10
-292.684407
 20
-232.733257
 10
-292.640052
 20
-232.801303
 10
-292.601601
 20
-232.860291
 10
-292.568633
 20
-232.910867
 10
-292.540727
 20
-232.953679
 10
-292.517459
 20
-232.989373
 10
-292.49841
 20
-233.018598
 10
-292.483156
 20
-233.041999
 10
-292.471276
 20
-233.060223
 10
-292.462349
 20
-233.073919
 10
-292.455952
 20
-233.083732
 10
-292.451664
 20
-233.09031
 10
-292.449063
 20
-233.0943
 10
-292.447728
 20
-233.096349
 10
-292.447236
 20
-233.097104
 10
-292.447165
 20
-233.097212
 10
-291.844551
 20
-234.02172
 10
-291.749823
 20
-234.167255
 10
-291.647157
 20
-234.326208
 10
-291.537654
 20
-234.498131
 10
-291.422417
 20
-234.682573
 10
-291.302547
 20
-234.879085
 10
-291.179145
 20
-235.087219
 10
-291.053312
 20
-235.306525
 10
-290.926151
 20
-235.536553
 10
-290.798762
 20
-235.776854
 10
-290.672247
 20
-236.02698
 10
-290.547707
 20
-236.28648
 10
-290.426245
 20
-236.554905
 10
-290.308961
 20
-236.831807
 10
-290.196957
 20
-237.116735
 10
-290.091334
 20
-237.409241
 10
-289.993195
 20
-237.708874
 10
-289.903639
 20
-238.015187
 10
-289.82377
 20
-238.32773
 10
-289.754687
 20
-238.646053
 10
-289.697494
 20
-238.969706
 10
-289.653081
 20
-239.298195
 10
-289.621505
 20
-239.630836
 10
-289.602612
 20
-239.9669
 10
-289.596248
 20
-240.305656
 10
-289.602259
 20
-240.646376
 10
-289.620492
 20
-240.988329
 10
-289.650793
 20
-241.330787
 10
-289.693008
 20
-241.673019
 10
-289.746984
 20
-242.014297
 10
-289.812566
 20
-242.353889
 10
-289.889602
 20
-242.691068
 10
-289.977937
 20
-243.025102
 10
-290.077418
 20
-243.355264
 10
-290.18789
 20
-243.680822
 10
-290.309201
 20
-244.001048
 10
-290.441197
 20
-244.315211
 10
-290.583723
 20
-244.622583
 10
-290.736626
 20
-244.922434
 10
-290.899753
 20
-245.214033
 10
-291.07295
 20
-245.496652
 10
-291.255889
 20
-245.769688
 10
-291.447556
 20
-246.033048
 10
-291.646761
 20
-246.286764
 10
-291.852314
 20
-246.530871
 10
-292.063026
 20
-246.765402
 10
-292.277708
 20
-246.990391
 10
-292.495172
 20
-247.205871
 10
-292.714228
 20
-247.411875
 10
-292.933686
 20
-247.608438
 10
-293.152358
 20
-247.795593
 10
-293.369055
 20
-247.973373
 10
-293.582587
 20
-248.141811
 10
-293.791765
 20
-248.300942
 10
-293.9954
 20
-248.4508
 10
-294.192303
 20
-248.591416
 10
-294.381284
 20
-248.722826
 10
-294.561156
 20
-248.845062
 10
-294.730728
 20
-248.958159
 10
-294.888811
 20
-249.062149
 10
-295.958682
 20
-249.759681
 10
-295.958736
 20
-249.759715
 10
-295.959108
 20
-249.759958
 10
-295.960117
 20
-249.760616
 10
-295.962084
 20
-249.761897
 10
-295.965326
 20
-249.76401
 10
-295.970163
 20
-249.767162
 10
-295.976913
 20
-249.771561
 10
-295.985895
 20
-249.777414
 10
-295.997428
 20
-249.78493
 10
-296.011832
 20
-249.794316
 10
-296.029424
 20
-249.80578
 10
-296.050524
 20
-249.819531
 10
-296.075452
 20
-249.835775
 10
-296.104524
 20
-249.85472
 10
-296.138061
 20
-249.876575
 10
-296.176382
 20
-249.901547
 10
-296.219805
 20
-249.929845
 10
-296.26865
 20
-249.961675
 10
-296.323234
 20
-249.997245
 10
-296.383877
 20
-250.036764
 10
-296.450739
 20
-250.080336
 10
-296.523341
 20
-250.127648
 10
-296.601046
 20
-250.178285
 10
-296.683215
 20
-250.231831
 10
-296.76921
 20
-250.287871
 10
-296.858395
 20
-250.34599
 10
-296.950131
 20
-250.40577
 10
-297.04378
 20
-250.466798
 10
-297.138705
 20
-250.528657
 10
-297.234267
 20
-250.590932
 10
-297.32983
 20
-250.653206
 10
-297.424755
 20
-250.715065
 10
-297.518404
 20
-250.776093
 10
-297.61014
 20
-250.835873
 10
-297.699324
 20
-250.893992
 10
-297.78532
 20
-250.950032
 10
-297.867489
 20
-251.003578
 10
-297.945193
 20
-251.054215
 10
-298.017795
 20
-251.101527
 10
-298.084657
 20
-251.145099
 10
-298.145301
 20
-251.184618
 10
-298.199885
 20
-251.220188
 10
-298.248729
 20
-251.252018
 10
-298.292153
 20
-251.280316
 10
-298.330473
 20
-251.305288
 10
-298.36401
 20
-251.327143
 10
-298.393083
 20
-251.346088
 10
-298.41801
 20
-251.362332
 10
-298.439111
 20
-251.376083
 10
-298.456703
 20
-251.387547
 10
-298.471106
 20
-251.396933
 10
-298.48264
 20
-251.404449
 10
-298.491622
 20
-251.410302
 10
-298.498372
 20
-251.414701
 10
-298.503209
 20
-251.417853
 10
-298.506451
 20
-251.419966
 10
-298.508417
 20
-251.421247
 10
-298.509427
 20
-251.421905
 10
-298.509799
 20
-251.422148
 10
-298.509852
 20
-251.422182
 10
-298.510197
 20
-251.421654
 10
-298.512607
 20
-251.417957
 10
-298.519149
 20
-251.407921
 10
-298.531888
 20
-251.388377
 10
-298.552891
 20
-251.356156
 10
-298.584223
 20
-251.30809
 10
-298.62795
 20
-251.241007
 10
-298.686138
 20
-251.15174
 10
-298.760853
 20
-251.037119
 10
-298.854161
 20
-250.893975
 10
-298.968127
 20
-250.719138
 10
-299.104817
 20
-250.50944
 10
-299.266298
 20
-250.261711
 10
-299.454634
 20
-249.972781
 10
-299.671893
 20
-249.639482
 10
-299.920139
 20
-249.258645
 10
-300.201439
 20
-248.827099
 10
-300.517859
 20
-248.341677
 10
-300.871463
 20
-247.799208
 10
-301.264319
 20
-247.196523
 10
-301.697459
 20
-246.532038
 10
-302.167784
 20
-245.810507
 10
-302.671163
 20
-245.038267
 10
-303.203464
 20
-244.221659
 10
-303.760554
 20
-243.367019
 10
-304.338304
 20
-242.480687
 10
-304.93258
 20
-241.569001
 10
-305.539251
 20
-240.638299
 10
-306.154186
 20
-239.694921
 10
-306.773252
 20
-238.745204
 10
-307.392319
 20
-237.795487
 10
-308.007253
 20
-236.852108
 10
-308.613925
 20
-235.921407
 10
-309.208201
 20
-235.009721
 10
-309.78595
 20
-234.123389
 10
-310.343041
 20
-233.268749
 10
-310.875342
 20
-232.45214
 10
-311.37872
 20
-231.679901
 10
-311.849046
 20
-230.95837
 10
-312.282186
 20
-230.293885
 10
-312.675041
 20
-229.6912
 10
-313.028646
 20
-229.148731
 10
-313.345065
 20
-228.663308
 10
-313.626365
 20
-228.231763
 10
-313.874612
 20
-227.850925
 10
-314.09187
 20
-227.517626
 10
-314.280207
 20
-227.228697
 10
-314.441687
 20
-226.980968
 10
-314.578378
 20
-226.771269
 10
-314.692344
 20
-226.596433
 10
-314.785651
 20
-226.453288
 10
-314.860366
 20
-226.338667
 10
-314.918554
 20
-226.2494
 10
-314.962282
 20
-226.182318
 10
-314.993614
 20
-226.134251
 10
-315.014616
 20
-226.10203
 10
-315.027356
 20
-226.082487
 10
-315.033898
 20
-226.072451
 10
-315.036308
 20
-226.068753
 10
-315.036652
 20
-226.068225
 10
-315.155083
 20
-225.886548
 10
-315.173737
 20
-225.857973
 10
-315.194174
 20
-225.826905
 10
-315.216401
 20
-225.793577
 10
-315.240423
 20
-225.758222
 10
-315.266248
 20
-225.721073
 10
-315.293882
 20
-225.682362
 10
-315.323332
 20
-225.642322
 10
-315.354603
 20
-225.601185
 10
-315.387704
 20
-225.559185
 10
-315.422639
 20
-225.516554
 10
-315.459416
 20
-225.473524
 10
-315.49804
 20
-225.430329
 10
-315.53852
 20
-225.3872
 10
-315.58086
 20
-225.344371
 10
-315.625069
 20
-225.302075
 10
-315.671151
 20
-225.260543
 10
-315.719114
 20
-225.220009
 10
-315.768964
 20
-225.180706
 10
-315.820708
 20
-225.142865
 10
-315.874352
 20
-225.106721
 10
-315.929877
 20
-225.072471
 10
-315.987166
 20
-225.040181
 10
-316.046073
 20
-225.009884
 10
-316.106456
 20
-224.981611
 10
-316.168171
 20
-224.955393
 10
-316.231074
 20
-224.931264
 10
-316.29502
 20
-224.909254
 10
-316.359867
 20
-224.889396
 10
-316.425471
 20
-224.871722
 10
-316.491687
 20
-224.856263
 10
-316.558373
 20
-224.843052
 10
-316.625384
 20
-224.83212
 10
-316.692576
 20
-224.823499
 10
-316.759806
 20
-224.817221
 10
-316.826931
 20
-224.813318
 10
-316.893805
 20
-224.811823
 10
-316.960286
 20
-224.812766
 10
-317.02623
 20
-224.816179
 10
-317.091493
 20
-224.822096
 10
-317.155931
 20
-224.830546
 10
-317.219409
 20
-224.841522
 10
-317.281832
 20
-224.854848
 10
-317.343112
 20
-224.870306
 10
-317.403162
 20
-224.88768
 10
-317.461893
 20
-224.906754
 10
-317.51922
 20
-224.927309
 10
-317.575054
 20
-224.949131
 10
-317.629309
 20
-224.972001
 10
-317.681897
 20
-224.995703
 10
-317.73273
 20
-225.020021
 10
-317.781722
 20
-225.044737
 10
-317.828785
 20
-225.069634
 10
-317.873831
 20
-225.094496
 10
-317.916775
 20
-225.119107
 10
-317.957527
 20
-225.143248
 10
-317.996001
 20
-225.166704
 10
-318.03211
 20
-225.189257
 10
-318.065767
 20
-225.210691
 10
-318.096883
 20
-225.230789
 10
-318.306346
 20
-225.367311
 10
-318.487321
 20
-225.485246
 10
-318.515785
 20
-225.503822
 10
-318.546731
 20
-225.524174
 10
-318.579925
 20
-225.546311
 10
-318.615133
 20
-225.570238
 10
-318.652122
 20
-225.595964
 10
-318.690658
 20
-225.623497
 10
-318.730508
 20
-225.652843
 10
-318.771439
 20
-225.684009
 10
-318.813218
 20
-225.717004
 10
-318.85561
 20
-225.751835
 10
-318.898383
 20
-225.788509
 10
-318.941302
 20
-225.827033
 10
-318.984135
 20
-225.867416
 10
-319.026649
 20
-225.909663
 10
-319.068609
 20
-225.953784
 10
-319.109782
 20
-225.999784
 10
-319.149935
 20
-226.047672
 10
-319.188835
 20
-226.097456
 10
-319.226247
 20
-226.149141
 10
-319.26194
 20
-226.202737
 10
-319.295712
 20
-226.258224
 10
-319.327502
 20
-226.315485
 10
-319.357278
 20
-226.374376
 10
-319.385013
 20
-226.434754
 10
-319.410677
 20
-226.496474
 10
-319.43424
 20
-226.559393
 10
-319.455673
 20
-226.623369
 10
-319.474947
 20
-226.688256
 10
-319.492032
 20
-226.753911
 10
-319.506899
 20
-226.820191
 10
-319.519519
 20
-226.886953
 10
-319.529862
 20
-226.954051
 10
-319.537898
 20
-227.021344
 10
-319.5436
 20
-227.088688
 10
-319.546936
 20
-227.155938
 10
-319.547878
 20
-227.222951
 10
-319.546397
 20
-227.289583
 10
-319.542463
 20
-227.355692
 10
-319.536046
 20
-227.421133
 10
-319.527118
 20
-227.485762
 10
-319.51569
 20
-227.549446
 10
-319.501937
 20
-227.612086
 10
-319.486075
 20
-227.673594
 10
-319.46832
 20
-227.73388
 10
-319.448888
 20
-227.792856
 10
-319.427996
 20
-227.850433
 10
-319.405859
 20
-227.906522
 10
-319.382693
 20
-227.961035
 10
-319.358715
 20
-228.013882
 10
-319.33414
 20
-228.064975
 10
-319.309185
 20
-228.114224
 10
-319.284066
 20
-228.161542
 10
-319.258998
 20
-228.206839
 10
-319.234199
 20
-228.250026
 10
-319.209882
 20
-228.291015
 10
-319.186266
 20
-228.329717
 10
-319.163566
 20
-228.366043
 10
-319.141998
 20
-228.399903
 10
-319.121778
 20
-228.43121
 10
-318.984443
 20
-228.641965
 10
-318.984098
 20
-228.642494
 10
-318.981688
 20
-228.646191
 10
-318.975146
 20
-228.656227
 10
-318.962406
 20
-228.67577
 10
-318.941403
 20
-228.707991
 10
-318.91007
 20
-228.756057
 10
-318.866341
 20
-228.823139
 10
-318.808152
 20
-228.912405
 10
-318.733434
 20
-229.027025
 10
-318.640124
 20
-229.170168
 10
-318.526155
 20
-229.345003
 10
-318.38946
 20
-229.554699
 10
-318.227975
 20
-229.802426
 10
-318.039632
 20
-230.091352
 10
-317.822367
 20
-230.424648
 10
-317.574113
 20
-230.805482
 10
-317.292805
 20
-231.237023
 10
-316.976376
 20
-231.722441
 10
-316.622761
 20
-232.264905
 10
-316.229893
 20
-232.867584
 10
-315.79674
 20
-233.532062
 10
-315.326401
 20
-234.253586
 10
-314.823007
 20
-235.025818
 10
-314.290691
 20
-235.842419
 10
-313.733583
 20
-236.69705
 10
-313.155816
 20
-237.583373
 10
-312.561522
 20
-238.495051
 10
-311.954833
 20
-239.425743
 10
-311.33988
 20
-240.369112
 10
-310.720795
 20
-241.31882
 10
-310.10171
 20
-242.268528
 10
-309.486757
 20
-243.211897
 10
-308.880067
 20
-244.142589
 10
-308.285773
 20
-245.054266
 10
-307.708006
 20
-245.94059
 10
-307.150899
 20
-246.795221
 10
-306.618582
 20
-247.611822
 10
-306.115188
 20
-248.384054
 10
-305.644849
 20
-249.105578
 10
-305.211696
 20
-249.770056
 10
-304.818829
 20
-250.372735
 10
-304.465213
 20
-250.915199
 10
-304.148784
 20
-251.400617
 10
-303.867476
 20
-251.832158
 10
-303.619222
 20
-252.212992
 10
-303.401957
 20
-252.546287
 10
-303.213615
 20
-252.835214
 10
-303.052129
 20
-253.082941
 10
-302.915435
 20
-253.292637
 10
-302.801465
 20
-253.467472
 10
-302.708155
 20
-253.610615
 10
-302.633438
 20
-253.725235
 10
-302.575248
 20
-253.814501
 10
-302.53152
 20
-253.881583
 10
-302.500187
 20
-253.929649
 10
-302.479183
 20
-253.96187
 10
-302.466443
 20
-253.981413
 10
-302.459901
 20
-253.991449
 10
-302.457147
 20
-253.995674
 10
-302.457192
 20
-253.995704
 10
-302.466815
 20
-254.001976
 10
-302.472499
 20
-254.005681
 10
-302.480063
 20
-254.010611
 10
-302.51672
 20
-254.034505
 10
-302.534489
 20
-254.046087
 10
-302.55548
 20
-254.059769
 10
-302.579963
 20
-254.075727
 10
-302.608205
 20
-254.094136
 10
-302.640475
 20
-254.11517
 10
-302.677042
 20
-254.139005
 10
-302.718175
 20
-254.165816
 10
-302.764141
 20
-254.195777
 10
-302.81521
 20
-254.229065
 10
-302.871516
 20
-254.265765
 10
-302.932655
 20
-254.305617
 10
-302.998091
 20
-254.348269
 10
-303.067287
 20
-254.393371
 10
-303.139705
 20
-254.440574
 10
-303.214809
 20
-254.489528
 10
-303.292061
 20
-254.539882
 10
-303.370924
 20
-254.591286
 10
-303.450862
 20
-254.64339
 10
-303.531337
 20
-254.695845
 10
-303.922968
 20
-254.951115
 10
-305.529993
 20
-255.998713
 10
-305.675522
 20
-256.093454
 10
-305.834468
 20
-256.196134
 10
-306.006383
 20
-256.305651
 10
-306.190816
 20
-256.420905
 10
-306.38732
 20
-256.540792
 10
-306.595444
 20
-256.664213
 10
-306.814739
 20
-256.790065
 10
-307.044757
 20
-256.917246
 10
-307.285047
 20
-257.044656
 10
-307.53516
 20
-257.171192
 10
-307.794647
 20
-257.295753
 10
-308.063059
 20
-257.417238
 10
-308.339947
 20
-257.534545
 10
-308.624861
 20
-257.646573
 10
-308.917351
 20
-257.752219
 10
-309.216969
 20
-257.850383
 10
-309.523266
 20
-257.939963
 10
-309.835791
 20
-258.019857
 10
-310.154096
 20
-258.088965
 10
-310.477732
 20
-258.146183
 10
-310.806202
 20
-258.19062
 10
-311.138823
 20
-258.222221
 10
-311.474867
 20
-258.241138
 10
-311.813604
 20
-258.247526
 10
-312.154304
 20
-258.241537
 10
-312.496239
 20
-258.223326
 10
-312.838678
 20
-258.193045
 10
-313.180892
 20
-258.150848
 10
-313.522152
 20
-258.09689
 10
-313.861729
 20
-258.031322
 10
-314.198892
 20
-257.954299
 10
-314.532913
 20
-257.865975
 10
-314.863063
 20
-257.766502
 10
-315.188611
 20
-257.656034
 10
-315.508829
 20
-257.534725
 10
-315.822987
 20
-257.402729
 10
-316.130355
 20
-257.260198
 10
-316.430204
 20
-257.107286
 10
-316.721806
 20
-256.944147
 10
-317.00443
 20
-256.770934
 10
-317.277473
 20
-256.587973
 10
-317.540843
 20
-256.396282
 10
-317.794573
 20
-256.197049
 10
-318.038696
 20
-255.991465
 10
-318.273244
 20
-255.780718
 10
-318.498252
 20
-255.565999
 10
-318.713753
 20
-255.348496
 10
-318.91978
 20
-255.1294
 10
-319.116367
 20
-254.909899
 10
-319.303546
 20
-254.691184
 10
-319.481351
 20
-254.474444
 10
-319.649815
 20
-254.260868
 10
-319.808971
 20
-254.051646
 10
-319.958854
 20
-253.847968
 10
-320.099496
 20
-253.651023
 10
-320.23093
 20
-253.462
 10
-320.35319
 20
-253.282089
 10
-320.466309
 20
-253.112479
 10
-320.57032
 20
-252.954361
 10
-321.267995
 20
-251.88425
 10
-321.268064
 20
-251.884145
 10
-321.268542
 20
-251.883412
 10
-321.269839
 20
-251.881421
 10
-321.272366
 20
-251.877545
 10
-321.276533
 20
-251.871153
 10
-321.282748
 20
-251.861619
 10
-321.291422
 20
-251.848313
 10
-321.302965
 20
-251.830606
 10
-321.317786
 20
-251.80787
 10
-321.336295
 20
-251.779476
 10
-321.358902
 20
-251.744795
 10
-321.386017
 20
-251.7032
 10
-321.418049
 20
-251.654061
 10
-321.455409
 20
-251.596749
 10
-321.498506
 20
-251.530636
 10
-321.54775
 20
-251.455094
 10
-321.603551
 20
-251.369493
 10
-321.666318
 20
-251.273206
 10
-321.736461
 20
-251.165602
 10
-321.814391
 20
-251.046055
 10
-321.900312
 20
-250.914248
 10
-321.993609
 20
-250.771127
 10
-322.093463
 20
-250.617946
 10
-322.199054
 20
-250.455965
 10
-322.309562
 20
-250.28644
 10
-322.424169
 20
-250.110628
 10
-322.542054
 20
-249.929788
 10
-322.662397
 20
-249.745175
 10
-322.78438
 20
-249.558048
 10
-322.907183
 20
-249.369664
 10
-323.029985
 20
-249.181279
 10
-323.151968
 20
-248.994152
 10
-323.272312
 20
-248.809539
 10
-323.390197
 20
-248.628699
 10
-323.504803
 20
-248.452887
 10
-323.615312
 20
-248.283362
 10
-323.720903
 20
-248.121381
 10
-323.820757
 20
-247.968201
 10
-323.914054
 20
-247.825079
 10
-323.999974
 20
-247.693273
 10
-324.077904
 20
-247.573725
 10
-324.148048
 20
-247.466122
 10
-324.210815
 20
-247.369834
 10
-324.266616
 20
-247.284233
 10
-324.31586
 20
-247.208691
 10
-324.358957
 20
-247.142578
 10
-324.396316
 20
-247.085267
 10
-324.428349
 20
-247.036127
 10
-324.455464
 20
-246.994532
 10
-324.478071
 20
-246.959852
 10
-324.49658
 20
-246.931458
 10
-324.511401
 20
-246.908722
 10
-324.522944
 20
-246.891015
 10
-324.531618
 20
-246.877708
 10
-324.537833
 20
-246.868174
 10
-324.541999
 20
-246.861783
 10
-324.544526
 20
-246.857906
 10
-324.545824
 20
-246.855915
 10
-324.546302
 20
-246.855182
 10
-324.54637
 20
-246.855077
 10
-325.360797
 20
-246.855945
 10
-325.488951
 20
-246.856047
 10
-325.62861
 20
-246.855954
 10
-325.779065
 20
-246.855457
 10
-325.939603
 20
-246.854348
 10
-326.109516
 20
-246.852418
 10
-326.288092
 20
-246.849459
 10
-326.474619
 20
-246.845264
 10
-326.668389
 20
-246.839623
 10
-326.868689
 20
-246.832327
 10
-327.07481
 20
-246.82317
 10
-327.28604
 20
-246.811942
 10
-327.50167
 20
-246.798434
 10
-327.720987
 20
-246.78244
 10
-327.943282
 20
-246.763749
 10
-328.167844
 20
-246.742155
 10
-328.393962
 20
-246.717448
 10
-328.620926
 20
-246.689419
 10
-328.848024
 20
-246.657862
 10
-329.074547
 20
-246.622567
 10
-329.299783
 20
-246.583326
 10
-329.523117
 20
-246.539965
 10
-329.744315
 20
-246.492446
 10
-329.963238
 20
-246.440768
 10
-330.179747
 20
-246.384926
 10
-330.393703
 20
-246.324918
 10
-330.604968
 20
-246.260742
 10
-330.813402
 20
-246.192394
 10
-331.018867
 20
-246.119871
 10
-331.221223
 20
-246.043171
 10
-331.420332
 20
-245.962291
 10
-331.616055
 20
-245.877227
 10
-331.808253
 20
-245.787977
 10
-331.996787
 20
-245.694538
 10
-332.181518
 20
-245.596908
 10
-332.362307
 20
-245.495082
 10
-332.539016
 20
-245.389059
 10
-332.711505
 20
-245.278835
 10
-332.879636
 20
-245.164408
 10
-333.04327
 20
-245.045775
 10
-333.202267
 20
-244.922932
 10
-333.356507
 20
-244.795983
 10
-333.505939
 20
-244.66545
 10
-333.650528
 20
-244.531961
 10
-333.790242
 20
-244.396145
 10
-333.925047
 20
-244.258631
 10
-334.05491
 20
-244.120045
 10
-334.179797
 20
-243.981017
 10
-334.299675
 20
-243.842175
 10
-334.41451
 20
-243.704147
 10
-334.524269
 20
-243.567561
 10
-334.628918
 20
-243.433047
 10
-334.728425
 20
-243.301231
 10
-334.822754
 20
-243.172742
 10
-334.911874
 20
-243.048209
 10
-334.995751
 20
-242.928259
 10
-335.07435
 20
-242.813522
 10
-335.14764
 20
-242.704625
 10
-335.215585
 20
-242.602197
 10
-335.278153
 20
-242.506865
 10
-335.698252
 20
-241.862363
 10
-336.061235
 20
-241.305592
 10
-336.118311
 20
-241.217948
 10
-336.180271
 20
-241.122236
 10
-336.246553
 20
-241.018741
 10
-336.316596
 20
-240.907747
 10
-336.389839
 20
-240.789538
 10
-336.465721
 20
-240.664397
 10
-336.543681
 20
-240.53261
 10
-336.623157
 20
-240.39446
 10
-336.703589
 20
-240.250231
 10
-336.784414
 20
-240.100208
 10
-336.865073
 20
-239.944674
 10
-336.945003
 20
-239.783914
 10
-337.023644
 20
-239.618212
 10
-337.100434
 20
-239.447851
 10
-337.174812
 20
-239.273117
 10
-337.246217
 20
-239.094292
 10
-337.314088
 20
-238.911662
 10
-337.377863
 20
-238.72551
 10
-337.436982
 20
-238.536121
 10
-337.490884
 20
-238.343778
 10
-337.539109
 20
-238.148739
 10
-337.581614
 20
-237.951157
 10
-337.618457
 20
-237.751157
 10
-337.649697
 20
-237.548866
 10
-337.675392
 20
-237.344409
 10
-337.695601
 20
-237.137912
 10
-337.710382
 20
-236.929501
 10
-337.719794
 20
-236.719302
 10
-337.723895
 20
-236.507441
 10
-337.722744
 20
-236.294044
 10
-337.7164
 20
-236.079237
 10
-337.70492
 20
-235.863145
 10
-337.688364
 20
-235.645894
 10
-337.66679
 20
-235.427611
 10
-337.640256
 20
-235.208421
 10
-337.608821
 20
-234.988451
 10
-337.572544
 20
-234.767825
 10
-337.531483
 20
-234.546671
 10
-337.485697
 20
-234.325113
 10
-337.435244
 20
-234.103278
 10
-337.380252
 20
-233.881365
 10
-337.32113
 20
-233.659867
 10
-337.258354
 20
-233.439351
 10
-337.192403
 20
-233.220381
 10
-337.123754
 20
-233.003525
 10
-337.052884
 20
-232.789348
 10
-336.980271
 20
-232.578418
 10
-336.906393
 20
-232.371299
 10
-336.831726
 20
-232.168558
 10
-336.756749
 20
-231.970761
 10
-336.68194
 20
-231.778475
 10
-336.607775
 20
-231.592266
 10
-336.534732
 20
-231.412699
 10
-336.463289
 20
-231.240342
 10
-336.393923
 20
-231.07576
 10
-336.327112
 20
-230.919518
 10
-336.263333
 20
-230.772185
 10
-336.203064
 20
-230.634325
 10
-336.146782
 20
-230.506505
 10
-335.765467
 20
-229.644476
 10
-335.765571
 20
-229.644316
 10
-335.766302
 20
-229.643195
 10
-335.768286
 20
-229.640151
 10
-335.77215
 20
-229.634224
 10
-335.778519
 20
-229.624452
 10
-335.788022
 20
-229.609874
 10
-335.801284
 20
-229.589529
 10
-335.818931
 20
-229.562455
 10
-335.841591
 20
-229.527693
 10
-335.86989
 20
-229.484279
 10
-335.904454
 20
-229.431254
 10
-335.94591
 20
-229.367655
 10
-335.994884
 20
-229.292523
 10
-336.052004
 20
-229.204895
 10
-336.117894
 20
-229.10381
 10
-336.193183
 20
-228.988308
 10
-336.278497
 20
-228.857427
 10
-336.374462
 20
-228.710205
 10
-336.481704
 20
-228.545683
 10
-336.600851
 20
-228.362898
 10
-336.732215
 20
-228.161369
 10
-336.874857
 20
-227.94254
 10
-337.027524
 20
-227.708331
 10
-337.188962
 20
-227.460666
 10
-337.357918
 20
-227.201467
 10
-337.53314
 20
-226.932655
 10
-337.713375
 20
-226.656155
 10
-337.897368
 20
-226.373887
 10
-338.083868
 20
-226.087775
 10
-338.27162
 20
-225.79974
 10
-338.459373
 20
-225.511705
 10
-338.645873
 20
-225.225592
 10
-338.829866
 20
-224.943325
 10
-339.0101
 20
-224.666824
 10
-339.185322
 20
-224.398013
 10
-339.354279
 20
-224.138813
 10
-339.515717
 20
-223.891148
 10
-339.668383
 20
-223.65694
 10
-339.811025
 20
-223.43811
 10
-339.94239
 20
-223.236582
 10
-340.061536
 20
-223.053797
 10
-340.168779
 20
-222.889274
 10
-340.264744
 20
-222.742053
 10
-340.350057
 20
-222.611171
 10
-340.425346
 20
-222.495669
 10
-340.491237
 20
-222.394585
 10
-340.548357
 20
-222.306957
 10
-340.597331
 20
-222.231824
 10
-340.638787
 20
-222.168226
 10
-340.673351
 20
-222.1152
 10
-340.70165
 20
-222.071787
 10
-340.724309
 20
-222.037024
 10
-340.741957
 20
-222.009951
 10
-340.755219
 20
-221.989606
 10
-340.764721
 20
-221.975028
 10
-340.771091
 20
-221.965256
 10
-340.774955
 20
-221.959328
 10
-340.776939
 20
-221.956285
 10
-340.77767
 20
-221.955163
 10
-340.777774
 20
-221.955003
 10
-341.380513
 20
-221.030289
 10
-341.47526
 20
-220.884721
 10
-341.577947
 20
-220.725733
 10
-341.687472
 20
-220.553773
 10
-341.802734
 20
-220.369293
 10
-341.922629
 20
-220.172741
 10
-342.046058
 20
-219.964567
 10
-342.171918
 20
-219.745223
 10
-342.299108
 20
-219.515156
 10
-342.426525
 20
-219.274817
 10
-342.55307
 20
-219.024657
 10
-342.677639
 20
-218.765124
 10
-342.799131
 20
-218.496669
 10
-342.916444
 20
-218.219741
 10
-343.028478
 20
-217.934791
 10
-343.13413
 20
-217.642268
 10
-343.232299
 20
-217.342622
 10
-343.321882
 20
-217.036303
 10
-343.401779
 20
-216.723761
 10
-343.470888
 20
-216.405445
 10
-343.528107
 20
-216.081806
 10
-343.572544
 20
-215.75334
 10
-343.604143
 20
-215.420728
 10
-343.623057
 20
-215.084701
 10
-343.629441
 20
-214.745986
 10
-343.623448
 20
-214.405313
 10
-343.605232
 20
-214.063411
 10
-343.574946
 20
-213.721007
 10
-343.532743
 20
-213.378831
 10
-343.478779
 20
-213.037612
 10
-343.413205
 20
-212.698078
 10
-343.336176
 20
-212.360958
 10
-343.247845
 20
-212.026981
 10
-343.148367
 20
-211.696876
 10
-343.037894
 20
-211.371372
 10
-342.91658
 20
-211.051197
 10
-342.784579
 20
-210.73708
 10
-342.642044
 20
-210.42975
 10
-342.48913
 20
-210.129936
 10
-342.325989
 20
-209.838366
 10
-342.152775
 20
-209.555769
 10
-341.969815
 20
-209.282748
 10
-341.778126
 20
-209.019396
 10
-341.578896
 20
-208.765679
 10
-341.373315
 20
-208.521566
 10
-341.162573
 20
-208.287023
 10
-340.947859
 20
-208.062017
 10
-340.730362
 20
-207.846515
 10
-340.511273
 20
-207.640485
 10
-340.29178
 20
-207.443892
 10
-340.073072
 20
-207.256705
 10
-339.85634
 20
-207.07889
 10
-339.642772
 20
-206.910414
 10
-339.433559
 20
-206.751244
 10
-339.229888
 20
-206.601348
 10
-339.032951
 20
-206.460692
 10
-338.843936
 20
-206.329243
 10
-338.664033
 20
-206.206968
 10
-338.494431
 20
-206.093834
 10
-338.33632
 20
-205.989809
 10
-337.266257
 20
-205.292038
  0
LWPOLYLINE
  5
2B
330
1F
100
AcDbEntity
  8
0
100
AcDbPolyline
 90
      365
 70
   128
 43
0.0
 10
-238.785034
 20
-56.814567
 10
-238.240209
 20
-56.836847
 10
-238.15448
 20
-56.840381
 10
-238.06107
 20
-56.844399
 10
-237.960466
 20
-56.849047
 10
-237.853159
 20
-56.854477
 10
-237.739639
 20
-56.860836
 10
-237.620396
 20
-56.868273
 10
-237.495919
 20
-56.876938
 10
-237.366698
 20
-56.886978
 10
-237.233223
 20
-56.898543
 10
-237.095983
 20
-56.911782
 10
-236.955469
 20
-56.926842
 10
-236.812171
 20
-56.943875
 10
-236.666577
 20
-56.963027
 10
-236.519178
 20
-56.984447
 10
-236.370464
 20
-57.008286
 10
-236.220924
 20
-57.034691
 10
-236.071049
 20
-57.063811
 10
-235.921327
 20
-57.095795
 10
-235.772249
 20
-57.130792
 10
-235.624305
 20
-57.168951
 10
-235.477944
 20
-57.210372
 10
-235.333462
 20
-57.25496
 10
-235.191112
 20
-57.302574
 10
-235.05115
 20
-57.353072
 10
-234.91383
 20
-57.406309
 10
-234.779407
 20
-57.462145
 10
-234.648135
 20
-57.520437
 10
-234.520269
 20
-57.581041
 10
-234.396064
 20
-57.643816
 10
-234.275775
 20
-57.708619
 10
-234.159656
 20
-57.775308
 10
-234.047961
 20
-57.84374
 10
-233.940947
 20
-57.913772
 10
-233.838866
 20
-57.985263
 10
-233.741975
 20
-58.058069
 10
-233.650527
 20
-58.132048
 10
-233.564777
 20
-58.207058
 10
-233.484981
 20
-58.282956
 10
-233.411392
 20
-58.3596
 10
-233.344266
 20
-58.436847
 10
-233.283757
 20
-58.514541
 10
-233.22962
 20
-58.592467
 10
-233.181513
 20
-58.670396
 10
-233.139089
 20
-58.748102
 10
-233.102006
 20
-58.825355
 10
-233.069919
 20
-58.901928
 10
-233.042483
 20
-58.977591
 10
-233.019354
 20
-59.052117
 10
-233.000189
 20
-59.125277
 10
-232.984642
 20
-59.196843
 10
-232.97237
 20
-59.266587
 10
-232.963028
 20
-59.33428
 10
-232.956272
 20
-59.399694
 10
-232.951758
 20
-59.462601
 10
-232.949141
 20
-59.522772
 10
-232.948077
 20
-59.579979
 10
-232.948223
 20
-59.633994
 10
-232.949233
 20
-59.684589
 10
-232.950764
 20
-59.731535
 10
-232.963674
 20
-60.048297
 10
-232.963688
 20
-60.048645
 10
-232.963787
 20
-60.05108
 10
-232.964058
 20
-60.057688
 10
-232.964584
 20
-60.070558
 10
-232.965452
 20
-60.091775
 10
-232.966746
 20
-60.123426
 10
-232.968553
 20
-60.167599
 10
-232.970957
 20
-60.22638
 10
-232.974044
 20
-60.301856
 10
-232.977899
 20
-60.396114
 10
-232.982607
 20
-60.511242
 10
-232.988255
 20
-60.649325
 10
-232.994926
 20
-60.812451
 10
-233.002707
 20
-61.002707
 10
-233.011684
 20
-61.222179
 10
-233.02194
 20
-61.472955
 10
-233.033562
 20
-61.757122
 10
-233.046635
 20
-62.076765
 10
-233.061244
 20
-62.433973
 10
-233.077475
 20
-62.830832
 10
-233.09537
 20
-63.268386
 10
-233.114802
 20
-63.743503
 10
-233.135599
 20
-64.252012
 10
-233.157591
 20
-64.789736
 10
-233.180608
 20
-65.352504
 10
-233.204477
 20
-65.936141
 10
-233.22903
 20
-66.536473
 10
-233.254095
 20
-67.149326
 10
-233.279501
 20
-67.770527
 10
-233.305078
 20
-68.395901
 10
-233.330655
 20
-69.021276
 10
-233.356061
 20
-69.642477
 10
-233.381126
 20
-70.25533
 10
-233.405678
 20
-70.855662
 10
-233.429548
 20
-71.439299
 10
-233.452565
 20
-72.002066
 10
-233.474557
 20
-72.539791
 10
-233.495354
 20
-73.048299
 10
-233.514786
 20
-73.523417
 10
-233.532681
 20
-73.960971
 10
-233.548912
 20
-74.35783
 10
-233.563521
 20
-74.715037
 10
-233.576594
 20
-75.034681
 10
-233.588216
 20
-75.318847
 10
-233.598472
 20
-75.569623
 10
-233.607448
 20
-75.789096
 10
-233.61523
 20
-75.979352
 10
-233.621901
 20
-76.142478
 10
-233.627549
 20
-76.280561
 10
-233.632257
 20
-76.395688
 10
-233.636112
 20
-76.489947
 10
-233.639199
 20
-76.565423
 10
-233.641603
 20
-76.624204
 10
-233.64341
 20
-76.668377
 10
-233.644704
 20
-76.700028
 10
-233.645572
 20
-76.721245
 10
-233.646098
 20
-76.734114
 10
-233.646368
 20
-76.740723
 10
-233.646468
 20
-76.743157
 10
-233.646482
 20
-76.743505
 10
-233.657685
 20
-77.017158
 10
-233.659503
 20
-77.060216
 10
-233.661814
 20
-77.107122
 10
-233.664942
 20
-77.157623
 10
-233.669211
 20
-77.211461
 10
-233.674946
 20
-77.268382
 10
-233.682472
 20
-77.32813
 10
-233.692112
 20
-77.390449
 10
-233.704191
 20
-77.455084
 10
-233.719034
 20
-77.521779
 10
-233.736964
 20
-77.590278
 10
-233.758308
 20
-77.660326
 10
-233.783388
 20
-77.731668
 10
-233.81253
 20
-77.804047
 10
-233.846057
 20
-77.877209
 10
-233.884295
 20
-77.950897
 10
-233.927567
 20
-78.024856
 10
-233.976199
 20
-78.09883
 10
-234.030514
 20
-78.172564
 10
-234.090838
 20
-78.245802
 10
-234.157493
 20
-78.318289
 10
-234.230708
 20
-78.389792
 10
-234.310314
 20
-78.460166
 10
-234.396046
 20
-78.52929
 10
-234.487639
 20
-78.597044
 10
-234.584826
 20
-78.663306
 10
-234.687344
 20
-78.727955
 10
-234.794926
 20
-78.790869
 10
-234.907306
 20
-78.851927
 10
-235.02422
 20
-78.911009
 10
-235.145402
 20
-78.967992
 10
-235.270587
 20
-79.022756
 10
-235.399508
 20
-79.075179
 10
-235.531901
 20
-79.12514
 10
-235.6675
 20
-79.172517
 10
-235.80604
 20
-79.21719
 10
-235.947255
 20
-79.259038
 10
-236.09088
 20
-79.297938
 10
-236.236649
 20
-79.33377
 10
-236.384297
 20
-79.366413
 10
-236.533559
 20
-79.395745
 10
-236.684133
 20
-79.421696
 10
-236.83558
 20
-79.444404
 10
-236.987422
 20
-79.464056
 10
-237.139184
 20
-79.480841
 10
-237.29039
 20
-79.494948
 10
-237.440564
 20
-79.506564
 10
-237.58923
 20
-79.515877
 10
-237.735911
 20
-79.523077
 10
-237.880132
 20
-79.528352
 10
-238.021416
 20
-79.531889
 10
-238.159288
 20
-79.533877
 10
-238.293271
 20
-79.534505
 10
-238.42289
 20
-79.53396
 10
-238.547668
 20
-79.532432
 10
-238.667129
 20
-79.530108
 10
-238.780798
 20
-79.527176
 10
-238.888197
 20
-79.523826
 10
-238.988852
 20
-79.520244
 10
-239.082286
 20
-79.51662
 10
-239.71289
 20
-79.490862
 10
-240.257797
 20
-79.468581
 10
-240.343539
 20
-79.465047
 10
-240.436964
 20
-79.46103
 10
-240.537583
 20
-79.456383
 10
-240.644905
 20
-79.450956
 10
-240.758442
 20
-79.4446
 10
-240.877703
 20
-79.437169
 10
-241.002198
 20
-79.428512
 10
-241.131437
 20
-79.418482
 10
-241.26493
 20
-79.406931
 10
-241.402188
 20
-79.393709
 10
-241.542721
 20
-79.378669
 10
-241.686038
 20
-79.361661
 10
-241.83165
 20
-79.342538
 10
-241.979066
 20
-79.321151
 10
-242.127798
 20
-79.297352
 10
-242.277355
 20
-79.270992
 10
-242.427246
 20
-79.241922
 10
-242.576983
 20
-79.209995
 10
-242.726075
 20
-79.175062
 10
-242.874032
 20
-79.136974
 10
-243.020404
 20
-79.095631
 10
-243.164897
 20
-79.051126
 10
-243.307256
 20
-79.003602
 10
-243.447227
 20
-78.953198
 10
-243.584554
 20
-78.900057
 10
-243.718984
 20
-78.844319
 10
-243.850262
 20
-78.786127
 10
-243.978133
 20
-78.725622
 10
-244.102342
 20
-78.662944
 10
-244.222634
 20
-78.598235
 10
-244.338756
 20
-78.531638
 10
-244.450453
 20
-78.463292
 10
-244.557469
 20
-78.39334
 10
-244.659551
 20
-78.321922
 10
-244.756444
 20
-78.249181
 10
-244.847892
 20
-78.175257
 10
-244.933642
 20
-78.100293
 10
-245.013439
 20
-78.024428
 10
-245.087028
 20
-77.947805
 10
-245.154154
 20
-77.870565
 10
-245.214663
 20
-77.792865
 10
-245.268799
 20
-77.714918
 10
-245.316907
 20
-77.636954
 10
-245.35933
 20
-77.559203
 10
-245.396414
 20
-77.481895
 10
-245.428501
 20
-77.405257
 10
-245.455937
 20
-77.329521
 10
-245.479065
 20
-77.254915
 10
-245.498231
 20
-77.181669
 10
-245.513778
 20
-77.110012
 10
-245.52605
 20
-77.040173
 10
-245.535392
 20
-76.972383
 10
-245.542148
 20
-76.90687
 10
-245.546662
 20
-76.843864
 10
-245.549279
 20
-76.783595
 10
-245.550342
 20
-76.726291
 10
-245.550197
 20
-76.672182
 10
-245.549186
 20
-76.621498
 10
-245.547655
 20
-76.574468
 10
-245.534746
 20
-76.257131
 10
-245.534732
 20
-76.256783
 10
-245.534632
 20
-76.254349
 10
-245.534362
 20
-76.24774
 10
-245.533836
 20
-76.234871
 10
-245.532968
 20
-76.213654
 10
-245.531673
 20
-76.182003
 10
-245.529867
 20
-76.13783
 10
-245.527463
 20
-76.079049
 10
-245.524376
 20
-76.003573
 10
-245.520521
 20
-75.909314
 10
-245.515812
 20
-75.794187
 10
-245.510165
 20
-75.656104
 10
-245.503493
 20
-75.492977
 10
-245.495712
 20
-75.302722
 10
-245.486736
 20
-75.083249
 10
-245.47648
 20
-74.832473
 10
-245.464858
 20
-74.548307
 10
-245.451785
 20
-74.228663
 10
-245.437176
 20
-73.871455
 10
-245.420945
 20
-73.474596
 10
-245.403049
 20
-73.037043
 10
-245.383618
 20
-72.561925
 10
-245.36282
 20
-72.053417
 10
-245.340828
 20
-71.515692
 10
-245.317812
 20
-70.952924
 10
-245.293942
 20
-70.369288
 10
-245.269389
 20
-69.768956
 10
-245.244325
 20
-69.156103
 10
-245.218919
 20
-68.534902
 10
-245.193342
 20
-67.909527
 10
-245.167765
 20
-67.284153
 10
-245.142359
 20
-66.662952
 10
-245.117294
 20
-66.050098
 10
-245.092741
 20
-65.449767
 10
-245.068871
 20
-64.86613
 10
-245.045855
 20
-64.303362
 10
-245.023863
 20
-63.765637
 10
-245.003066
 20
-63.257129
 10
-244.983634
 20
-62.782011
 10
-244.965739
 20
-62.344458
 10
-244.949508
 20
-61.947599
 10
-244.934899
 20
-61.590391
 10
-244.921826
 20
-61.270747
 10
-244.910204
 20
-60.986581
 10
-244.899947
 20
-60.735805
 10
-244.890971
 20
-60.516333
 10
-244.88319
 20
-60.326077
 10
-244.876518
 20
-60.162951
 10
-244.870871
 20
-60.024867
 10
-244.866162
 20
-59.90974
 10
-244.862307
 20
-59.815482
 10
-244.859221
 20
-59.740006
 10
-244.856817
 20
-59.681224
 10
-244.85501
 20
-59.637052
 10
-244.853715
 20
-59.6054
 10
-244.852848
 20
-59.584184
 10
-244.852321
 20
-59.571314
 10
-244.852051
 20
-59.564706
 10
-244.851952
 20
-59.562271
 10
-244.851937
 20
-59.561923
 10
-244.840735
 20
-59.287775
 10
-244.838916
 20
-59.244639
 10
-244.836605
 20
-59.197648
 10
-244.833478
 20
-59.147058
 10
-244.829208
 20
-59.093126
 10
-244.823473
 20
-59.036108
 10
-244.815948
 20
-58.976262
 10
-244.806308
 20
-58.913844
 10
-244.794229
 20
-58.84911
 10
-244.779386
 20
-58.782318
 10
-244.761455
 20
-58.713724
 10
-244.740112
 20
-58.643585
 10
-244.715032
 20
-58.572157
 10
-244.68589
 20
-58.499698
 10
-244.652362
 20
-58.426463
 10
-244.614125
 20
-58.35271
 10
-244.570852
 20
-58.278696
 10
-244.522221
 20
-58.204676
 10
-244.467905
 20
-58.130909
 10
-244.407582
 20
-58.057649
 10
-244.340926
 20
-57.985155
 10
-244.267712
 20
-57.91366
 10
-244.188106
 20
-57.843307
 10
-244.102373
 20
-57.774216
 10
-244.01078
 20
-57.706507
 10
-243.913592
 20
-57.640301
 10
-243.811073
 20
-57.575717
 10
-243.70349
 20
-57.512876
 10
-243.591108
 20
-57.451898
 10
-243.474192
 20
-57.392903
 10
-243.353007
 20
-57.33601
 10
-243.227819
 20
-57.281341
 10
-243.098894
 20
-57.229016
 10
-242.966496
 20
-57.179153
 10
-242.830891
 20
-57.131875
 10
-242.692345
 20
-57.0873
 10
-242.551122
 20
-57.045549
 10
-242.407489
 20
-57.006742
 10
-242.26171
 20
-56.971
 10
-242.114051
 20
-56.938442
 10
-241.964778
 20
-56.909188
 10
-241.814191
 20
-56.883307
 10
-241.66273
 20
-56.860663
 10
-241.510873
 20
-56.841068
 10
-241.359094
 20
-56.824333
 10
-241.207872
 20
-56.810271
 10
-241.05768
 20
-56.798695
 10
-240.908997
 20
-56.789415
 10
-240.762298
 20
-56.782244
 10
-240.618059
 20
-56.776994
 10
-240.476756
 20
-56.773477
 10
-240.338865
 20
-56.771506
 10
-240.204864
 20
-56.770892
 10
-240.075227
 20
-56.771447
 10
-239.950431
 20
-56.772983
 10
-239.830952
 20
-56.775313
 10
-239.717267
 20
-56.778248
 10
-239.609851
 20
-56.781601
 10
-239.509181
 20
-56.785184
 10
-239.415733
 20
-56.788808
 10
-238.785034
 20
-56.814567
  0
LWPOLYLINE
  5
2C
330
1F
100
AcDbEntity
  8
0
100
AcDbPolyline
 90
      365
 70
   128
 43
0.0
 10
-215.741664
 20
-58.286586
 10
-215.196756
 20
-58.308867
 10
-215.111015
 20
-58.312401
 10
-215.01759
 20
-58.316418
 10
-214.916971
 20
-58.321067
 10
-214.809648
 20
-58.326497
 10
-214.696112
 20
-58.332856
 10
-214.576851
 20
-58.340293
 10
-214.452356
 20
-58.348957
 10
-214.323117
 20
-58.358998
 10
-214.189623
 20
-58.370563
 10
-214.052365
 20
-58.383801
 10
-213.911833
 20
-58.398862
 10
-213.768516
 20
-58.415894
 10
-213.622904
 20
-58.435046
 10
-213.475487
 20
-58.456467
 10
-213.326756
 20
-58.480306
 10
-213.177199
 20
-58.50671
 10
-213.027307
 20
-58.535831
 10
-212.877571
 20
-58.567815
 10
-212.728479
 20
-58.602812
 10
-212.580521
 20
-58.640971
 10
-212.434149
 20
-58.682391
 10
-212.289656
 20
-58.72698
 10
-212.147297
 20
-58.774594
 10
-212.007327
 20
-58.825091
 10
-211.869999
 20
-58.878328
 10
-211.735569
 20
-58.934164
 10
-211.604292
 20
-58.992454
 10
-211.476421
 20
-59.053058
 10
-211.352212
 20
-59.115832
 10
-211.231919
 20
-59.180634
 10
-211.115797
 20
-59.247321
 10
-211.004101
 20
-59.31575
 10
-210.897084
 20
-59.38578
 10
-210.795002
 20
-59.457268
 10
-210.69811
 20
-59.530071
 10
-210.606661
 20
-59.604047
 10
-210.520911
 20
-59.679052
 10
-210.441115
 20
-59.754946
 10
-210.367526
 20
-59.831584
 10
-210.3004
 20
-59.908826
 10
-210.23989
 20
-59.986512
 10
-210.185754
 20
-60.064431
 10
-210.137647
 20
-60.142354
 10
-210.095223
 20
-60.220051
 10
-210.05814
 20
-60.297296
 10
-210.026053
 20
-60.37386
 10
-209.998617
 20
-60.449514
 10
-209.975488
 20
-60.524031
 10
-209.956323
 20
-60.597182
 10
-209.940776
 20
-60.668739
 10
-209.928504
 20
-60.738473
 10
-209.919162
 20
-60.806157
 10
-209.912406
 20
-60.871562
 10
-209.907892
 20
-60.93446
 10
-209.905275
 20
-60.994622
 10
-209.904211
 20
-61.051821
 10
-209.904357
 20
-61.105828
 10
-209.905367
 20
-61.156415
 10
-209.906898
 20
-61.203354
 10
-209.919807
 20
-61.520069
 10
-209.919822
 20
-61.520417
 10
-209.919921
 20
-61.522852
 10
-209.920192
 20
-61.52946
 10
-209.920718
 20
-61.54233
 10
-209.921586
 20
-61.563547
 10
-209.92288
 20
-61.595199
 10
-209.924687
 20
-61.639372
 10
-209.927091
 20
-61.698154
 10
-209.930178
 20
-61.773631
 10
-209.934033
 20
-61.867891
 10
-209.938741
 20
-61.98302
 10
-209.944389
 20
-62.121105
 10
-209.95106
 20
-62.284234
 10
-209.958841
 20
-62.474493
 10
-209.967817
 20
-62.693968
 10
-209.978074
 20
-62.944748
 10
-209.989696
 20
-63.228919
 10
-210.002769
 20
-63.548567
 10
-210.017378
 20
-63.90578
 10
-210.033609
 20
-64.302645
 10
-210.051504
 20
-64.740205
 10
-210.070936
 20
-65.21533
 10
-210.091733
 20
-65.723846
 10
-210.113725
 20
-66.261578
 10
-210.136742
 20
-66.824354
 10
-210.160611
 20
-67.408
 10
-210.185164
 20
-68.008341
 10
-210.210229
 20
-68.621203
 10
-210.235635
 20
-69.242413
 10
-210.261212
 20
-69.867797
 10
-210.286789
 20
-70.493181
 10
-210.312195
 20
-71.114391
 10
-210.33726
 20
-71.727253
 10
-210.361812
 20
-72.327594
 10
-210.385682
 20
-72.911239
 10
-210.408699
 20
-73.474015
 10
-210.430691
 20
-74.011748
 10
-210.451488
 20
-74.520264
 10
-210.47092
 20
-74.995389
 10
-210.488815
 20
-75.432949
 10
-210.505046
 20
-75.829814
 10
-210.519655
 20
-76.187027
 10
-210.532728
 20
-76.506675
 10
-210.54435
 20
-76.790846
 10
-210.554606
 20
-77.041626
 10
-210.563582
 20
-77.261101
 10
-210.571364
 20
-77.45136
 10
-210.578035
 20
-77.614488
 10
-210.583683
 20
-77.752574
 10
-210.588391
 20
-77.867703
 10
-210.592246
 20
-77.961963
 10
-210.595333
 20
-78.03744
 10
-210.597737
 20
-78.096222
 10
-210.599544
 20
-78.140395
 10
-210.600838
 20
-78.172047
 10
-210.601706
 20
-78.193264
 10
-210.602232
 20
-78.206134
 10
-210.602502
 20
-78.212742
 10
-210.602602
 20
-78.215177
 10
-210.602616
 20
-78.215525
 10
-210.613819
 20
-78.489177
 10
-210.615637
 20
-78.532235
 10
-210.617948
 20
-78.579142
 10
-210.621076
 20
-78.629643
 10
-210.625345
 20
-78.683481
 10
-210.63108
 20
-78.740402
 10
-210.638605
 20
-78.80015
 10
-210.648246
 20
-78.862469
 10
-210.660325
 20
-78.927104
 10
-210.675167
 20
-78.993799
 10
-210.693098
 20
-79.062298
 10
-210.714442
 20
-79.132346
 10
-210.739522
 20
-79.203688
 10
-210.768664
 20
-79.276067
 10
-210.802191
 20
-79.349228
 10
-210.840429
 20
-79.422916
 10
-210.883701
 20
-79.496875
 10
-210.932333
 20
-79.57085
 10
-210.986648
 20
-79.644584
 10
-211.046972
 20
-79.717822
 10
-211.113627
 20
-79.790309
 10
-211.186842
 20
-79.861811
 10
-211.266448
 20
-79.932185
 10
-211.35218
 20
-80.00131
 10
-211.443772
 20
-80.069064
 10
-211.54096
 20
-80.135326
 10
-211.643478
 20
-80.199974
 10
-211.75106
 20
-80.262889
 10
-211.86344
 20
-80.323947
 10
-211.980354
 20
-80.383029
 10
-212.101536
 20
-80.440012
 10
-212.22672
 20
-80.494775
 10
-212.355642
 20
-80.547198
 10
-212.488035
 20
-80.597159
 10
-212.623634
 20
-80.644537
 10
-212.762174
 20
-80.68921
 10
-212.903389
 20
-80.731058
 10
-213.047014
 20
-80.769958
 10
-213.192783
 20
-80.80579
 10
-213.340431
 20
-80.838433
 10
-213.489693
 20
-80.867764
 10
-213.640267
 20
-80.893716
 10
-213.791714
 20
-80.916424
 10
-213.943556
 20
-80.936076
 10
-214.095318
 20
-80.952861
 10
-214.246524
 20
-80.966967
 10
-214.396698
 20
-80.978583
 10
-214.545364
 20
-80.987897
 10
-214.692045
 20
-80.995097
 10
-214.836265
 20
-81.000371
 10
-214.97755
 20
-81.003909
 10
-215.115422
 20
-81.005897
 10
-215.249405
 20
-81.006525
 10
-215.379024
 20
-81.00598
 10
-215.503802
 20
-81.004452
 10
-215.623263
 20
-81.002127
 10
-215.736931
 20
-80.999196
 10
-215.844331
 20
-80.995845
 10
-215.944986
 20
-80.992264
 10
-216.03842
 20
-80.98864
 10
-216.669024
 20
-80.962881
 10
-217.213931
 20
-80.940559
 10
-217.299673
 20
-80.937019
 10
-217.393098
 20
-80.932995
 10
-217.493717
 20
-80.92834
 10
-217.601039
 20
-80.922904
 10
-217.714576
 20
-80.91654
 10
-217.833837
 20
-80.9091
 10
-217.958332
 20
-80.900434
 10
-218.087571
 20
-80.890394
 10
-218.221064
 20
-80.878832
 10
-218.358322
 20
-80.865599
 10
-218.498855
 20
-80.850548
 10
-218.642172
 20
-80.833529
 10
-218.787784
 20
-80.814395
 10
-218.9352
 20
-80.792996
 10
-219.083932
 20
-80.769185
 10
-219.233488
 20
-80.742813
 10
-219.38338
 20
-80.713731
 10
-219.533117
 20
-80.681791
 10
-219.682209
 20
-80.646846
 10
-219.830166
 20
-80.608745
 10
-219.976538
 20
-80.56739
 10
-220.121031
 20
-80.522873
 10
-220.26339
 20
-80.475336
 10
-220.403361
 20
-80.424921
 10
-220.540688
 20
-80.371768
 10
-220.675118
 20
-80.316019
 10
-220.806396
 20
-80.257816
 10
-220.934266
 20
-80.197299
 10
-221.058476
 20
-80.134611
 10
-221.178768
 20
-80.069893
 10
-221.29489
 20
-80.003287
 10
-221.406587
 20
-79.934933
 10
-221.513603
 20
-79.864973
 10
-221.615685
 20
-79.793549
 10
-221.712578
 20
-79.720802
 10
-221.804026
 20
-79.646873
 10
-221.889776
 20
-79.571904
 10
-221.969573
 20
-79.496037
 10
-222.043162
 20
-79.419412
 10
-222.110288
 20
-79.342172
 10
-222.170797
 20
-79.264472
 10
-222.224933
 20
-79.186527
 10
-222.273041
 20
-79.108566
 10
-222.315464
 20
-79.030819
 10
-222.352547
 20
-78.953514
 10
-222.384635
 20
-78.876882
 10
-222.412071
 20
-78.801152
 10
-222.435199
 20
-78.726553
 10
-222.454365
 20
-78.653314
 10
-222.469912
 20
-78.581664
 10
-222.482184
 20
-78.511834
 10
-222.491526
 20
-78.444052
 10
-222.498282
 20
-78.378547
 10
-222.502796
 20
-78.315549
 10
-222.505413
 20
-78.255288
 10
-222.506476
 20
-78.197992
 10
-222.50633
 20
-78.143891
 10
-222.50532
 20
-78.093215
 10
-222.503789
 20
-78.046192
 10
-222.49088
 20
-77.728903
 10
-222.490866
 20
-77.728555
 10
-222.490766
 20
-77.72612
 10
-222.490496
 20
-77.719512
 10
-222.48997
 20
-77.706643
 10
-222.489102
 20
-77.685426
 10
-222.487807
 20
-77.653775
 10
-222.486001
 20
-77.609603
 10
-222.483597
 20
-77.550823
 10
-222.48051
 20
-77.475348
 10
-222.476655
 20
-77.381091
 10
-222.471946
 20
-77.265965
 10
-222.466299
 20
-77.127884
 10
-222.459627
 20
-76.96476
 10
-222.451846
 20
-76.774507
 10
-222.44287
 20
-76.555038
 10
-222.432614
 20
-76.304266
 10
-222.420992
 20
-76.020104
 10
-222.407919
 20
-75.700465
 10
-222.393309
 20
-75.343262
 10
-222.377079
 20
-74.946409
 10
-222.359183
 20
-74.508862
 10
-222.339752
 20
-74.033752
 10
-222.318954
 20
-73.525251
 10
-222.296962
 20
-72.987534
 10
-222.273946
 20
-72.424775
 10
-222.250076
 20
-71.841147
 10
-222.225523
 20
-71.240824
 10
-222.200459
 20
-70.62798
 10
-222.175053
 20
-70.006788
 10
-222.149476
 20
-69.381423
 10
-222.123899
 20
-68.756057
 10
-222.098493
 20
-68.134866
 10
-222.073428
 20
-67.522022
 10
-222.048875
 20
-66.921699
 10
-222.025005
 20
-66.338071
 10
-222.001989
 20
-65.775311
 10
-221.979997
 20
-65.237595
 10
-221.9592
 20
-64.729094
 10
-221.939768
 20
-64.253983
 10
-221.921873
 20
-63.816436
 10
-221.905642
 20
-63.419583
 10
-221.891033
 20
-63.062381
 10
-221.87796
 20
-62.742742
 10
-221.866338
 20
-62.458579
 10
-221.856081
 20
-62.207807
 10
-221.847105
 20
-61.988338
 10
-221.839324
 20
-61.798085
 10
-221.832652
 20
-61.634961
 10
-221.827005
 20
-61.49688
 10
-221.822296
 20
-61.381755
 10
-221.818441
 20
-61.287498
 10
-221.815355
 20
-61.212022
 10
-221.81295
 20
-61.153242
 10
-221.811144
 20
-61.10907
 10
-221.809849
 20
-61.077419
 10
-221.808982
 20
-61.056203
 10
-221.808455
 20
-61.043334
 10
-221.808185
 20
-61.036725
 10
-221.808085
 20
-61.034291
 10
-221.808071
 20
-61.033943
 10
-221.796869
 20
-60.759794
 10
-221.79505
 20
-60.716659
 10
-221.792739
 20
-60.669667
 10
-221.789612
 20
-60.619077
 10
-221.785342
 20
-60.565145
 10
-221.779607
 20
-60.508128
 10
-221.772082
 20
-60.448282
 10
-221.762442
 20
-60.385863
 10
-221.750363
 20
-60.32113
 10
-221.73552
 20
-60.254338
 10
-221.717589
 20
-60.185744
 10
-221.696246
 20
-60.115605
 10
-221.671166
 20
-60.044177
 10
-221.642024
 20
-59.971717
 10
-221.608496
 20
-59.898483
 10
-221.570259
 20
-59.82473
 10
-221.526986
 20
-59.750715
 10
-221.478355
 20
-59.676696
 10
-221.424039
 20
-59.602928
 10
-221.363716
 20
-59.529669
 10
-221.29706
 20
-59.457175
 10
-221.223846
 20
-59.38568
 10
-221.14424
 20
-59.315327
 10
-221.058508
 20
-59.246236
 10
-220.966915
 20
-59.178527
 10
-220.869727
 20
-59.112321
 10
-220.76721
 20
-59.047737
 10
-220.659628
 20
-58.984896
 10
-220.547247
 20
-58.923917
 10
-220.430333
 20
-58.864922
 10
-220.309151
 20
-58.80803
 10
-220.183967
 20
-58.753361
 10
-220.055046
 20
-58.701035
 10
-219.922653
 20
-58.651173
 10
-219.787053
 20
-58.603895
 10
-219.648514
 20
-58.55932
 10
-219.507299
 20
-58.517569
 10
-219.363674
 20
-58.478762
 10
-219.217904
 20
-58.443019
 10
-219.070256
 20
-58.410461
 10
-218.920995
 20
-58.381207
 10
-218.77042
 20
-58.355327
 10
-218.618974
 20
-58.332683
 10
-218.467131
 20
-58.313087
 10
-218.315369
 20
-58.296353
 10
-218.164163
 20
-58.282291
 10
-218.013989
 20
-58.270714
 10
-217.865324
 20
-58.261434
 10
-217.718643
 20
-58.254264
 10
-217.574422
 20
-58.249014
 10
-217.433138
 20
-58.245497
 10
-217.295266
 20
-58.243526
 10
-217.161283
 20
-58.242911
 10
-217.031664
 20
-58.243466
 10
-216.906886
 20
-58.245003
 10
-216.787425
 20
-58.247333
 10
-216.673756
 20
-58.250268
 10
-216.566356
 20
-58.253621
 10
-216.465701
 20
-58.257203
 10
-216.372267
 20
-58.260828
 10
-215.741664
 20
-58.286586
  0
LWPOLYLINE
  5
2D
330
1F
100
AcDbEntity
  8
0
100
AcDbPolyline
 90
      365
 70
   128
 43
0.0
 10
-178.293087
 20
-59.289593
 10
-177.748262
 20
-59.311874
 10
-177.662534
 20
-59.315408
 10
-177.569123
 20
-59.319425
 10
-177.468519
 20
-59.324074
 10
-177.361213
 20
-59.329503
 10
-177.247693
 20
-59.335861
 10
-177.128449
 20
-59.343298
 10
-177.003972
 20
-59.351961
 10
-176.874751
 20
-59.361999
 10
-176.741276
 20
-59.373562
 10
-176.604037
 20
-59.386798
 10
-176.463523
 20
-59.401856
 10
-176.320224
 20
-59.418883
 10
-176.17463
 20
-59.438031
 10
-176.027232
 20
-59.459446
 10
-175.878517
 20
-59.483278
 10
-175.728978
 20
-59.509675
 10
-175.579102
 20
-59.538787
 10
-175.42938
 20
-59.570762
 10
-175.280302
 20
-59.605748
 10
-175.132358
 20
-59.643895
 10
-174.985998
 20
-59.685303
 10
-174.841516
 20
-59.729877
 10
-174.699166
 20
-59.777476
 10
-174.559204
 20
-59.827958
 10
-174.421884
 20
-59.881179
 10
-174.28746
 20
-59.936997
 10
-174.156188
 20
-59.995271
 10
-174.028323
 20
-60.055857
 10
-173.904118
 20
-60.118613
 10
-173.783828
 20
-60.183398
 10
-173.667709
 20
-60.250068
 10
-173.556015
 20
-60.318481
 10
-173.449
 20
-60.388496
 10
-173.34692
 20
-60.459968
 10
-173.250028
 20
-60.532757
 10
-173.15858
 20
-60.60672
 10
-173.072831
 20
-60.681714
 10
-172.993034
 20
-60.757597
 10
-172.919445
 20
-60.834227
 10
-172.852319
 20
-60.911461
 10
-172.79181
 20
-60.989142
 10
-172.737674
 20
-61.067058
 10
-172.689566
 20
-61.144978
 10
-172.647143
 20
-61.222675
 10
-172.61006
 20
-61.299921
 10
-172.577972
 20
-61.376487
 10
-172.550536
 20
-61.452145
 10
-172.527408
 20
-61.526665
 10
-172.508242
 20
-61.599821
 10
-172.492695
 20
-61.671384
 10
-172.480423
 20
-61.741125
 10
-172.471081
 20
-61.808816
 10
-172.464325
 20
-61.874228
 10
-172.459811
 20
-61.937134
 10
-172.457194
 20
-61.997304
 10
-172.456131
 20
-62.05451
 10
-172.456277
 20
-62.108525
 10
-172.457287
 20
-62.15912
 10
-172.458818
 20
-62.206065
 10
-172.471727
 20
-62.522828
 10
-172.471741
 20
-62.523176
 10
-172.471841
 20
-62.525611
 10
-172.472111
 20
-62.532219
 10
-172.472637
 20
-62.545088
 10
-172.473505
 20
-62.566305
 10
-172.4748
 20
-62.597957
 10
-172.476606
 20
-62.642129
 10
-172.47901
 20
-62.70091
 10
-172.482097
 20
-62.776387
 10
-172.485952
 20
-62.870645
 10
-172.490661
 20
-62.985772
 10
-172.496308
 20
-63.123856
 10
-172.50298
 20
-63.286982
 10
-172.510761
 20
-63.477238
 10
-172.519737
 20
-63.69671
 10
-172.529993
 20
-63.947486
 10
-172.541615
 20
-64.231652
 10
-172.554688
 20
-64.551296
 10
-172.569298
 20
-64.908504
 10
-172.585528
 20
-65.305363
 10
-172.603424
 20
-65.742916
 10
-172.622855
 20
-66.218034
 10
-172.643653
 20
-66.726542
 10
-172.665645
 20
-67.264267
 10
-172.688661
 20
-67.827035
 10
-172.712531
 20
-68.410671
 10
-172.737084
 20
-69.011003
 10
-172.762148
 20
-69.623857
 10
-172.787554
 20
-70.245057
 10
-172.813131
 20
-70.870432
 10
-172.838708
 20
-71.495807
 10
-172.864114
 20
-72.117008
 10
-172.889179
 20
-72.729861
 10
-172.913732
 20
-73.330193
 10
-172.937602
 20
-73.913829
 10
-172.960618
 20
-74.476597
 10
-172.98261
 20
-75.014322
 10
-173.003407
 20
-75.52283
 10
-173.022839
 20
-75.997948
 10
-173.040734
 20
-76.435501
 10
-173.056965
 20
-76.83236
 10
-173.071574
 20
-77.189568
 10
-173.084647
 20
-77.509212
 10
-173.096269
 20
-77.793378
 10
-173.106526
 20
-78.044154
 10
-173.115502
 20
-78.263627
 10
-173.123283
 20
-78.453882
 10
-173.129955
 20
-78.617008
 10
-173.135602
 20
-78.755092
 10
-173.140311
 20
-78.870219
 10
-173.144166
 20
-78.964477
 10
-173.147252
 20
-79.039954
 10
-173.149657
 20
-79.098735
 10
-173.151463
 20
-79.142908
 10
-173.152758
 20
-79.174559
 10
-173.153625
 20
-79.195776
 10
-173.154152
 20
-79.208645
 10
-173.154422
 20
-79.215253
 10
-173.154522
 20
-79.217688
 10
-173.154536
 20
-79.218036
 10
-173.165738
 20
-79.491771
 10
-173.167557
 20
-79.534842
 10
-173.169868
 20
-79.581763
 10
-173.172995
 20
-79.632278
 10
-173.177265
 20
-79.686132
 10
-173.183
 20
-79.743069
 10
-173.190525
 20
-79.802834
 10
-173.200165
 20
-79.865169
 10
-173.212244
 20
-79.92982
 10
-173.227087
 20
-79.996532
 10
-173.245018
 20
-80.065047
 10
-173.266361
 20
-80.13511
 10
-173.291441
 20
-80.206466
 10
-173.320583
 20
-80.278859
 10
-173.354111
 20
-80.352032
 10
-173.392348
 20
-80.425731
 10
-173.435621
 20
-80.499699
 10
-173.484252
 20
-80.573681
 10
-173.538568
 20
-80.647421
 10
-173.598891
 20
-80.720663
 10
-173.665547
 20
-80.793151
 10
-173.738761
 20
-80.864652
 10
-173.818367
 20
-80.935022
 10
-173.904099
 20
-81.004141
 10
-173.995692
 20
-81.071888
 10
-174.09288
 20
-81.13814
 10
-174.195397
 20
-81.202778
 10
-174.302979
 20
-81.26568
 10
-174.41536
 20
-81.326725
 10
-174.532274
 20
-81.385792
 10
-174.653456
 20
-81.44276
 10
-174.77864
 20
-81.497508
 10
-174.907561
 20
-81.549915
 10
-175.039954
 20
-81.59986
 10
-175.175554
 20
-81.647221
 10
-175.314093
 20
-81.691878
 10
-175.455308
 20
-81.733709
 10
-175.598933
 20
-81.772594
 10
-175.744703
 20
-81.808411
 10
-175.892351
 20
-81.841039
 10
-176.041612
 20
-81.870358
 10
-176.192187
 20
-81.896298
 10
-176.343633
 20
-81.918995
 10
-176.495476
 20
-81.938638
 10
-176.647238
 20
-81.955414
 10
-176.798444
 20
-81.969513
 10
-176.948618
 20
-81.981123
 10
-177.097283
 20
-81.990431
 10
-177.243964
 20
-81.997626
 10
-177.388185
 20
-82.002896
 10
-177.529469
 20
-82.00643
 10
-177.667341
 20
-82.008416
 10
-177.801324
 20
-82.009041
 10
-177.930943
 20
-82.008495
 10
-178.055721
 20
-82.006965
 10
-178.175182
 20
-82.00464
 10
-178.288851
 20
-82.001708
 10
-178.396251
 20
-81.998357
 10
-178.496906
 20
-81.994775
 10
-178.59034
 20
-81.991151
 10
-179.220943
 20
-81.965393
 10
-179.765851
 20
-81.94307
 10
-179.851592
 20
-81.93953
 10
-179.945017
 20
-81.935506
 10
-180.045636
 20
-81.930851
 10
-180.152959
 20
-81.925416
 10
-180.266495
 20
-81.919053
 10
-180.385756
 20
-81.911613
 10
-180.510251
 20
-81.902948
 10
-180.63949
 20
-81.89291
 10
-180.772984
 20
-81.88135
 10
-180.910242
 20
-81.868121
 10
-181.050774
 20
-81.853073
 10
-181.194091
 20
-81.836058
 10
-181.339703
 20
-81.816929
 10
-181.48712
 20
-81.795536
 10
-181.635851
 20
-81.771731
 10
-181.785408
 20
-81.745366
 10
-181.9353
 20
-81.716293
 10
-182.085036
 20
-81.684363
 10
-182.234128
 20
-81.649428
 10
-182.382086
 20
-81.611339
 10
-182.528458
 20
-81.569997
 10
-182.672951
 20
-81.525494
 10
-182.81531
 20
-81.477972
 10
-182.95528
 20
-81.427573
 10
-183.092608
 20
-81.374436
 10
-183.227038
 20
-81.318705
 10
-183.358315
 20
-81.260519
 10
-183.486186
 20
-81.200021
 10
-183.610395
 20
-81.137352
 10
-183.730688
 20
-81.072653
 10
-183.84681
 20
-81.006064
 10
-183.958506
 20
-80.937729
 10
-184.065523
 20
-80.867787
 10
-184.167605
 20
-80.796381
 10
-184.264497
 20
-80.723651
 10
-184.355946
 20
-80.649739
 10
-184.441696
 20
-80.574786
 10
-184.521492
 20
-80.498934
 10
-184.595081
 20
-80.422324
 10
-184.662207
 20
-80.345096
 10
-184.722717
 20
-80.267408
 10
-184.776853
 20
-80.189473
 10
-184.82496
 20
-80.111522
 10
-184.867384
 20
-80.033783
 10
-184.904467
 20
-79.956487
 10
-184.936554
 20
-79.879861
 10
-184.96399
 20
-79.804137
 10
-184.987119
 20
-79.729542
 10
-185.006284
 20
-79.656307
 10
-185.021831
 20
-79.584661
 10
-185.034103
 20
-79.514834
 10
-185.043445
 20
-79.447054
 10
-185.050201
 20
-79.381551
 10
-185.054715
 20
-79.318554
 10
-185.057332
 20
-79.258294
 10
-185.058396
 20
-79.200999
 10
-185.05825
 20
-79.146898
 10
-185.05724
 20
-79.096222
 10
-185.055709
 20
-79.049199
 10
-185.0428
 20
-78.73191
 10
-185.042785
 20
-78.731562
 10
-185.042686
 20
-78.729127
 10
-185.042415
 20
-78.722519
 10
-185.041889
 20
-78.709649
 10
-185.041021
 20
-78.688432
 10
-185.039727
 20
-78.65678
 10
-185.03792
 20
-78.612607
 10
-185.035516
 20
-78.553825
 10
-185.032429
 20
-78.478348
 10
-185.028574
 20
-78.384088
 10
-185.023866
 20
-78.268959
 10
-185.018218
 20
-78.130873
 10
-185.011547
 20
-77.967745
 10
-185.003766
 20
-77.777486
 10
-184.99479
 20
-77.558011
 10
-184.984533
 20
-77.307231
 10
-184.972911
 20
-77.02306
 10
-184.959838
 20
-76.703412
 10
-184.945229
 20
-76.346199
 10
-184.928998
 20
-75.949334
 10
-184.911103
 20
-75.511774
 10
-184.891671
 20
-75.036649
 10
-184.870874
 20
-74.528133
 10
-184.848882
 20
-73.9904
 10
-184.825865
 20
-73.427624
 10
-184.801996
 20
-72.843979
 10
-184.777443
 20
-72.243638
 10
-184.752378
 20
-71.630776
 10
-184.726972
 20
-71.009566
 10
-184.701395
 20
-70.384182
 10
-184.675818
 20
-69.758798
 10
-184.650412
 20
-69.137588
 10
-184.625347
 20
-68.524726
 10
-184.600795
 20
-67.924385
 10
-184.576925
 20
-67.340739
 10
-184.553908
 20
-66.777963
 10
-184.531916
 20
-66.240231
 10
-184.511119
 20
-65.731715
 10
-184.491688
 20
-65.25659
 10
-184.473792
 20
-64.81903
 10
-184.457561
 20
-64.422165
 10
-184.442952
 20
-64.064952
 10
-184.429879
 20
-63.745303
 10
-184.418257
 20
-63.461133
 10
-184.408001
 20
-63.210353
 10
-184.399025
 20
-62.990878
 10
-184.391243
 20
-62.800619
 10
-184.384572
 20
-62.63749
 10
-184.378924
 20
-62.499405
 10
-184.374216
 20
-62.384276
 10
-184.370361
 20
-62.290016
 10
-184.367274
 20
-62.214539
 10
-184.36487
 20
-62.155757
 10
-184.363063
 20
-62.111584
 10
-184.361769
 20
-62.079932
 10
-184.360901
 20
-62.058715
 10
-184.360375
 20
-62.045845
 10
-184.360105
 20
-62.039237
 10
-184.360005
 20
-62.036802
 10
-184.359991
 20
-62.036454
 10
-184.348788
 20
-61.762388
 10
-184.34697
 20
-61.719265
 10
-184.344659
 20
-61.672288
 10
-184.341531
 20
-61.621713
 10
-184.337262
 20
-61.567797
 10
-184.331527
 20
-61.510795
 10
-184.324002
 20
-61.450965
 10
-184.314361
 20
-61.388564
 10
-184.302282
 20
-61.323847
 10
-184.28744
 20
-61.257071
 10
-184.269509
 20
-61.188493
 10
-184.248165
 20
-61.118369
 10
-184.223085
 20
-61.046955
 10
-184.193943
 20
-60.974509
 10
-184.160416
 20
-60.901287
 10
-184.122178
 20
-60.827545
 10
-184.078906
 20
-60.753539
 10
-184.030274
 20
-60.679527
 10
-183.975959
 20
-60.605765
 10
-183.915635
 20
-60.532509
 10
-183.84898
 20
-60.460016
 10
-183.775765
 20
-60.38852
 10
-183.696159
 20
-60.318164
 10
-183.610427
 20
-60.249067
 10
-183.518834
 20
-60.181351
 10
-183.421645
 20
-60.115137
 10
-183.319127
 20
-60.050543
 10
-183.211544
 20
-59.987691
 10
-183.099161
 20
-59.926701
 10
-182.982245
 20
-59.867694
 10
-182.861061
 20
-59.810789
 10
-182.735873
 20
-59.756108
 10
-182.606947
 20
-59.70377
 10
-182.474549
 20
-59.653896
 10
-182.338945
 20
-59.606607
 10
-182.200398
 20
-59.562022
 10
-182.059176
 20
-59.520263
 10
-181.915542
 20
-59.481449
 10
-181.769764
 20
-59.445701
 10
-181.622105
 20
-59.413139
 10
-181.472832
 20
-59.383884
 10
-181.322244
 20
-59.358004
 10
-181.170783
 20
-59.335364
 10
-181.018926
 20
-59.315774
 10
-180.867148
 20
-59.299047
 10
-180.715925
 20
-59.284995
 10
-180.565734
 20
-59.273429
 10
-180.417051
 20
-59.264161
 10
-180.270351
 20
-59.257003
 10
-180.126112
 20
-59.251768
 10
-179.984809
 20
-59.248267
 10
-179.846919
 20
-59.246311
 10
-179.712917
 20
-59.245713
 10
-179.58328
 20
-59.246284
 10
-179.458484
 20
-59.247837
 10
-179.339006
 20
-59.250184
 10
-179.22532
 20
-59.253135
 10
-179.117905
 20
-59.256503
 10
-179.017235
 20
-59.260101
 10
-178.923786
 20
-59.263739
 10
-178.293087
 20
-59.289593
  0
LWPOLYLINE
  5
2E
330
1F
100
AcDbEntity
  8
0
100
AcDbPolyline
 90
      365
 70
   128
 43
0.0
 10
-155.249717
 20
-60.761117
 10
-154.70481
 20
-60.783398
 10
-154.619068
 20
-60.786932
 10
-154.525643
 20
-60.790949
 10
-154.425024
 20
-60.795598
 10
-154.317702
 20
-60.801027
 10
-154.204165
 20
-60.807386
 10
-154.084904
 20
-60.814823
 10
-153.960409
 20
-60.823486
 10
-153.83117
 20
-60.833526
 10
-153.697677
 20
-60.84509
 10
-153.560419
 20
-60.858327
 10
-153.419886
 20
-60.873386
 10
-153.276569
 20
-60.890416
 10
-153.130957
 20
-60.909566
 10
-152.983541
 20
-60.930984
 10
-152.834809
 20
-60.954819
 10
-152.685253
 20
-60.98122
 10
-152.535361
 20
-61.010336
 10
-152.385624
 20
-61.042315
 10
-152.236532
 20
-61.077307
 10
-152.088575
 20
-61.11546
 10
-151.942203
 20
-61.156874
 10
-151.79771
 20
-61.201456
 10
-151.655351
 20
-61.249062
 10
-151.51538
 20
-61.299552
 10
-151.378053
 20
-61.352781
 10
-151.243623
 20
-61.408608
 10
-151.112345
 20
-61.466891
 10
-150.984474
 20
-61.527486
 10
-150.860265
 20
-61.590252
 10
-150.739973
 20
-61.655046
 10
-150.623851
 20
-61.721725
 10
-150.512154
 20
-61.790147
 10
-150.405138
 20
-61.860171
 10
-150.303056
 20
-61.931652
 10
-150.206163
 20
-62.00445
 10
-150.114715
 20
-62.078421
 10
-150.028965
 20
-62.153423
 10
-149.949168
 20
-62.229314
 10
-149.875579
 20
-62.30595
 10
-149.808453
 20
-62.383191
 10
-149.747944
 20
-62.460878
 10
-149.693808
 20
-62.538799
 10
-149.6457
 20
-62.616724
 10
-149.603277
 20
-62.694426
 10
-149.566193
 20
-62.771675
 10
-149.534106
 20
-62.848244
 10
-149.50667
 20
-62.923905
 10
-149.483542
 20
-62.998428
 10
-149.464376
 20
-63.071586
 10
-149.448829
 20
-63.143151
 10
-149.436557
 20
-63.212893
 10
-149.427215
 20
-63.280585
 10
-149.420459
 20
-63.345998
 10
-149.415945
 20
-63.408904
 10
-149.413328
 20
-63.469075
 10
-149.412265
 20
-63.526282
 10
-149.41241
 20
-63.580297
 10
-149.413421
 20
-63.630891
 10
-149.414952
 20
-63.677837
 10
-149.427861
 20
-63.9946
 10
-149.427875
 20
-63.994948
 10
-149.427975
 20
-63.997382
 10
-149.428245
 20
-64.003991
 10
-149.428771
 20
-64.01686
 10
-149.429639
 20
-64.038078
 10
-149.430934
 20
-64.069729
 10
-149.43274
 20
-64.113903
 10
-149.435144
 20
-64.172685
 10
-149.438231
 20
-64.248162
 10
-149.442086
 20
-64.342422
 10
-149.446795
 20
-64.457551
 10
-149.452442
 20
-64.595636
 10
-149.459114
 20
-64.758765
 10
-149.466895
 20
-64.949023
 10
-149.475871
 20
-65.168499
 10
-149.486127
 20
-65.419279
 10
-149.497749
 20
-65.703449
 10
-149.510822
 20
-66.023098
 10
-149.525431
 20
-66.380311
 10
-149.541662
 20
-66.777176
 10
-149.559558
 20
-67.214736
 10
-149.578989
 20
-67.689861
 10
-149.599787
 20
-68.198376
 10
-149.621779
 20
-68.736109
 10
-149.644795
 20
-69.298885
 10
-149.668665
 20
-69.882531
 10
-149.693218
 20
-70.482871
 10
-149.718282
 20
-71.095734
 10
-149.743688
 20
-71.716944
 10
-149.769265
 20
-72.342328
 10
-149.794842
 20
-72.967712
 10
-149.820248
 20
-73.588922
 10
-149.845313
 20
-74.201784
 10
-149.869866
 20
-74.802125
 10
-149.893736
 20
-75.38577
 10
-149.916752
 20
-75.948546
 10
-149.938744
 20
-76.486279
 10
-149.959541
 20
-76.994795
 10
-149.978973
 20
-77.46992
 10
-149.996868
 20
-77.90748
 10
-150.013099
 20
-78.304345
 10
-150.027708
 20
-78.661558
 10
-150.040781
 20
-78.981206
 10
-150.052403
 20
-79.265377
 10
-150.06266
 20
-79.516156
 10
-150.071636
 20
-79.735632
 10
-150.079417
 20
-79.925891
 10
-150.086089
 20
-80.089019
 10
-150.091736
 20
-80.227105
 10
-150.096445
 20
-80.342234
 10
-150.1003
 20
-80.436493
 10
-150.103386
 20
-80.511971
 10
-150.10579
 20
-80.570753
 10
-150.107597
 20
-80.614926
 10
-150.108892
 20
-80.646578
 10
-150.109759
 20
-80.667795
 10
-150.110286
 20
-80.680664
 10
-150.110556
 20
-80.687273
 10
-150.110656
 20
-80.689708
 10
-150.11067
 20
-80.690056
 10
-150.121872
 20
-80.963708
 10
-150.123691
 20
-81.006766
 10
-150.126002
 20
-81.053673
 10
-150.129129
 20
-81.104173
 10
-150.133399
 20
-81.158012
 10
-150.139134
 20
-81.214932
 10
-150.146659
 20
-81.274679
 10
-150.156299
 20
-81.336998
 10
-150.168378
 20
-81.401632
 10
-150.183221
 20
-81.468325
 10
-150.201152
 20
-81.536823
 10
-150.222495
 20
-81.60687
 10
-150.247575
 20
-81.678209
 10
-150.276717
 20
-81.750586
 10
-150.310245
 20
-81.823745
 10
-150.348482
 20
-81.89743
 10
-150.391755
 20
-81.971385
 10
-150.440386
 20
-82.045355
 10
-150.494702
 20
-82.119084
 10
-150.555025
 20
-82.192317
 10
-150.621681
 20
-82.264798
 10
-150.694895
 20
-82.336294
 10
-150.774501
 20
-82.406661
 10
-150.860233
 20
-82.475778
 10
-150.951826
 20
-82.543524
 10
-151.049014
 20
-82.609778
 10
-151.151531
 20
-82.674418
 10
-151.259113
 20
-82.737323
 10
-151.371494
 20
-82.798372
 10
-151.488408
 20
-82.857445
 10
-151.60959
 20
-82.914418
 10
-151.734774
 20
-82.969173
 10
-151.863695
 20
-83.021587
 10
-151.996088
 20
-83.071538
 10
-152.131688
 20
-83.118907
 10
-152.270227
 20
-83.163572
 10
-152.411442
 20
-83.205411
 10
-152.555067
 20
-83.244303
 10
-152.700837
 20
-83.280128
 10
-152.848485
 20
-83.312763
 10
-152.997746
 20
-83.342089
 10
-153.148321
 20
-83.368034
 10
-153.299767
 20
-83.390736
 10
-153.45161
 20
-83.410384
 10
-153.603372
 20
-83.427165
 10
-153.754578
 20
-83.441268
 10
-153.904752
 20
-83.45288
 10
-154.053417
 20
-83.462191
 10
-154.200098
 20
-83.469389
 10
-154.344319
 20
-83.474661
 10
-154.485603
 20
-83.478197
 10
-154.623475
 20
-83.480183
 10
-154.757458
 20
-83.48081
 10
-154.887077
 20
-83.480265
 10
-155.011855
 20
-83.478735
 10
-155.131316
 20
-83.476411
 10
-155.244985
 20
-83.473479
 10
-155.352385
 20
-83.470128
 10
-155.45304
 20
-83.466547
 10
-155.546474
 20
-83.462923
 10
-156.177077
 20
-83.437164
 10
-156.721985
 20
-83.414883
 10
-156.807726
 20
-83.411349
 10
-156.901151
 20
-83.407333
 10
-157.00177
 20
-83.402685
 10
-157.109093
 20
-83.397258
 10
-157.222629
 20
-83.390903
 10
-157.34189
 20
-83.383471
 10
-157.466385
 20
-83.374814
 10
-157.595624
 20
-83.364785
 10
-157.729118
 20
-83.353233
 10
-157.866376
 20
-83.340011
 10
-158.006908
 20
-83.324971
 10
-158.150225
 20
-83.307963
 10
-158.295837
 20
-83.28884
 10
-158.443254
 20
-83.267454
 10
-158.591985
 20
-83.243654
 10
-158.741542
 20
-83.217294
 10
-158.891434
 20
-83.188225
 10
-159.04117
 20
-83.156297
 10
-159.190262
 20
-83.121364
 10
-159.33822
 20
-83.083276
 10
-159.484592
 20
-83.041933
 10
-159.629085
 20
-82.997429
 10
-159.771444
 20
-82.949904
 10
-159.911414
 20
-82.899501
 10
-160.048742
 20
-82.846361
 10
-160.183172
 20
-82.790624
 10
-160.314449
 20
-82.732433
 10
-160.44232
 20
-82.671929
 10
-160.566529
 20
-82.609254
 10
-160.686822
 20
-82.544548
 10
-160.802944
 20
-82.477954
 10
-160.91464
 20
-82.409612
 10
-161.021657
 20
-82.339665
 10
-161.123739
 20
-82.268253
 10
-161.220631
 20
-82.195518
 10
-161.31208
 20
-82.121602
 10
-161.39783
 20
-82.046646
 10
-161.477626
 20
-81.970791
 10
-161.551215
 20
-81.894178
 10
-161.618341
 20
-81.81695
 10
-161.67885
 20
-81.739263
 10
-161.732987
 20
-81.66133
 10
-161.781094
 20
-81.583382
 10
-161.823518
 20
-81.505647
 10
-161.860601
 20
-81.428354
 10
-161.892688
 20
-81.351734
 10
-161.920124
 20
-81.276016
 10
-161.943253
 20
-81.201428
 10
-161.962418
 20
-81.1282
 10
-161.977965
 20
-81.056562
 10
-161.990237
 20
-80.986742
 10
-161.999579
 20
-80.91897
 10
-162.006335
 20
-80.853476
 10
-162.010849
 20
-80.790488
 10
-162.013466
 20
-80.730235
 10
-162.01453
 20
-80.672948
 10
-162.014384
 20
-80.618856
 10
-162.013374
 20
-80.568187
 10
-162.011843
 20
-80.52117
 10
-161.998933
 20
-80.203929
 10
-161.998919
 20
-80.203582
 10
-161.99882
 20
-80.201147
 10
-161.998549
 20
-80.194538
 10
-161.998023
 20
-80.181669
 10
-161.997155
 20
-80.160451
 10
-161.995861
 20
-80.128799
 10
-161.994054
 20
-80.084625
 10
-161.99165
 20
-80.025842
 10
-161.988563
 20
-79.950363
 10
-161.984708
 20
-79.856102
 10
-161.98
 20
-79.740972
 10
-161.974352
 20
-79.602884
 10
-161.967681
 20
-79.439753
 10
-161.9599
 20
-79.249492
 10
-161.950924
 20
-79.030013
 10
-161.940667
 20
-78.779229
 10
-161.929045
 20
-78.495055
 10
-161.915972
 20
-78.175401
 10
-161.901363
 20
-77.818183
 10
-161.885132
 20
-77.421312
 10
-161.867237
 20
-76.983746
 10
-161.847805
 20
-76.508614
 10
-161.827008
 20
-76.00009
 10
-161.805016
 20
-75.46235
 10
-161.781999
 20
-74.899565
 10
-161.75813
 20
-74.315911
 10
-161.733577
 20
-73.715562
 10
-161.708512
 20
-73.10269
 10
-161.683106
 20
-72.481471
 10
-161.657529
 20
-71.856078
 10
-161.631952
 20
-71.230684
 10
-161.606546
 20
-70.609465
 10
-161.581481
 20
-69.996594
 10
-161.556929
 20
-69.396244
 10
-161.533059
 20
-68.81259
 10
-161.510042
 20
-68.249806
 10
-161.48805
 20
-67.712065
 10
-161.467253
 20
-67.203541
 10
-161.447821
 20
-66.72841
 10
-161.429926
 20
-66.290843
 10
-161.413695
 20
-65.893972
 10
-161.399086
 20
-65.536754
 10
-161.386013
 20
-65.217101
 10
-161.374391
 20
-64.932926
 10
-161.364135
 20
-64.682142
 10
-161.355159
 20
-64.462663
 10
-161.347377
 20
-64.272402
 10
-161.340706
 20
-64.109271
 10
-161.335058
 20
-63.971184
 10
-161.33035
 20
-63.856053
 10
-161.326495
 20
-63.761792
 10
-161.323408
 20
-63.686313
 10
-161.321004
 20
-63.62753
 10
-161.319197
 20
-63.583356
 10
-161.317903
 20
-63.551704
 10
-161.317035
 20
-63.530487
 10
-161.316509
 20
-63.517617
 10
-161.316239
 20
-63.511008
 10
-161.316139
 20
-63.508573
 10
-161.316125
 20
-63.508226
 10
-161.304922
 20
-63.234118
 10
-161.303104
 20
-63.190989
 10
-161.300793
 20
-63.144005
 10
-161.297665
 20
-63.093423
 10
-161.293396
 20
-63.039499
 10
-161.287661
 20
-62.982489
 10
-161.280135
 20
-62.922652
 10
-161.270495
 20
-62.860243
 10
-161.258416
 20
-62.795518
 10
-161.243573
 20
-62.728735
 10
-161.225643
 20
-62.660151
 10
-161.204299
 20
-62.590021
 10
-161.179219
 20
-62.518602
 10
-161.150077
 20
-62.446152
 10
-161.11655
 20
-62.372926
 10
-161.078312
 20
-62.299182
 10
-161.03504
 20
-62.225176
 10
-160.986408
 20
-62.151164
 10
-160.932093
 20
-62.077404
 10
-160.871769
 20
-62.004152
 10
-160.805114
 20
-61.931664
 10
-160.731899
 20
-61.860175
 10
-160.652293
 20
-61.789827
 10
-160.566561
 20
-61.720741
 10
-160.474968
 20
-61.653036
 10
-160.377781
 20
-61.586834
 10
-160.275263
 20
-61.522253
 10
-160.167681
 20
-61.459415
 10
-160.055301
 20
-61.398439
 10
-159.938387
 20
-61.339446
 10
-159.817205
 20
-61.282556
 10
-159.69202
 20
-61.227888
 10
-159.563099
 20
-61.175563
 10
-159.430706
 20
-61.125702
 10
-159.295107
 20
-61.078424
 10
-159.156567
 20
-61.03385
 10
-159.015352
 20
-60.992099
 10
-158.871727
 20
-60.953293
 10
-158.725958
 20
-60.91755
 10
-158.57831
 20
-60.884992
 10
-158.429048
 20
-60.855738
 10
-158.278474
 20
-60.829857
 10
-158.127027
 20
-60.807213
 10
-157.975185
 20
-60.787618
 10
-157.823423
 20
-60.770884
 10
-157.672217
 20
-60.756822
 10
-157.522043
 20
-60.745245
 10
-157.373377
 20
-60.735965
 10
-157.226696
 20
-60.728794
 10
-157.082476
 20
-60.723544
 10
-156.941191
 20
-60.720028
 10
-156.803319
 20
-60.718056
 10
-156.669336
 20
-60.717442
 10
-156.539717
 20
-60.717997
 10
-156.414939
 20
-60.719534
 10
-156.295478
 20
-60.721863
 10
-156.181809
 20
-60.724799
 10
-156.07441
 20
-60.728152
 10
-155.973755
 20
-60.731734
 10
-155.880321
 20
-60.735358
 10
-155.249717
 20
-60.761117
  0
LWPOLYLINE
  5
2F
330
1F
100
AcDbEntity
  8
0
100
AcDbPolyline
 90
     1755
 70
   128
 43
0.0
 10
-244.265858
 20
-50.078248
 10
-244.264927
 20
-50.078286
 10
-244.25841
 20
-50.078552
 10
-244.240723
 20
-50.079276
 10
-244.206278
 20
-50.080685
 10
-244.149491
 20
-50.083008
 10
-244.064777
 20
-50.086473
 10
-243.946549
 20
-50.09131
 10
-243.789221
 20
-50.097746
 10
-243.587209
 20
-50.106009
 10
-243.334927
 20
-50.11633
 10
-243.026789
 20
-50.128935
 10
-242.65721
 20
-50.144053
 10
-242.220603
 20
-50.161914
 10
-241.711384
 20
-50.182744
 10
-241.123967
 20
-50.206774
 10
-240.452766
 20
-50.234231
 10
-239.692196
 20
-50.265344
 10
-238.836671
 20
-50.300342
 10
-237.880606
 20
-50.339452
 10
-236.818414
 20
-50.382903
 10
-235.647303
 20
-50.43081
 10
-234.375652
 20
-50.48283
 10
-233.014632
 20
-50.538506
 10
-231.575413
 20
-50.597381
 10
-230.069168
 20
-50.658997
 10
-228.507067
 20
-50.722899
 10
-226.900281
 20
-50.788628
 10
-225.259981
 20
-50.855729
 10
-223.597339
 20
-50.923743
 10
-221.923526
 20
-50.992214
 10
-220.249713
 20
-51.060686
 10
-218.587071
 20
-51.1287
 10
-216.946772
 20
-51.1958
 10
-215.339986
 20
-51.26153
 10
-213.777885
 20
-51.325431
 10
-212.271639
 20
-51.387048
 10
-210.83242
 20
-51.445923
 10
-209.4714
 20
-51.501598
 10
-208.199749
 20
-51.553618
 10
-207.028639
 20
-51.601525
 10
-205.966447
 20
-51.644977
 10
-205.010381
 20
-51.684087
 10
-204.154856
 20
-51.719084
 10
-203.394286
 20
-51.750197
 10
-202.723085
 20
-51.777654
 10
-202.135668
 20
-51.801684
 10
-201.626449
 20
-51.822515
 10
-201.189843
 20
-51.840375
 10
-200.820263
 20
-51.855494
 10
-200.512125
 20
-51.868099
 10
-200.259843
 20
-51.878419
 10
-200.057831
 20
-51.886683
 10
-199.900504
 20
-51.893119
 10
-199.782276
 20
-51.897955
 10
-199.697561
 20
-51.901421
 10
-199.640774
 20
-51.903744
 10
-199.60633
 20
-51.905153
 10
-199.588642
 20
-51.905876
 10
-199.582126
 20
-51.906143
 10
-199.581195
 20
-51.906181
 10
-199.581216
 20
-51.906699
 10
-199.581364
 20
-51.910321
 10
-199.581766
 20
-51.920153
 10
-199.58255
 20
-51.9393
 10
-199.583842
 20
-51.970867
 10
-199.585769
 20
-52.017959
 10
-199.588458
 20
-52.08368
 10
-199.592036
 20
-52.171136
 10
-199.596631
 20
-52.283432
 10
-199.60237
 20
-52.423672
 10
-199.609379
 20
-52.594961
 10
-199.617785
 20
-52.800405
 10
-199.627716
 20
-53.043108
 10
-199.639299
 20
-53.326176
 10
-199.65266
 20
-53.652712
 10
-199.667928
 20
-54.025823
 10
-199.685228
 20
-54.448613
 10
-199.704687
 20
-54.924187
 10
-199.726434
 20
-55.45565
 10
-199.750595
 20
-56.046107
 10
-199.777233
 20
-56.69711
 10
-199.806158
 20
-57.404003
 10
-199.837116
 20
-58.160574
 10
-199.869852
 20
-58.960615
 10
-199.904114
 20
-59.797915
 10
-199.939645
 20
-60.666265
 10
-199.976193
 20
-61.559454
 10
-200.013504
 20
-62.471272
 10
-200.051322
 20
-63.395511
 10
-200.089395
 20
-64.325959
 10
-200.127468
 20
-65.256408
 10
-200.165286
 20
-66.180646
 10
-200.202597
 20
-67.092465
 10
-200.239145
 20
-67.985654
 10
-200.274676
 20
-68.854003
 10
-200.308937
 20
-69.691303
 10
-200.341674
 20
-70.491344
 10
-200.372632
 20
-71.247916
 10
-200.401557
 20
-71.954808
 10
-200.428195
 20
-72.605811
 10
-200.452356
 20
-73.196268
 10
-200.474102
 20
-73.727731
 10
-200.493562
 20
-74.203305
 10
-200.510862
 20
-74.626095
 10
-200.526129
 20
-74.999206
 10
-200.539491
 20
-75.325743
 10
-200.551074
 20
-75.60881
 10
-200.561005
 20
-75.851513
 10
-200.569411
 20
-76.056957
 10
-200.57642
 20
-76.228247
 10
-200.582159
 20
-76.368487
 10
-200.586754
 20
-76.480782
 10
-200.590332
 20
-76.568238
 10
-200.593021
 20
-76.633959
 10
-200.594948
 20
-76.681051
 10
-200.59624
 20
-76.712618
 10
-200.597023
 20
-76.731765
 10
-200.597426
 20
-76.741597
 10
-200.597574
 20
-76.74522
 10
-200.597595
 20
-76.745737
 10
-200.606483
 20
-76.963006
 10
-200.607859
 20
-76.997195
 10
-200.609228
 20
-77.034455
 10
-200.61045
 20
-77.074601
 10
-200.611385
 20
-77.117444
 10
-200.611891
 20
-77.162797
 10
-200.61183
 20
-77.210475
 10
-200.611059
 20
-77.260288
 10
-200.60944
 20
-77.312051
 10
-200.606831
 20
-77.365576
 10
-200.603093
 20
-77.420677
 10
-200.598085
 20
-77.477165
 10
-200.591667
 20
-77.534854
 10
-200.583698
 20
-77.593557
 10
-200.574038
 20
-77.653087
 10
-200.562548
 20
-77.713256
 10
-200.549085
 20
-77.773878
 10
-200.533511
 20
-77.834765
 10
-200.515685
 20
-77.89573
 10
-200.495467
 20
-77.956587
 10
-200.472715
 20
-78.017147
 10
-200.447331
 20
-78.077238
 10
-200.419372
 20
-78.136738
 10
-200.388938
 20
-78.195539
 10
-200.356127
 20
-78.253532
 10
-200.321039
 20
-78.31061
 10
-200.283771
 20
-78.366665
 10
-200.244424
 20
-78.421589
 10
-200.203095
 20
-78.475273
 10
-200.159884
 20
-78.52761
 10
-200.11489
 20
-78.578492
 10
-200.06821
 20
-78.62781
 10
-200.019945
 20
-78.675456
 10
-199.970193
 20
-78.721323
 10
-199.919053
 20
-78.765303
 10
-199.866623
 20
-78.807286
 10
-199.813003
 20
-78.847166
 10
-199.758291
 20
-78.884835
 10
-199.702587
 20
-78.920183
 10
-199.645988
 20
-78.953104
 10
-199.588594
 20
-78.983488
 10
-199.53052
 20
-79.011268
 10
-199.471947
 20
-79.036529
 10
-199.41307
 20
-79.059398
 10
-199.354087
 20
-79.08
 10
-199.295194
 20
-79.09846
 10
-199.236588
 20
-79.114904
 10
-199.178465
 20
-79.129457
 10
-199.121022
 20
-79.142246
 10
-199.064456
 20
-79.153396
 10
-199.008963
 20
-79.163032
 10
-198.95474
 20
-79.17128
 10
-198.901984
 20
-79.178265
 10
-198.85089
 20
-79.184114
 10
-198.801657
 20
-79.188952
 10
-198.754479
 20
-79.192904
 10
-198.709555
 20
-79.196095
 10
-198.66708
 20
-79.198653
 10
-198.627252
 20
-79.200702
 10
-198.590266
 20
-79.202367
 10
-198.340581
 20
-79.212579
 10
-198.124718
 20
-79.221508
 10
-198.09075
 20
-79.222891
 10
-198.053731
 20
-79.224266
 10
-198.013845
 20
-79.225491
 10
-197.971279
 20
-79.226425
 10
-197.926219
 20
-79.226925
 10
-197.87885
 20
-79.226851
 10
-197.829359
 20
-79.22606
 10
-197.777931
 20
-79.22441
 10
-197.724752
 20
-79.221761
 10
-197.670008
 20
-79.217969
 10
-197.613885
 20
-79.212893
 10
-197.556569
 20
-79.206392
 10
-197.498246
 20
-79.198323
 10
-197.439102
 20
-79.188545
 10
-197.379322
 20
-79.176916
 10
-197.319092
 20
-79.163295
 10
-197.258599
 20
-79.147539
 10
-197.198029
 20
-79.129507
 10
-197.137566
 20
-79.109056
 10
-197.077397
 20
-79.086046
 10
-197.017695
 20
-79.060375
 10
-196.958581
 20
-79.032103
 10
-196.900161
 20
-79.001331
 10
-196.842542
 20
-78.96816
 10
-196.785833
 20
-78.93269
 10
-196.730139
 20
-78.895023
 10
-196.67557
 20
-78.855259
 10
-196.622231
 20
-78.8135
 10
-196.57023
 20
-78.769845
 10
-196.519675
 20
-78.724397
 10
-196.470672
 20
-78.677255
 10
-196.423329
 20
-78.62852
 10
-196.377754
 20
-78.578294
 10
-196.334052
 20
-78.526676
 10
-196.292333
 20
-78.473769
 10
-196.252702
 20
-78.419672
 10
-196.215268
 20
-78.364487
 10
-196.180137
 20
-78.308314
 10
-196.147417
 20
-78.251255
 10
-196.117215
 20
-78.193409
 10
-196.0896
 20
-78.134895
 10
-196.064486
 20
-78.075892
 10
-196.041747
 20
-78.016597
 10
-196.02126
 20
-77.957209
 10
-196.0029
 20
-77.897922
 10
-195.986542
 20
-77.838935
 10
-195.972061
 20
-77.780445
 10
-195.959334
 20
-77.722647
 10
-195.948234
 20
-77.665739
 10
-195.938638
 20
-77.609919
 10
-195.930422
 20
-77.555382
 10
-195.923459
 20
-77.502326
 10
-195.917627
 20
-77.450947
 10
-195.912799
 20
-77.401443
 10
-195.908852
 20
-77.354011
 10
-195.905661
 20
-77.308846
 10
-195.903101
 20
-77.266147
 10
-195.901048
 20
-77.226111
 10
-195.899377
 20
-77.188933
 10
-195.889116
 20
-76.937956
 10
-195.889095
 20
-76.937438
 10
-195.888947
 20
-76.933816
 10
-195.888545
 20
-76.923984
 10
-195.887762
 20
-76.904837
 10
-195.88647
 20
-76.873271
 10
-195.884544
 20
-76.82618
 10
-195.881855
 20
-76.76046
 10
-195.878278
 20
-76.673006
 10
-195.873684
 20
-76.560712
 10
-195.867947
 20
-76.420475
 10
-195.860939
 20
-76.249189
 10
-195.852535
 20
-76.043749
 10
-195.842606
 20
-75.801051
 10
-195.831026
 20
-75.517989
 10
-195.817668
 20
-75.191459
 10
-195.802405
 20
-74.818356
 10
-195.785109
 20
-74.395574
 10
-195.765654
 20
-73.92001
 10
-195.743913
 20
-73.388557
 10
-195.719758
 20
-72.798112
 10
-195.693126
 20
-72.147122
 10
-195.664208
 20
-71.440244
 10
-195.633258
 20
-70.683687
 10
-195.600529
 20
-69.883663
 10
-195.566276
 20
-69.046379
 10
-195.530753
 20
-68.178047
 10
-195.494214
 20
-67.284876
 10
-195.456913
 20
-66.373075
 10
-195.419104
 20
-65.448855
 10
-195.38104
 20
-64.518425
 10
-195.342977
 20
-63.587996
 10
-195.305168
 20
-62.663776
 10
-195.267866
 20
-61.751975
 10
-195.231327
 20
-60.858804
 10
-195.195804
 20
-59.990472
 10
-195.161551
 20
-59.153188
 10
-195.128823
 20
-58.353164
 10
-195.097872
 20
-57.596607
 10
-195.068954
 20
-56.889729
 10
-195.042323
 20
-56.238739
 10
-195.018168
 20
-55.648294
 10
-194.996427
 20
-55.116841
 10
-194.976971
 20
-54.641277
 10
-194.959676
 20
-54.218495
 10
-194.944412
 20
-53.845392
 10
-194.931054
 20
-53.518862
 10
-194.919474
 20
-53.2358
 10
-194.909546
 20
-52.993101
 10
-194.901141
 20
-52.787662
 10
-194.894134
 20
-52.616376
 10
-194.888397
 20
-52.476139
 10
-194.883803
 20
-52.363845
 10
-194.880225
 20
-52.276391
 10
-194.877537
 20
-52.210671
 10
-194.87561
 20
-52.16358
 10
-194.874319
 20
-52.132014
 10
-194.873536
 20
-52.112867
 10
-194.873133
 20
-52.103035
 10
-194.872985
 20
-52.099413
 10
-194.872964
 20
-52.098895
 10
-194.872021
 20
-52.098934
 10
-194.865419
 20
-52.099204
 10
-194.8475
 20
-52.099937
 10
-194.812605
 20
-52.101364
 10
-194.755075
 20
-52.103718
 10
-194.669252
 20
-52.107228
 10
-194.549478
 20
-52.112128
 10
-194.390092
 20
-52.118647
 10
-194.185437
 20
-52.127019
 10
-193.929855
 20
-52.137473
 10
-193.617685
 20
-52.150243
 10
-193.243271
 20
-52.165558
 10
-192.800953
 20
-52.183651
 10
-192.285072
 20
-52.204753
 10
-191.68997
 20
-52.229096
 10
-191.009988
 20
-52.256911
 10
-190.239467
 20
-52.288429
 10
-189.37275
 20
-52.323882
 10
-188.404176
 20
-52.363502
 10
-187.328088
 20
-52.407519
 10
-186.141657
 20
-52.45605
 10
-184.853369
 20
-52.508748
 10
-183.474543
 20
-52.565149
 10
-182.016496
 20
-52.624791
 10
-180.490545
 20
-52.68721
 10
-178.908007
 20
-52.751944
 10
-177.2802
 20
-52.818529
 10
-175.618441
 20
-52.886504
 10
-173.934048
 20
-52.955404
 10
-172.238337
 20
-53.024767
 10
-170.542626
 20
-53.09413
 10
-168.858233
 20
-53.163031
 10
-167.196474
 20
-53.231005
 10
-165.568667
 20
-53.297591
 10
-163.986129
 20
-53.362325
 10
-162.460178
 20
-53.424744
 10
-161.002131
 20
-53.484385
 10
-159.623305
 20
-53.540786
 10
-158.335017
 20
-53.593484
 10
-157.148585
 20
-53.642015
 10
-156.072497
 20
-53.686033
 10
-155.103924
 20
-53.725652
 10
-154.237206
 20
-53.761105
 10
-153.466686
 20
-53.792624
 10
-152.786704
 20
-53.820438
 10
-152.191602
 20
-53.844781
 10
-151.675721
 20
-53.865883
 10
-151.233403
 20
-53.883976
 10
-150.858988
 20
-53.899292
 10
-150.546819
 20
-53.912061
 10
-150.291236
 20
-53.922516
 10
-150.086582
 20
-53.930887
 10
-149.927196
 20
-53.937407
 10
-149.807421
 20
-53.942306
 10
-149.721598
 20
-53.945817
 10
-149.664069
 20
-53.94817
 10
-149.629174
 20
-53.949597
 10
-149.611255
 20
-53.95033
 10
-149.604653
 20
-53.9506
 10
-149.60371
 20
-53.950639
 10
-148.876505
 20
-53.980402
 10
-148.76208
 20
-53.985159
 10
-148.637411
 20
-53.990783
 10
-148.503159
 20
-53.997693
 10
-148.359988
 20
-54.006309
 10
-148.20856
 20
-54.017051
 10
-148.049538
 20
-54.030337
 10
-147.883586
 20
-54.04659
 10
-147.711366
 20
-54.066227
 10
-147.53354
 20
-54.08967
 10
-147.350772
 20
-54.117337
 10
-147.163725
 20
-54.149648
 10
-146.973062
 20
-54.187024
 10
-146.779445
 20
-54.229884
 10
-146.583537
 20
-54.278649
 10
-146.386002
 20
-54.333737
 10
-146.187501
 20
-54.395568
 10
-145.988698
 20
-54.464563
 10
-145.790256
 20
-54.541141
 10
-145.592838
 20
-54.625722
 10
-145.397107
 20
-54.718727
 10
-145.203669
 20
-54.820443
 10
-145.012914
 20
-54.930641
 10
-144.825174
 20
-55.048959
 10
-144.640781
 20
-55.175037
 10
-144.460069
 20
-55.308512
 10
-144.28337
 20
-55.449023
 10
-144.111017
 20
-55.59621
 10
-143.943343
 20
-55.749711
 10
-143.78068
 20
-55.909165
 10
-143.623361
 20
-56.074211
 10
-143.471719
 20
-56.244488
 10
-143.326087
 20
-56.419633
 10
-143.186798
 20
-56.599287
 10
-143.054183
 20
-56.783087
 10
-142.928577
 20
-56.970674
 10
-142.810311
 20
-57.161684
 10
-142.699719
 20
-57.355758
 10
-142.597133
 20
-57.552534
 10
-142.502886
 20
-57.75165
 10
-142.417311
 20
-57.952747
 10
-142.340606
 20
-58.155417
 10
-142.272433
 20
-58.359079
 10
-142.212319
 20
-58.563108
 10
-142.159792
 20
-58.766875
 10
-142.11438
 20
-58.969756
 10
-142.07561
 20
-59.171124
 10
-142.043009
 20
-59.370352
 10
-142.016105
 20
-59.566815
 10
-141.994425
 20
-59.759886
 10
-141.977498
 20
-59.948938
 10
-141.964849
 20
-60.133346
 10
-141.956008
 20
-60.312483
 10
-141.9505
 20
-60.485723
 10
-141.947855
 20
-60.65244
 10
-141.947599
 20
-60.812006
 10
-141.949259
 20
-60.963797
 10
-141.952364
 20
-61.107186
 10
-141.95644
 20
-61.241546
 10
-141.961016
 20
-61.366251
 10
-141.99534
 20
-62.207838
 10
-141.995346
 20
-62.207989
 10
-141.995389
 20
-62.209045
 10
-141.995507
 20
-62.211912
 10
-141.995735
 20
-62.217496
 10
-141.996112
 20
-62.2267
 10
-141.996674
 20
-62.240432
 10
-141.997458
 20
-62.259596
 10
-141.998501
 20
-62.285097
 10
-141.999841
 20
-62.317842
 10
-142.001515
 20
-62.358735
 10
-142.003558
 20
-62.408682
 10
-142.00601
 20
-62.468587
 10
-142.008906
 20
-62.539358
 10
-142.012283
 20
-62.621898
 10
-142.01618
 20
-62.717114
 10
-142.020632
 20
-62.82591
 10
-142.025676
 20
-62.949193
 10
-142.031351
 20
-63.087867
 10
-142.037692
 20
-63.242837
 10
-142.044738
 20
-63.41501
 10
-142.052506
 20
-63.604838
 10
-142.06094
 20
-63.810963
 10
-142.069968
 20
-64.031573
 10
-142.079514
 20
-64.264859
 10
-142.089505
 20
-64.50901
 10
-142.099866
 20
-64.762214
 10
-142.110524
 20
-65.022661
 10
-142.121404
 20
-65.288541
 10
-142.132432
 20
-65.558042
 10
-142.143534
 20
-65.829354
 10
-142.154636
 20
-66.100666
 10
-142.165664
 20
-66.370167
 10
-142.176544
 20
-66.636046
 10
-142.187202
 20
-66.896494
 10
-142.197563
 20
-67.149698
 10
-142.207554
 20
-67.393849
 10
-142.2171
 20
-67.627135
 10
-142.226127
 20
-67.847745
 10
-142.234562
 20
-68.05387
 10
-142.24233
 20
-68.243698
 10
-142.249375
 20
-68.41587
 10
-142.255717
 20
-68.570841
 10
-142.261391
 20
-68.709515
 10
-142.266436
 20
-68.832797
 10
-142.270888
 20
-68.941594
 10
-142.274784
 20
-69.036809
 10
-142.278162
 20
-69.11935
 10
-142.281058
 20
-69.19012
 10
-142.283509
 20
-69.250026
 10
-142.285553
 20
-69.299973
 10
-142.287227
 20
-69.340866
 10
-142.288567
 20
-69.37361
 10
-142.28961
 20
-69.399112
 10
-142.290394
 20
-69.418276
 10
-142.290956
 20
-69.432007
 10
-142.291333
 20
-69.441212
 10
-142.291561
 20
-69.446795
 10
-142.291679
 20
-69.449662
 10
-142.291722
 20
-69.450718
 10
-142.291728
 20
-69.450869
 10
-142.271225
 20
-69.414121
 10
-142.267997
 20
-69.408339
 10
-142.264471
 20
-69.402044
 10
-142.260655
 20
-69.395275
 10
-142.256559
 20
-69.388068
 10
-142.252191
 20
-69.380462
 10
-142.247561
 20
-69.372496
 10
-142.242677
 20
-69.364207
 10
-142.237549
 20
-69.355634
 10
-142.232186
 20
-69.346814
 10
-142.226596
 20
-69.337786
 10
-142.220789
 20
-69.328588
 10
-142.214774
 20
-69.319258
 10
-142.208559
 20
-69.309833
 10
-142.202154
 20
-69.300353
 10
-142.195568
 20
-69.290855
 10
-142.188809
 20
-69.281377
 10
-142.181888
 20
-69.271958
 10
-142.174812
 20
-69.262635
 10
-142.167591
 20
-69.253447
 10
-142.160234
 20
-69.244431
 10
-142.152749
 20
-69.235621
 10
-142.145142
 20
-69.22703
 10
-142.137417
 20
-69.218664
 10
-142.129579
 20
-69.210532
 10
-142.121634
 20
-69.20264
 10
-142.113584
 20
-69.194996
 10
-142.105436
 20
-69.187608
 10
-142.097195
 20
-69.180483
 10
-142.088864
 20
-69.173629
 10
-142.080448
 20
-69.167053
 10
-142.071953
 20
-69.160762
 10
-142.063383
 20
-69.154765
 10
-142.054743
 20
-69.149068
 10
-142.046037
 20
-69.143678
 10
-142.037271
 20
-69.138605
 10
-142.028448
 20
-69.133854
 10
-142.019575
 20
-69.129433
 10
-142.010655
 20
-69.12535
 10
-142.001693
 20
-69.121613
 10
-141.992694
 20
-69.118229
 10
-141.983667
 20
-69.1152
 10
-141.974632
 20
-69.112512
 10
-141.965615
 20
-69.110147
 10
-141.95664
 20
-69.108085
 10
-141.947733
 20
-69.106307
 10
-141.938918
 20
-69.104795
 10
-141.930221
 20
-69.103528
 10
-141.921667
 20
-69.102489
 10
-141.91328
 20
-69.101658
 10
-141.905085
 20
-69.101017
 10
-141.897108
 20
-69.100545
 10
-141.889373
 20
-69.100225
 10
-141.881905
 20
-69.100037
 10
-141.874729
 20
-69.099962
 10
-141.867871
 20
-69.099981
 10
-141.861354
 20
-69.100076
 10
-141.855205
 20
-69.100226
 10
-141.849448
 20
-69.100414
 10
-141.844107
 20
-69.10062
 10
-141.808082
 20
-69.102148
 10
-141.808005
 20
-69.102151
 10
-141.807463
 20
-69.102174
 10
-141.805991
 20
-69.102234
 10
-141.803126
 20
-69.102351
 10
-141.798403
 20
-69.102544
 10
-141.791356
 20
-69.102831
 10
-141.781522
 20
-69.103233
 10
-141.768435
 20
-69.103767
 10
-141.751632
 20
-69.104454
 10
-141.730647
 20
-69.105311
 10
-141.705016
 20
-69.106357
 10
-141.674274
 20
-69.107613
 10
-141.637957
 20
-69.109096
 10
-141.5956
 20
-69.110826
 10
-141.546739
 20
-69.112821
 10
-141.490908
 20
-69.115101
 10
-141.427644
 20
-69.117685
 10
-141.356481
 20
-69.120591
 10
-141.276955
 20
-69.123839
 10
-141.188602
 20
-69.127447
 10
-141.091189
 20
-69.131425
 10
-140.985413
 20
-69.135745
 10
-140.872203
 20
-69.140368
 10
-140.752488
 20
-69.145257
 10
-140.627198
 20
-69.150373
 10
-140.497262
 20
-69.15568
 10
-140.363609
 20
-69.161138
 10
-140.227169
 20
-69.16671
 10
-140.08887
 20
-69.172358
 10
-139.949642
 20
-69.178044
 10
-139.810414
 20
-69.183729
 10
-139.672115
 20
-69.189377
 10
-139.535674
 20
-69.194949
 10
-139.402021
 20
-69.200407
 10
-139.272085
 20
-69.205714
 10
-139.146796
 20
-69.21083
 10
-139.027081
 20
-69.215719
 10
-138.913871
 20
-69.220342
 10
-138.808095
 20
-69.224662
 10
-138.710682
 20
-69.22864
 10
-138.622328
 20
-69.232248
 10
-138.542803
 20
-69.235496
 10
-138.47164
 20
-69.238402
 10
-138.408375
 20
-69.240986
 10
-138.352545
 20
-69.243266
 10
-138.303683
 20
-69.245261
 10
-138.261326
 20
-69.246991
 10
-138.225009
 20
-69.248474
 10
-138.194268
 20
-69.24973
 10
-138.168637
 20
-69.250776
 10
-138.147652
 20
-69.251633
 10
-138.130848
 20
-69.25232
 10
-138.117762
 20
-69.252854
 10
-138.107927
 20
-69.253256
 10
-138.100881
 20
-69.253543
 10
-138.096157
 20
-69.253736
 10
-138.093292
 20
-69.253853
 10
-138.091821
 20
-69.253913
 10
-138.091279
 20
-69.253936
 10
-138.091202
 20
-69.253939
 10
-138.034321
 20
-69.256295
 10
-138.025372
 20
-69.256676
 10
-138.015622
 20
-69.257149
 10
-138.005124
 20
-69.257773
 10
-137.993932
 20
-69.258604
 10
-137.982099
 20
-69.259699
 10
-137.969677
 20
-69.261118
 10
-137.956719
 20
-69.262915
 10
-137.943279
 20
-69.26515
 10
-137.929409
 20
-69.26788
 10
-137.915162
 20
-69.271161
 10
-137.900591
 20
-69.275051
 10
-137.885748
 20
-69.279608
 10
-137.870688
 20
-69.284889
 10
-137.855463
 20
-69.290951
 10
-137.840125
 20
-69.297852
 10
-137.824728
 20
-69.30565
 10
-137.809324
 20
-69.3144
 10
-137.793967
 20
-69.324162
 10
-137.778709
 20
-69.334992
 10
-137.763604
 20
-69.346948
 10
-137.748699
 20
-69.360069
 10
-137.734024
 20
-69.374326
 10
-137.719605
 20
-69.389671
 10
-137.705467
 20
-69.406057
 10
-137.691634
 20
-69.423438
 10
-137.678132
 20
-69.441764
 10
-137.664986
 20
-69.46099
 10
-137.652221
 20
-69.481067
 10
-137.639863
 20
-69.501948
 10
-137.627935
 20
-69.523587
 10
-137.616464
 20
-69.545935
 10
-137.605474
 20
-69.568945
 10
-137.594991
 20
-69.592571
 10
-137.585039
 20
-69.616764
 10
-137.575645
 20
-69.641477
 10
-137.566832
 20
-69.666664
 10
-137.558626
 20
-69.692276
 10
-137.551053
 20
-69.718266
 10
-137.544136
 20
-69.744587
 10
-137.537902
 20
-69.771192
 10
-137.532365
 20
-69.798027
 10
-137.527497
 20
-69.825013
 10
-137.52326
 20
-69.852067
 10
-137.519616
 20
-69.879103
 10
-137.516525
 20
-69.906037
 10
-137.51395
 20
-69.932785
 10
-137.511853
 20
-69.959262
 10
-137.510194
 20
-69.985383
 10
-137.508937
 20
-70.011064
 10
-137.508041
 20
-70.03622
 10
-137.50747
 20
-70.060768
 10
-137.507184
 20
-70.084621
 10
-137.507146
 20
-70.107696
 10
-137.507316
 20
-70.129909
 10
-137.507657
 20
-70.151174
 10
-137.50813
 20
-70.171407
 10
-137.508697
 20
-70.190523
 10
-137.50932
 20
-70.208439
 10
-137.50996
 20
-70.225068
 10
-137.514547
 20
-70.337305
 10
-137.514575
 20
-70.338
 10
-137.514774
 20
-70.342858
 10
-137.515313
 20
-70.356046
 10
-137.516364
 20
-70.381728
 10
-137.518096
 20
-70.424069
 10
-137.52068
 20
-70.487232
 10
-137.524286
 20
-70.575383
 10
-137.529084
 20
-70.692687
 10
-137.535246
 20
-70.843307
 10
-137.54294
 20
-71.03141
 10
-137.552339
 20
-71.261158
 10
-137.563611
 20
-71.536718
 10
-137.576927
 20
-71.862252
 10
-137.592459
 20
-72.241927
 10
-137.610375
 20
-72.679907
 10
-137.630847
 20
-73.180356
 10
-137.654044
 20
-73.747439
 10
-137.680138
 20
-74.385321
 10
-137.709298
 20
-75.098166
 10
-137.741695
 20
-75.890139
 10
-137.777414
 20
-76.763322
 10
-137.8162
 20
-77.711468
 10
-137.857711
 20
-78.726249
 10
-137.901607
 20
-79.799334
 10
-137.947548
 20
-80.922394
 10
-137.995192
 20
-82.087101
 10
-138.0442
 20
-83.285125
 10
-138.094229
 20
-84.508136
 10
-138.14494
 20
-85.747806
 10
-138.195991
 20
-86.995806
 10
-138.247043
 20
-88.243805
 10
-138.297754
 20
-89.483475
 10
-138.347783
 20
-90.706487
 10
-138.39679
 20
-91.904511
 10
-138.444435
 20
-93.069217
 10
-138.490376
 20
-94.192278
 10
-138.534272
 20
-95.265363
 10
-138.575783
 20
-96.280143
 10
-138.614569
 20
-97.22829
 10
-138.650288
 20
-98.101473
 10
-138.682685
 20
-98.893446
 10
-138.711845
 20
-99.606291
 10
-138.737939
 20
-100.244172
 10
-138.761136
 20
-100.811255
 10
-138.781608
 20
-101.311704
 10
-138.799524
 20
-101.749684
 10
-138.815056
 20
-102.129359
 10
-138.828372
 20
-102.454894
 10
-138.839644
 20
-102.730453
 10
-138.849043
 20
-102.960202
 10
-138.856737
 20
-103.148304
 10
-138.862899
 20
-103.298925
 10
-138.867697
 20
-103.416228
 10
-138.871303
 20
-103.50438
 10
-138.873887
 20
-103.567543
 10
-138.875619
 20
-103.609883
 10
-138.876669
 20
-103.635565
 10
-138.877209
 20
-103.648753
 10
-138.877408
 20
-103.653612
 10
-138.877436
 20
-103.654306
 10
-138.881404
 20
-103.751242
 10
-138.882035
 20
-103.766495
 10
-138.882756
 20
-103.783114
 10
-138.883599
 20
-103.801013
 10
-138.884596
 20
-103.820104
 10
-138.885778
 20
-103.840299
 10
-138.887176
 20
-103.861512
 10
-138.888821
 20
-103.883654
 10
-138.890746
 20
-103.906639
 10
-138.892981
 20
-103.930379
 10
-138.895557
 20
-103.954787
 10
-138.898507
 20
-103.979775
 10
-138.90186
 20
-104.005256
 10
-138.90565
 20
-104.031142
 10
-138.909906
 20
-104.057347
 10
-138.914661
 20
-104.083783
 10
-138.919945
 20
-104.110363
 10
-138.925791
 20
-104.136998
 10
-138.932229
 20
-104.163603
 10
-138.93929
 20
-104.190089
 10
-138.947007
 20
-104.216369
 10
-138.9554
 20
-104.242362
 10
-138.96445
 20
-104.268018
 10
-138.974129
 20
-104.29329
 10
-138.984407
 20
-104.318133
 10
-138.995255
 20
-104.342502
 10
-139.006645
 20
-104.366353
 10
-139.018547
 20
-104.38964
 10
-139.030932
 20
-104.412317
 10
-139.043771
 20
-104.434341
 10
-139.057036
 20
-104.455665
 10
-139.070697
 20
-104.476245
 10
-139.084725
 20
-104.496035
 10
-139.099092
 20
-104.514991
 10
-139.113767
 20
-104.533067
 10
-139.128723
 20
-104.550218
 10
-139.143929
 20
-104.566399
 10
-139.159358
 20
-104.581566
 10
-139.17498
 20
-104.595672
 10
-139.190766
 20
-104.608673
 10
-139.206687
 20
-104.620523
 10
-139.222711
 20
-104.631196
 10
-139.238793
 20
-104.640735
 10
-139.254886
 20
-104.649201
 10
-139.27094
 20
-104.656656
 10
-139.286909
 20
-104.663162
 10
-139.302745
 20
-104.668781
 10
-139.318399
 20
-104.673572
 10
-139.333824
 20
-104.677599
 10
-139.348972
 20
-104.680922
 10
-139.363795
 20
-104.683604
 10
-139.378245
 20
-104.685705
 10
-139.392273
 20
-104.687287
 10
-139.405834
 20
-104.688412
 10
-139.418877
 20
-104.689141
 10
-139.431356
 20
-104.689536
 10
-139.443222
 20
-104.689657
 10
-139.454428
 20
-104.689568
 10
-139.464926
 20
-104.689329
 10
-139.474668
 20
-104.689001
 10
-139.540403
 20
-104.686332
 10
-139.54048
 20
-104.686329
 10
-139.541022
 20
-104.686307
 10
-139.542494
 20
-104.686246
 10
-139.545359
 20
-104.686129
 10
-139.550082
 20
-104.685936
 10
-139.557129
 20
-104.685648
 10
-139.566963
 20
-104.685246
 10
-139.58005
 20
-104.68471
 10
-139.596853
 20
-104.684023
 10
-139.617838
 20
-104.683165
 10
-139.643469
 20
-104.682116
 10
-139.674211
 20
-104.680859
 10
-139.710528
 20
-104.679373
 10
-139.752885
 20
-104.67764
 10
-139.801746
 20
-104.675642
 10
-139.857577
 20
-104.673358
 10
-139.920841
 20
-104.67077
 10
-139.992004
 20
-104.667859
 10
-140.07153
 20
-104.664606
 10
-140.159883
 20
-104.660992
 10
-140.257296
 20
-104.657008
 10
-140.363073
 20
-104.652681
 10
-140.476283
 20
-104.64805
 10
-140.595997
 20
-104.643153
 10
-140.721287
 20
-104.638028
 10
-140.851223
 20
-104.632713
 10
-140.984876
 20
-104.627246
 10
-141.121316
 20
-104.621665
 10
-141.259615
 20
-104.616008
 10
-141.398843
 20
-104.610313
 10
-141.538071
 20
-104.604618
 10
-141.67637
 20
-104.598961
 10
-141.812811
 20
-104.593379
 10
-141.946464
 20
-104.587912
 10
-142.0764
 20
-104.582597
 10
-142.201689
 20
-104.577472
 10
-142.321404
 20
-104.572576
 10
-142.434614
 20
-104.567945
 10
-142.54039
 20
-104.563618
 10
-142.637803
 20
-104.559633
 10
-142.726157
 20
-104.556019
 10
-142.805683
 20
-104.552766
 10
-142.876845
 20
-104.549855
 10
-142.94011
 20
-104.547267
 10
-142.99594
 20
-104.544984
 10
-143.044802
 20
-104.542985
 10
-143.087159
 20
-104.541252
 10
-143.123476
 20
-104.539767
 10
-143.154218
 20
-104.538509
 10
-143.179849
 20
-104.537461
 10
-143.200833
 20
-104.536603
 10
-143.217637
 20
-104.535915
 10
-143.230723
 20
-104.53538
 10
-143.240558
 20
-104.534978
 10
-143.247604
 20
-104.534689
 10
-143.252328
 20
-104.534496
 10
-143.255193
 20
-104.534379
 10
-143.256664
 20
-104.534319
 10
-143.257206
 20
-104.534297
 10
-143.257284
 20
-104.534294
 10
-143.288493
 20
-104.533012
 10
-143.293404
 20
-104.532807
 10
-143.298757
 20
-104.532567
 10
-143.304525
 20
-104.532273
 10
-143.310681
 20
-104.53191
 10
-143.317199
 20
-104.531461
 10
-143.324052
 20
-104.530908
 10
-143.331214
 20
-104.530235
 10
-143.338658
 20
-104.529425
 10
-143.346358
 20
-104.528462
 10
-143.354287
 20
-104.527328
 10
-143.362418
 20
-104.526007
 10
-143.370725
 20
-104.524482
 10
-143.379181
 20
-104.522736
 10
-143.38776
 20
-104.520752
 10
-143.396436
 20
-104.518514
 10
-143.405181
 20
-104.516005
 10
-143.413969
 20
-104.513207
 10
-143.422773
 20
-104.510105
 10
-143.431567
 20
-104.506681
 10
-143.440325
 20
-104.502919
 10
-143.449023
 20
-104.498805
 10
-143.457654
 20
-104.494344
 10
-143.466214
 20
-104.489543
 10
-143.474698
 20
-104.48441
 10
-143.483103
 20
-104.478953
 10
-143.491425
 20
-104.473179
 10
-143.49966
 20
-104.467097
 10
-143.507803
 20
-104.460714
 10
-143.515851
 20
-104.454038
 10
-143.5238
 20
-104.447077
 10
-143.531646
 20
-104.439838
 10
-143.539385
 20
-104.43233
 10
-143.547012
 20
-104.42456
 10
-143.554524
 20
-104.416535
 10
-143.561917
 20
-104.408265
 10
-143.569186
 20
-104.399755
 10
-143.576328
 20
-104.391015
 10
-143.583339
 20
-104.382052
 10
-143.590215
 20
-104.372874
 10
-143.596952
 20
-104.363488
 10
-143.603545
 20
-104.353908
 10
-143.609989
 20
-104.344166
 10
-143.616278
 20
-104.334303
 10
-143.622405
 20
-104.324356
 10
-143.628366
 20
-104.314364
 10
-143.634154
 20
-104.304366
 10
-143.639763
 20
-104.2944
 10
-143.645188
 20
-104.284505
 10
-143.650422
 20
-104.274721
 10
-143.65546
 20
-104.265085
 10
-143.660295
 20
-104.255636
 10
-143.664921
 20
-104.246413
 10
-143.669334
 20
-104.237455
 10
-143.673526
 20
-104.2288
 10
-143.677492
 20
-104.220487
 10
-143.681226
 20
-104.212555
 10
-143.684722
 20
-104.205042
 10
-143.687974
 20
-104.197987
 10
-143.690976
 20
-104.19143
 10
-143.711167
 20
-104.147129
 10
-143.711171
 20
-104.147247
 10
-143.711205
 20
-104.148072
 10
-143.711297
 20
-104.150311
 10
-143.711475
 20
-104.154671
 10
-143.711769
 20
-104.161859
 10
-143.712208
 20
-104.172583
 10
-143.71282
 20
-104.187549
 10
-143.713635
 20
-104.207464
 10
-143.714681
 20
-104.233036
 10
-143.715988
 20
-104.264971
 10
-143.717583
 20
-104.303977
 10
-143.719497
 20
-104.35076
 10
-143.721758
 20
-104.406028
 10
-143.724395
 20
-104.470488
 10
-143.727437
 20
-104.544846
 10
-143.730913
 20
-104.62981
 10
-143.734852
 20
-104.726087
 10
-143.739282
 20
-104.834384
 10
-143.744234
 20
-104.955408
 10
-143.749734
 20
-105.089866
 10
-143.755799
 20
-105.238112
 10
-143.762384
 20
-105.399084
 10
-143.769433
 20
-105.571369
 10
-143.776886
 20
-105.753553
 10
-143.784686
 20
-105.944222
 10
-143.792776
 20
-106.141961
 10
-143.801097
 20
-106.345357
 10
-143.809591
 20
-106.552995
 10
-143.818202
 20
-106.763461
 10
-143.82687
 20
-106.975341
 10
-143.835538
 20
-107.187221
 10
-143.844148
 20
-107.397687
 10
-143.852642
 20
-107.605325
 10
-143.860963
 20
-107.808721
 10
-143.869053
 20
-108.00646
 10
-143.876853
 20
-108.197129
 10
-143.884307
 20
-108.379313
 10
-143.891355
 20
-108.551598
 10
-143.89794
 20
-108.712571
 10
-143.904005
 20
-108.860816
 10
-143.909506
 20
-108.995274
 10
-143.914457
 20
-109.116298
 10
-143.918887
 20
-109.224595
 10
-143.922826
 20
-109.320872
 10
-143.926302
 20
-109.405836
 10
-143.929344
 20
-109.480194
 10
-143.931981
 20
-109.544654
 10
-143.934242
 20
-109.599922
 10
-143.936156
 20
-109.646705
 10
-143.937752
 20
-109.685711
 10
-143.939058
 20
-109.717646
 10
-143.940104
 20
-109.743218
 10
-143.940919
 20
-109.763134
 10
-143.941531
 20
-109.7781
 10
-143.94197
 20
-109.788823
 10
-143.942264
 20
-109.796012
 10
-143.942442
 20
-109.800372
 10
-143.942534
 20
-109.802611
 10
-143.942568
 20
-109.803436
 10
-143.942573
 20
-109.803553
 10
-143.972294
 20
-110.530758
 10
-143.977045
 20
-110.645183
 10
-143.982662
 20
-110.769852
 10
-143.989564
 20
-110.904104
 10
-143.998172
 20
-111.047275
 10
-144.008905
 20
-111.198703
 10
-144.022184
 20
-111.357724
 10
-144.038427
 20
-111.523675
 10
-144.058055
 20
-111.695895
 10
-144.081488
 20
-111.873719
 10
-144.109146
 20
-112.056485
 10
-144.141449
 20
-112.243531
 10
-144.178815
 20
-112.434192
 10
-144.221666
 20
-112.627807
 10
-144.270422
 20
-112.823712
 10
-144.325501
 20
-113.021244
 10
-144.387324
 20
-113.219741
 10
-144.456311
 20
-113.418539
 10
-144.532882
 20
-113.616976
 10
-144.617456
 20
-113.814389
 10
-144.710453
 20
-114.010115
 10
-144.812164
 20
-114.203546
 10
-144.922357
 20
-114.394294
 10
-145.04067
 20
-114.582027
 10
-145.166743
 20
-114.766412
 10
-145.300214
 20
-114.947116
 10
-145.440722
 20
-115.123807
 10
-145.587905
 20
-115.296151
 10
-145.741403
 20
-115.463817
 10
-145.900854
 20
-115.626472
 10
-146.065897
 20
-115.783783
 10
-146.23617
 20
-115.935417
 10
-146.411312
 20
-116.081042
 10
-146.590963
 20
-116.220325
 10
-146.77476
 20
-116.352933
 10
-146.962342
 20
-116.478534
 10
-147.153349
 20
-116.596796
 10
-147.347418
 20
-116.707384
 10
-147.544189
 20
-116.809967
 10
-147.743301
 20
-116.904212
 10
-147.944391
 20
-116.989787
 10
-148.147055
 20
-117.066493
 10
-148.35071
 20
-117.134668
 10
-148.554731
 20
-117.194784
 10
-148.75849
 20
-117.247314
 10
-148.961363
 20
-117.292731
 10
-149.162722
 20
-117.331507
 10
-149.361941
 20
-117.364114
 10
-149.558395
 20
-117.391024
 10
-149.751457
 20
-117.412711
 10
-149.9405
 20
-117.429647
 10
-150.124898
 20
-117.442303
 10
-150.304026
 20
-117.451153
 10
-150.477257
 20
-117.456668
 10
-150.643965
 20
-117.459322
 10
-150.803523
 20
-117.459586
 10
-150.955305
 20
-117.457934
 10
-151.098686
 20
-117.454837
 10
-151.233038
 20
-117.450768
 10
-151.357736
 20
-117.446199
 10
-152.199276
 20
-117.411923
 10
-152.201248
 20
-117.411842
 10
-152.215053
 20
-117.411278
 10
-152.252524
 20
-117.409745
 10
-152.325493
 20
-117.406759
 10
-152.445793
 20
-117.401838
 10
-152.625258
 20
-117.394495
 10
-152.875719
 20
-117.384248
 10
-153.209011
 20
-117.370612
 10
-153.636965
 20
-117.353104
 10
-154.171414
 20
-117.331238
 10
-154.824192
 20
-117.304531
 10
-155.607131
 20
-117.272499
 10
-156.532064
 20
-117.234658
 10
-157.610824
 20
-117.190523
 10
-158.855243
 20
-117.139611
 10
-160.277155
 20
-117.081437
 10
-161.888392
 20
-117.015517
 10
-163.700787
 20
-116.941367
 10
-165.726173
 20
-116.858504
 10
-167.976383
 20
-116.766442
 10
-170.457333
 20
-116.66494
 10
-173.151274
 20
-116.554724
 10
-176.034541
 20
-116.436762
 10
-179.083467
 20
-116.312023
 10
-182.274387
 20
-116.181475
 10
-185.583635
 20
-116.046085
 10
-188.987546
 20
-115.906822
 10
-192.462454
 20
-115.764655
 10
-195.984693
 20
-115.620551
 10
-199.530598
 20
-115.475479
 10
-203.076503
 20
-115.330408
 10
-206.598742
 20
-115.186304
 10
-210.07365
 20
-115.044137
 10
-213.477561
 20
-114.904874
 10
-216.786809
 20
-114.769484
 10
-219.977729
 20
-114.638936
 10
-223.026655
 20
-114.514197
 10
-225.909921
 20
-114.396235
 10
-228.603862
 20
-114.286019
 10
-231.084813
 20
-114.184517
 10
-233.335023
 20
-114.092455
 10
-235.360409
 20
-114.009592
 10
-237.172804
 20
-113.935442
 10
-238.784041
 20
-113.869522
 10
-240.205953
 20
-113.811348
 10
-241.450372
 20
-113.760436
 10
-242.529132
 20
-113.716301
 10
-243.454065
 20
-113.67846
 10
-244.237004
 20
-113.646428
 10
-244.889782
 20
-113.619721
 10
-245.424231
 20
-113.597855
 10
-245.852185
 20
-113.580347
 10
-246.185476
 20
-113.566711
 10
-246.435938
 20
-113.556464
 10
-246.615403
 20
-113.549121
 10
-246.735703
 20
-113.5442
 10
-246.808672
 20
-113.541214
 10
-246.846143
 20
-113.539681
 10
-246.859948
 20
-113.539116
 10
-246.86192
 20
-113.539036
 10
-247.589042
 20
-113.509356
 10
-247.703454
 20
-113.504611
 10
-247.828109
 20
-113.499001
 10
-247.962346
 20
-113.492106
 10
-248.105501
 20
-113.483507
 10
-248.256913
 20
-113.472782
 10
-248.415917
 20
-113.459512
 10
-248.581853
 20
-113.443278
 10
-248.754056
 20
-113.423659
 10
-248.931864
 20
-113.400235
 10
-249.114614
 20
-113.372586
 10
-249.301644
 20
-113.340293
 10
-249.492291
 20
-113.302936
 10
-249.685893
 20
-113.260094
 10
-249.881785
 20
-113.211347
 10
-250.079307
 20
-113.156277
 10
-250.277795
 20
-113.094462
 10
-250.476585
 20
-113.025483
 10
-250.675017
 20
-112.94892
 10
-250.872426
 20
-112.864353
 10
-251.068151
 20
-112.771362
 10
-251.261583
 20
-112.669657
 10
-251.452335
 20
-112.559469
 10
-251.640073
 20
-112.44116
 10
-251.824465
 20
-112.315091
 10
-252.005177
 20
-112.181623
 10
-252.181878
 20
-112.041117
 10
-252.354234
 20
-111.893934
 10
-252.521911
 20
-111.740436
 10
-252.684578
 20
-111.580984
 10
-252.841902
 20
-111.415939
 10
-252.993548
 20
-111.245662
 10
-253.139185
 20
-111.070514
 10
-253.27848
 20
-110.890858
 10
-253.411099
 20
-110.707053
 10
-253.53671
 20
-110.519461
 10
-253.654979
 20
-110.328444
 10
-253.765575
 20
-110.134362
 10
-253.868164
 20
-109.937577
 10
-253.962412
 20
-109.738449
 10
-254.047988
 20
-109.537341
 10
-254.124693
 20
-109.334658
 10
-254.192864
 20
-109.130982
 10
-254.252975
 20
-108.926938
 10
-254.305498
 20
-108.723155
 10
-254.350905
 20
-108.520257
 10
-254.38967
 20
-108.318872
 10
-254.422265
 20
-108.119626
 10
-254.449162
 20
-107.923145
 10
-254.470835
 20
-107.730056
 10
-254.487755
 20
-107.540985
 10
-254.500395
 20
-107.356558
 10
-254.509229
 20
-107.177403
 10
-254.514728
 20
-107.004144
 10
-254.517365
 20
-106.83741
 10
-254.517613
 20
-106.677826
 10
-254.515945
 20
-106.526018
 10
-254.512832
 20
-106.382614
 10
-254.508748
 20
-106.248239
 10
-254.504165
 20
-106.12352
 10
-254.469794
 20
-105.281836
 10
-254.469789
 20
-105.28172
 10
-254.469756
 20
-105.280909
 10
-254.469666
 20
-105.278705
 10
-254.46949
 20
-105.274413
 10
-254.469201
 20
-105.267337
 10
-254.46877
 20
-105.256782
 10
-254.468168
 20
-105.242051
 10
-254.467368
 20
-105.222448
 10
-254.466339
 20
-105.197278
 10
-254.465055
 20
-105.165844
 10
-254.463487
 20
-105.127451
 10
-254.461606
 20
-105.081402
 10
-254.459384
 20
-105.027001
 10
-254.456792
 20
-104.963553
 10
-254.453802
 20
-104.890362
 10
-254.450386
 20
-104.806732
 10
-254.446514
 20
-104.711966
 10
-254.44216
 20
-104.605369
 10
-254.437294
 20
-104.486245
 10
-254.431887
 20
-104.353898
 10
-254.425927
 20
-104.207979
 10
-254.419454
 20
-104.049534
 10
-254.412527
 20
-103.879953
 10
-254.405201
 20
-103.700629
 10
-254.397535
 20
-103.512953
 10
-254.389584
 20
-103.318318
 10
-254.381406
 20
-103.118115
 10
-254.373057
 20
-102.913737
 10
-254.364594
 20
-102.706575
 10
-254.356075
 20
-102.49802
 10
-254.347555
 20
-102.289466
 10
-254.339093
 20
-102.082304
 10
-254.330744
 20
-101.877925
 10
-254.322566
 20
-101.677723
 10
-254.314615
 20
-101.483087
 10
-254.306948
 20
-101.295412
 10
-254.299623
 20
-101.116088
 10
-254.292696
 20
-100.946507
 10
-254.286223
 20
-100.788061
 10
-254.280262
 20
-100.642143
 10
-254.274856
 20
-100.509796
 10
-254.26999
 20
-100.390672
 10
-254.265635
 20
-100.284075
 10
-254.261764
 20
-100.189309
 10
-254.258348
 20
-100.105678
 10
-254.255358
 20
-100.032487
 10
-254.252766
 20
-99.969039
 10
-254.250544
 20
-99.914639
 10
-254.248663
 20
-99.86859
 10
-254.247094
 20
-99.830197
 10
-254.24581
 20
-99.798763
 10
-254.244782
 20
-99.773592
 10
-254.243981
 20
-99.75399
 10
-254.24338
 20
-99.739259
 10
-254.242948
 20
-99.728703
 10
-254.242659
 20
-99.721628
 10
-254.242484
 20
-99.717336
 10
-254.242394
 20
-99.715132
 10
-254.242361
 20
-99.71432
 10
-254.242356
 20
-99.714204
 10
-254.281337
 20
-99.741528
 10
-254.287472
 20
-99.745827
 10
-254.294167
 20
-99.750506
 10
-254.301394
 20
-99.755538
 10
-254.309129
 20
-99.760892
 10
-254.317346
 20
-99.76654
 10
-254.326019
 20
-99.772453
 10
-254.335122
 20
-99.778601
 10
-254.344629
 20
-99.784956
 10
-254.354516
 20
-99.791489
 10
-254.364756
 20
-99.798171
 10
-254.375323
 20
-99.804972
 10
-254.386192
 20
-99.811864
 10
-254.397336
 20
-99.818817
 10
-254.408731
 20
-99.825803
 10
-254.42035
 20
-99.832793
 10
-254.432168
 20
-99.839757
 10
-254.44416
 20
-99.846667
 10
-254.456298
 20
-99.853494
 10
-254.468558
 20
-99.860208
 10
-254.480913
 20
-99.86678
 10
-254.493341
 20
-99.873186
 10
-254.505822
 20
-99.879417
 10
-254.518341
 20
-99.885469
 10
-254.530882
 20
-99.891338
 10
-254.543428
 20
-99.897019
 10
-254.555963
 20
-99.902508
 10
-254.568471
 20
-99.9078
 10
-254.580937
 20
-99.912892
 10
-254.593343
 20
-99.917779
 10
-254.605674
 20
-99.922456
 10
-254.617914
 20
-99.92692
 10
-254.630046
 20
-99.931166
 10
-254.642054
 20
-99.93519
 10
-254.653922
 20
-99.938987
 10
-254.665635
 20
-99.942553
 10
-254.677175
 20
-99.945884
 10
-254.688526
 20
-99.948976
 10
-254.699673
 20
-99.951824
 10
-254.7106
 20
-99.954424
 10
-254.72129
 20
-99.956771
 10
-254.731728
 20
-99.958865
 10
-254.741905
 20
-99.960716
 10
-254.751815
 20
-99.962337
 10
-254.761449
 20
-99.963743
 10
-254.770801
 20
-99.964947
 10
-254.779863
 20
-99.965963
 10
-254.788627
 20
-99.966804
 10
-254.797086
 20
-99.967485
 10
-254.805232
 20
-99.968018
 10
-254.813058
 20
-99.968418
 10
-254.820557
 20
-99.968698
 10
-254.827721
 20
-99.968873
 10
-254.834543
 20
-99.968955
 10
-254.841015
 20
-99.968959
 10
-254.84713
 20
-99.968897
 10
-254.852881
 20
-99.968785
 10
-254.858259
 20
-99.968635
 10
-254.863258
 20
-99.968461
 10
-254.86787
 20
-99.968278
 10
-254.898874
 20
-99.96694
 10
-254.898952
 20
-99.966937
 10
-254.899494
 20
-99.966915
 10
-254.900965
 20
-99.966855
 10
-254.90383
 20
-99.966738
 10
-254.908554
 20
-99.966545
 10
-254.9156
 20
-99.966257
 10
-254.925435
 20
-99.965856
 10
-254.938521
 20
-99.965321
 10
-254.955324
 20
-99.964635
 10
-254.976309
 20
-99.963778
 10
-255.00194
 20
-99.962731
 10
-255.032682
 20
-99.961476
 10
-255.068999
 20
-99.959993
 10
-255.111356
 20
-99.958263
 10
-255.160218
 20
-99.956268
 10
-255.216048
 20
-99.953987
 10
-255.279313
 20
-99.951404
 10
-255.350475
 20
-99.948498
 10
-255.430001
 20
-99.94525
 10
-255.518354
 20
-99.941642
 10
-255.615768
 20
-99.937664
 10
-255.721544
 20
-99.933344
 10
-255.834754
 20
-99.928721
 10
-255.954468
 20
-99.923832
 10
-256.079758
 20
-99.918715
 10
-256.209694
 20
-99.913409
 10
-256.343347
 20
-99.907951
 10
-256.479788
 20
-99.902379
 10
-256.618087
 20
-99.896731
 10
-256.757315
 20
-99.891045
 10
-256.896543
 20
-99.885359
 10
-257.034842
 20
-99.879711
 10
-257.171282
 20
-99.874139
 10
-257.304935
 20
-99.868681
 10
-257.434871
 20
-99.863375
 10
-257.560161
 20
-99.858258
 10
-257.679875
 20
-99.853369
 10
-257.793085
 20
-99.848746
 10
-257.898862
 20
-99.844426
 10
-257.996275
 20
-99.840448
 10
-258.084628
 20
-99.83684
 10
-258.164154
 20
-99.833592
 10
-258.235317
 20
-99.830686
 10
-258.298581
 20
-99.828103
 10
-258.354412
 20
-99.825823
 10
-258.403273
 20
-99.823827
 10
-258.44563
 20
-99.822097
 10
-258.481947
 20
-99.820614
 10
-258.512689
 20
-99.819359
 10
-258.53832
 20
-99.818312
 10
-258.559305
 20
-99.817455
 10
-258.576108
 20
-99.816769
 10
-258.589195
 20
-99.816235
 10
-258.599029
 20
-99.815833
 10
-258.606076
 20
-99.815545
 10
-258.610799
 20
-99.815352
 10
-258.613664
 20
-99.815235
 10
-258.615135
 20
-99.815175
 10
-258.615678
 20
-99.815153
 10
-258.615755
 20
-99.81515
 10
-258.672635
 20
-99.812835
 10
-258.681585
 20
-99.812461
 10
-258.691335
 20
-99.811995
 10
-258.701832
 20
-99.811379
 10
-258.713024
 20
-99.810556
 10
-258.724856
 20
-99.809469
 10
-258.737277
 20
-99.80806
 10
-258.750234
 20
-99.806271
 10
-258.763672
 20
-99.804046
 10
-258.77754
 20
-99.801327
 10
-258.791785
 20
-99.798057
 10
-258.806352
 20
-99.794178
 10
-258.82119
 20
-99.789632
 10
-258.836246
 20
-99.784362
 10
-258.851465
 20
-99.778312
 10
-258.866797
 20
-99.771423
 10
-258.882186
 20
-99.763638
 10
-258.897582
 20
-99.754899
 10
-258.912929
 20
-99.74515
 10
-258.928176
 20
-99.734332
 10
-258.94327
 20
-99.722389
 10
-258.958162
 20
-99.70928
 10
-258.972822
 20
-99.695036
 10
-258.987226
 20
-99.679702
 10
-259.001349
 20
-99.663328
 10
-259.015165
 20
-99.64596
 10
-259.028649
 20
-99.627645
 10
-259.041777
 20
-99.60843
 10
-259.054524
 20
-99.588364
 10
-259.066865
 20
-99.567492
 10
-259.078774
 20
-99.545863
 10
-259.090226
 20
-99.523524
 10
-259.101198
 20
-99.500522
 10
-259.111663
 20
-99.476904
 10
-259.121596
 20
-99.452718
 10
-259.130973
 20
-99.42801
 10
-259.139769
 20
-99.402829
 10
-259.147959
 20
-99.377221
 10
-259.155518
 20
-99.351234
 10
-259.16242
 20
-99.324914
 10
-259.168641
 20
-99.29831
 10
-259.174166
 20
-99.271475
 10
-259.179023
 20
-99.244487
 10
-259.183251
 20
-99.21743
 10
-259.186887
 20
-99.19039
 10
-259.18997
 20
-99.163451
 10
-259.192538
 20
-99.136698
 10
-259.19463
 20
-99.110215
 10
-259.196284
 20
-99.084087
 10
-259.197537
 20
-99.058399
 10
-259.198429
 20
-99.033235
 10
-259.198998
 20
-99.00868
 10
-259.199282
 20
-98.984818
 10
-259.199318
 20
-98.961735
 10
-259.199147
 20
-98.939514
 10
-259.198805
 20
-98.918241
 10
-259.198331
 20
-98.898
 10
-259.197763
 20
-98.878876
 10
-259.197141
 20
-98.860953
 10
-259.196501
 20
-98.844316
 10
-259.191914
 20
-98.732031
 10
-259.191885
 20
-98.731337
 10
-259.191687
 20
-98.726478
 10
-259.191147
 20
-98.71329
 10
-259.190097
 20
-98.687609
 10
-259.188365
 20
-98.645269
 10
-259.185782
 20
-98.582106
 10
-259.182176
 20
-98.493955
 10
-259.177379
 20
-98.376652
 10
-259.171219
 20
-98.226033
 10
-259.163525
 20
-98.037932
 10
-259.154129
 20
-97.808185
 10
-259.142859
 20
-97.532628
 10
-259.129544
 20
-97.207096
 10
-259.114016
 20
-96.827423
 10
-259.096103
 20
-96.389447
 10
-259.075635
 20
-95.889002
 10
-259.052442
 20
-95.321923
 10
-259.026353
 20
-94.684046
 10
-258.997198
 20
-93.971206
 10
-258.964807
 20
-93.179239
 10
-258.929094
 20
-92.306062
 10
-258.890316
 20
-91.357923
 10
-258.848812
 20
-90.34315
 10
-258.804924
 20
-89.270073
 10
-258.758991
 20
-88.147021
 10
-258.711355
 20
-86.982323
 10
-258.662357
 20
-85.784308
 10
-258.612337
 20
-84.561306
 10
-258.561635
 20
-83.321645
 10
-258.510593
 20
-82.073655
 10
-258.459551
 20
-80.825665
 10
-258.408849
 20
-79.586004
 10
-258.358829
 20
-78.363002
 10
-258.309831
 20
-77.164987
 10
-258.262195
 20
-76.000288
 10
-258.216262
 20
-74.877236
 10
-258.172374
 20
-73.804159
 10
-258.13087
 20
-72.789386
 10
-258.092092
 20
-71.841247
 10
-258.056379
 20
-70.968071
 10
-258.023988
 20
-70.176104
 10
-257.994833
 20
-69.463264
 10
-257.968744
 20
-68.825387
 10
-257.945551
 20
-68.258308
 10
-257.925083
 20
-67.757863
 10
-257.90717
 20
-67.319886
 10
-257.891642
 20
-66.940214
 10
-257.878327
 20
-66.614682
 10
-257.867057
 20
-66.339124
 10
-257.857661
 20
-66.109378
 10
-257.849967
 20
-65.921277
 10
-257.843807
 20
-65.770657
 10
-257.83901
 20
-65.653355
 10
-257.835404
 20
-65.565204
 10
-257.832821
 20
-65.502041
 10
-257.831089
 20
-65.459701
 10
-257.830039
 20
-65.434019
 10
-257.829499
 20
-65.420831
 10
-257.829301
 20
-65.415973
 10
-257.829272
 20
-65.415279
 10
-257.825304
 20
-65.318301
 10
-257.824674
 20
-65.303042
 10
-257.823953
 20
-65.286415
 10
-257.823109
 20
-65.268509
 10
-257.822113
 20
-65.24941
 10
-257.820931
 20
-65.229206
 10
-257.819534
 20
-65.207984
 10
-257.817889
 20
-65.185832
 10
-257.815965
 20
-65.162838
 10
-257.813731
 20
-65.139087
 10
-257.811156
 20
-65.114669
 10
-257.808209
 20
-65.08967
 10
-257.804857
 20
-65.064177
 10
-257.80107
 20
-65.038279
 10
-257.796816
 20
-65.012062
 10
-257.792065
 20
-64.985615
 10
-257.786784
 20
-64.959023
 10
-257.780943
 20
-64.932375
 10
-257.77451
 20
-64.905758
 10
-257.767454
 20
-64.87926
 10
-257.759743
 20
-64.852968
 10
-257.751357
 20
-64.826962
 10
-257.742313
 20
-64.801294
 10
-257.732642
 20
-64.77601
 10
-257.722372
 20
-64.751155
 10
-257.711532
 20
-64.726773
 10
-257.700151
 20
-64.70291
 10
-257.688258
 20
-64.679612
 10
-257.675882
 20
-64.656923
 10
-257.663052
 20
-64.634888
 10
-257.649796
 20
-64.613553
 10
-257.636145
 20
-64.592962
 10
-257.622126
 20
-64.573162
 10
-257.607769
 20
-64.554196
 10
-257.593102
 20
-64.53611
 10
-257.578155
 20
-64.51895
 10
-257.562957
 20
-64.50276
 10
-257.547536
 20
-64.487586
 10
-257.531921
 20
-64.473472
 10
-257.516142
 20
-64.460464
 10
-257.500228
 20
-64.448607
 10
-257.48421
 20
-64.437928
 10
-257.468133
 20
-64.428384
 10
-257.452045
 20
-64.419913
 10
-257.435995
 20
-64.412453
 10
-257.42003
 20
-64.405944
 10
-257.404197
 20
-64.400322
 10
-257.388546
 20
-64.395528
 10
-257.373123
 20
-64.391499
 10
-257.357978
 20
-64.388173
 10
-257.343157
 20
-64.38549
 10
-257.328708
 20
-64.383388
 10
-257.31468
 20
-64.381804
 10
-257.301121
 20
-64.380678
 10
-257.288078
 20
-64.379949
 10
-257.2756
 20
-64.379554
 10
-257.263734
 20
-64.379431
 10
-257.252528
 20
-64.379521
 10
-257.24203
 20
-64.37976
 10
-257.232288
 20
-64.380087
 10
-257.166553
 20
-64.382757
 10
-257.166476
 20
-64.38276
 10
-257.165934
 20
-64.382782
 10
-257.164462
 20
-64.382842
 10
-257.161597
 20
-64.38296
 10
-257.156873
 20
-64.383153
 10
-257.149825
 20
-64.383442
 10
-257.13999
 20
-64.383845
 10
-257.126901
 20
-64.384381
 10
-257.110096
 20
-64.385069
 10
-257.089108
 20
-64.385929
 10
-257.063474
 20
-64.386979
 10
-257.032728
 20
-64.388239
 10
-256.996406
 20
-64.389727
 10
-256.954043
 20
-64.391462
 10
-256.905175
 20
-64.393464
 10
-256.849337
 20
-64.395752
 10
-256.786065
 20
-64.398344
 10
-256.714892
 20
-64.401259
 10
-256.635356
 20
-64.404518
 10
-256.546991
 20
-64.408138
 10
-256.449564
 20
-64.412129
 10
-256.343774
 20
-64.416463
 10
-256.230549
 20
-64.421101
 10
-256.110819
 20
-64.426006
 10
-255.985512
 20
-64.431139
 10
-255.855559
 20
-64.436463
 10
-255.721888
 20
-64.441939
 10
-255.585429
 20
-64.447529
 10
-255.447112
 20
-64.453195
 10
-255.307865
 20
-64.4589
 10
-255.168618
 20
-64.464604
 10
-255.030301
 20
-64.470271
 10
-254.893842
 20
-64.475861
 10
-254.760172
 20
-64.481337
 10
-254.630218
 20
-64.48666
 10
-254.504912
 20
-64.491794
 10
-254.385181
 20
-64.496699
 10
-254.271956
 20
-64.501337
 10
-254.166166
 20
-64.505671
 10
-254.06874
 20
-64.509662
 10
-253.980374
 20
-64.513282
 10
-253.900838
 20
-64.51654
 10
-253.829666
 20
-64.519456
 10
-253.766393
 20
-64.522048
 10
-253.710555
 20
-64.524335
 10
-253.661687
 20
-64.526337
 10
-253.619324
 20
-64.528073
 10
-253.583002
 20
-64.529561
 10
-253.552257
 20
-64.53082
 10
-253.526622
 20
-64.53187
 10
-253.505635
 20
-64.53273
 10
-253.488829
 20
-64.533419
 10
-253.475741
 20
-64.533955
 10
-253.465905
 20
-64.534358
 10
-253.458858
 20
-64.534646
 10
-253.454133
 20
-64.53484
 10
-253.451268
 20
-64.534957
 10
-253.449796
 20
-64.535018
 10
-253.449254
 20
-64.53504
 10
-253.449177
 20
-64.535043
 10
-253.42239
 20
-64.536118
 10
-253.418173
 20
-64.536289
 10
-253.413562
 20
-64.53649
 10
-253.408567
 20
-64.536733
 10
-253.403195
 20
-64.537031
 10
-253.397456
 20
-64.537397
 10
-253.391357
 20
-64.537844
 10
-253.384908
 20
-64.538386
 10
-253.378116
 20
-64.539035
 10
-253.370992
 20
-64.539804
 10
-253.363542
 20
-64.540706
 10
-253.355775
 20
-64.541755
 10
-253.347701
 20
-64.542963
 10
-253.339326
 20
-64.544344
 10
-253.330661
 20
-64.54591
 10
-253.321714
 20
-64.547674
 10
-253.312493
 20
-64.54965
 10
-253.303006
 20
-64.55185
 10
-253.293262
 20
-64.554288
 10
-253.283271
 20
-64.556976
 10
-253.273039
 20
-64.559928
 10
-253.262577
 20
-64.563153
 10
-253.2519
 20
-64.566649
 10
-253.241023
 20
-64.570411
 10
-253.229962
 20
-64.574431
 10
-253.218733
 20
-64.578706
 10
-253.207352
 20
-64.583228
 10
-253.195835
 20
-64.587993
 10
-253.184197
 20
-64.592994
 10
-253.172454
 20
-64.598226
 10
-253.160622
 20
-64.603684
 10
-253.148717
 20
-64.60936
 10
-253.136755
 20
-64.615251
 10
-253.124751
 20
-64.62135
 10
-253.112721
 20
-64.627651
 10
-253.100682
 20
-64.634149
 10
-253.088648
 20
-64.640838
 10
-253.076636
 20
-64.647712
 10
-253.064662
 20
-64.654766
 10
-253.052741
 20
-64.661993
 10
-253.040889
 20
-64.669389
 10
-253.029123
 20
-64.676943
 10
-253.017465
 20
-64.684629
 10
-253.005939
 20
-64.692415
 10
-252.994567
 20
-64.700271
 10
-252.983373
 20
-64.708166
 10
-252.972379
 20
-64.716069
 10
-252.961609
 20
-64.723949
 10
-252.951086
 20
-64.731776
 10
-252.940834
 20
-64.739518
 10
-252.930875
 20
-64.747145
 10
-252.921232
 20
-64.754625
 10
-252.911929
 20
-64.761928
 10
-252.902989
 20
-64.769023
 10
-252.894435
 20
-64.775879
 10
-252.886291
 20
-64.782465
 10
-252.878578
 20
-64.78875
 10
-252.871321
 20
-64.794704
 10
-252.864543
 20
-64.800295
 10
-252.858266
 20
-64.805493
 10
-252.815973
 20
-64.840608
 10
-252.815967
 20
-64.840459
 10
-252.815924
 20
-64.839416
 10
-252.815808
 20
-64.836584
 10
-252.815582
 20
-64.831069
 10
-252.81521
 20
-64.821977
 10
-252.814655
 20
-64.808414
 10
-252.81388
 20
-64.789485
 10
-252.812848
 20
-64.764296
 10
-252.811524
 20
-64.731953
 10
-252.80987
 20
-64.691561
 10
-252.80785
 20
-64.642227
 10
-252.805428
 20
-64.583055
 10
-252.802566
 20
-64.513153
 10
-252.799228
 20
-64.431624
 10
-252.795377
 20
-64.337576
 10
-252.790977
 20
-64.230113
 10
-252.785992
 20
-64.108342
 10
-252.780384
 20
-63.971368
 10
-252.774116
 20
-63.818297
 10
-252.767153
 20
-63.648235
 10
-252.759477
 20
-63.460734
 10
-252.751141
 20
-63.257137
 10
-252.742219
 20
-63.03923
 10
-252.732785
 20
-62.808804
 10
-252.722911
 20
-62.567647
 10
-252.712671
 20
-62.317547
 10
-252.702138
 20
-62.060292
 10
-252.691386
 20
-61.797672
 10
-252.680487
 20
-61.531475
 10
-252.669515
 20
-61.263489
 10
-252.658543
 20
-60.995503
 10
-252.647644
 20
-60.729306
 10
-252.636891
 20
-60.466685
 10
-252.626359
 20
-60.209431
 10
-252.616119
 20
-59.959331
 10
-252.606245
 20
-59.718173
 10
-252.596811
 20
-59.487747
 10
-252.587889
 20
-59.269841
 10
-252.579553
 20
-59.066243
 10
-252.571876
 20
-58.878742
 10
-252.564913
 20
-58.70868
 10
-252.558646
 20
-58.555609
 10
-252.553038
 20
-58.418636
 10
-252.548052
 20
-58.296864
 10
-252.543653
 20
-58.189402
 10
-252.539802
 20
-58.095353
 10
-252.536464
 20
-58.013825
 10
-252.533602
 20
-57.943922
 10
-252.531179
 20
-57.88475
 10
-252.529159
 20
-57.835416
 10
-252.527506
 20
-57.795024
 10
-252.526181
 20
-57.762681
 10
-252.52515
 20
-57.737492
 10
-252.524375
 20
-57.718563
 10
-252.52382
 20
-57.705
 10
-252.523448
 20
-57.695908
 10
-252.523222
 20
-57.690394
 10
-252.523106
 20
-57.687562
 10
-252.523063
 20
-57.686518
 10
-252.523057
 20
-57.686369
 10
-252.493253
 20
-56.959206
 10
-252.488489
 20
-56.844788
 10
-252.482858
 20
-56.720126
 10
-252.475941
 20
-56.585881
 10
-252.467317
 20
-56.442718
 10
-252.456568
 20
-56.291299
 10
-252.443273
 20
-56.132287
 10
-252.427013
 20
-55.966344
 10
-252.407369
 20
-55.794133
 10
-252.383919
 20
-55.616318
 10
-252.356246
 20
-55.433561
 10
-252.323928
 20
-55.246525
 10
-252.286547
 20
-55.055873
 10
-252.243683
 20
-54.862268
 10
-252.194915
 20
-54.666372
 10
-252.139825
 20
-54.468848
 10
-252.077993
 20
-54.270359
 10
-252.008998
 20
-54.071569
 10
-251.932422
 20
-53.873139
 10
-251.847844
 20
-53.675734
 10
-251.754845
 20
-53.480014
 10
-251.653136
 20
-53.286589
 10
-251.542947
 20
-53.095847
 10
-251.424639
 20
-52.908119
 10
-251.298573
 20
-52.723738
 10
-251.165111
 20
-52.543038
 10
-251.024613
 20
-52.36635
 10
-250.87744
 20
-52.194008
 10
-250.723954
 20
-52.026344
 10
-250.564515
 20
-51.863692
 10
-250.399485
 20
-51.706383
 10
-250.229224
 20
-51.55475
 10
-250.054094
 20
-51.409126
 10
-249.874455
 20
-51.269844
 10
-249.690669
 20
-51.137236
 10
-249.503096
 20
-51.011636
 10
-249.312098
 20
-50.893375
 10
-249.118036
 20
-50.782787
 10
-248.92127
 20
-50.680204
 10
-248.722162
 20
-50.585958
 10
-248.521073
 20
-50.500384
 10
-248.318408
 20
-50.423678
 10
-248.114749
 20
-50.355503
 10
-247.910723
 20
-50.295387
 10
-247.706956
 20
-50.242857
 10
-247.504074
 20
-50.19744
 10
-247.302704
 20
-50.158664
 10
-247.103473
 20
-50.126057
 10
-246.907006
 20
-50.099146
 10
-246.71393
 20
-50.07746
 10
-246.524871
 20
-50.060524
 10
-246.340457
 20
-50.047868
 10
-246.161313
 20
-50.039018
 10
-245.988066
 20
-50.033503
 10
-245.821342
 20
-50.030849
 10
-245.661767
 20
-50.030584
 10
-245.509969
 20
-50.032237
 10
-245.366572
 20
-50.035334
 10
-245.232205
 20
-50.039403
 10
-245.107493
 20
-50.043972
 10
-244.265858
 20
-50.078248
  0
LWPOLYLINE
  5
30
330
1F
100
AcDbEntity
  8
0
100
AcDbPolyline
 90
     1151
 70
   128
 43
0.0
 10
-296.98541
 20
-364.518283
 10
-296.769383
 20
-364.518515
 10
-296.73539
 20
-364.518543
 10
-296.698349
 20
-364.518523
 10
-296.65845
 20
-364.518405
 10
-296.615885
 20
-364.518137
 10
-296.570846
 20
-364.517668
 10
-296.523523
 20
-364.516947
 10
-296.474109
 20
-364.515923
 10
-296.422795
 20
-364.514544
 10
-296.369772
 20
-364.512761
 10
-296.315232
 20
-364.51052
 10
-296.259366
 20
-364.507772
 10
-296.202366
 20
-364.504466
 10
-296.144423
 20
-364.50055
 10
-296.085728
 20
-364.495972
 10
-296.026474
 20
-364.490683
 10
-295.966852
 20
-364.484631
 10
-295.907052
 20
-364.477765
 10
-295.847267
 20
-364.470033
 10
-295.787688
 20
-364.461385
 10
-295.728506
 20
-364.451769
 10
-295.669899
 20
-364.441094
 10
-295.611983
 20
-364.429101
 10
-295.554861
 20
-364.415494
 10
-295.498636
 20
-364.399973
 10
-295.443411
 20
-364.382241
 10
-295.389288
 20
-364.361999
 10
-295.33637
 20
-364.338949
 10
-295.28476
 20
-364.312793
 10
-295.23456
 20
-364.283232
 10
-295.185873
 20
-364.249969
 10
-295.138801
 20
-364.212704
 10
-295.093448
 20
-364.17114
 10
-295.049916
 20
-364.124979
 10
-295.008308
 20
-364.073923
 10
-294.968725
 20
-364.017672
 10
-294.931272
 20
-363.955929
 10
-294.89605
 20
-363.888396
 10
-294.863163
 20
-363.814775
 10
-294.832713
 20
-363.734766
 10
-294.804802
 20
-363.648073
 10
-294.779495
 20
-363.554571
 10
-294.756698
 20
-363.454834
 10
-294.736281
 20
-363.349613
 10
-294.71811
 20
-363.239655
 10
-294.702056
 20
-363.125711
 10
-294.687985
 20
-363.008528
 10
-294.675767
 20
-362.888857
 10
-294.66527
 20
-362.767446
 10
-294.656361
 20
-362.645045
 10
-294.64891
 20
-362.522402
 10
-294.642785
 20
-362.400266
 10
-294.637854
 20
-362.279388
 10
-294.633985
 20
-362.160515
 10
-294.631047
 20
-362.044396
 10
-294.628908
 20
-361.931782
 10
-294.627437
 20
-361.823421
 10
-294.626502
 20
-361.720061
 10
-294.62597
 20
-361.622453
 10
-294.625711
 20
-361.531346
 10
-294.624982
 20
-360.914259
 10
-294.624981
 20
-360.913281
 10
-294.624974
 20
-360.906433
 10
-294.624954
 20
-360.887846
 10
-294.624916
 20
-360.851649
 10
-294.624852
 20
-360.791974
 10
-294.624758
 20
-360.70295
 10
-294.624625
 20
-360.578707
 10
-294.62445
 20
-360.413377
 10
-294.624224
 20
-360.201089
 10
-294.623942
 20
-359.935973
 10
-294.623597
 20
-359.612161
 10
-294.623184
 20
-359.223781
 10
-294.622696
 20
-358.764965
 10
-294.622127
 20
-358.229842
 10
-294.62147
 20
-357.612544
 10
-294.62072
 20
-356.907199
 10
-294.61987
 20
-356.10794
 10
-294.618913
 20
-355.208895
 10
-294.617845
 20
-354.204195
 10
-294.616657
 20
-353.08797
 10
-294.615348
 20
-351.857286
 10
-294.613927
 20
-350.520947
 10
-294.612405
 20
-349.090693
 10
-294.610797
 20
-347.578262
 10
-294.609113
 20
-345.995395
 10
-294.607367
 20
-344.353831
 10
-294.605571
 20
-342.665309
 10
-294.603737
 20
-340.941569
 10
-294.601878
 20
-339.19435
 10
-294.600007
 20
-337.435392
 10
-294.598136
 20
-335.676433
 10
-294.596278
 20
-333.929214
 10
-294.594444
 20
-332.205474
 10
-294.592648
 20
-330.516952
 10
-294.590902
 20
-328.875388
 10
-294.589218
 20
-327.292521
 10
-294.587609
 20
-325.78009
 10
-294.586088
 20
-324.349836
 10
-294.584666
 20
-323.013497
 10
-294.583357
 20
-321.782813
 10
-294.58217
 20
-320.666588
 10
-294.581101
 20
-319.661888
 10
-294.580145
 20
-318.762844
 10
-294.579295
 20
-317.963584
 10
-294.578544
 20
-317.258239
 10
-294.577888
 20
-316.640941
 10
-294.577319
 20
-316.105818
 10
-294.576831
 20
-315.647002
 10
-294.576417
 20
-315.258622
 10
-294.576073
 20
-314.93481
 10
-294.575791
 20
-314.669694
 10
-294.575565
 20
-314.457406
 10
-294.575389
 20
-314.292076
 10
-294.575257
 20
-314.167833
 10
-294.575162
 20
-314.078809
 10
-294.575099
 20
-314.019134
 10
-294.57506
 20
-313.982937
 10
-294.575041
 20
-313.96435
 10
-294.575033
 20
-313.957502
 10
-294.575032
 20
-313.956524
 10
-294.449789
 20
-314.021722
 10
-294.430077
 20
-314.031979
 10
-294.408567
 20
-314.043145
 10
-294.385341
 20
-314.055148
 10
-294.360481
 20
-314.067918
 10
-294.334067
 20
-314.081387
 10
-294.306181
 20
-314.095484
 10
-294.276904
 20
-314.110138
 10
-294.246317
 20
-314.12528
 10
-294.214503
 20
-314.14084
 10
-294.181541
 20
-314.156747
 10
-294.147513
 20
-314.172932
 10
-294.112501
 20
-314.189325
 10
-294.076586
 20
-314.205855
 10
-294.03985
 20
-314.222452
 10
-294.002372
 20
-314.239047
 10
-293.964236
 20
-314.25557
 10
-293.925522
 20
-314.27195
 10
-293.886311
 20
-314.288118
 10
-293.846684
 20
-314.304002
 10
-293.806724
 20
-314.319534
 10
-293.766499
 20
-314.334654
 10
-293.726027
 20
-314.349345
 10
-293.685315
 20
-314.3636
 10
-293.644371
 20
-314.377412
 10
-293.603199
 20
-314.390776
 10
-293.561808
 20
-314.403685
 10
-293.520203
 20
-314.416131
 10
-293.47839
 20
-314.42811
 10
-293.436377
 20
-314.439613
 10
-293.39417
 20
-314.450635
 10
-293.351775
 20
-314.461169
 10
-293.309199
 20
-314.471208
 10
-293.266448
 20
-314.480747
 10
-293.22353
 20
-314.489778
 10
-293.180449
 20
-314.498295
 10
-293.137213
 20
-314.506292
 10
-293.093829
 20
-314.513761
 10
-293.050303
 20
-314.520697
 10
-293.006641
 20
-314.527093
 10
-292.96285
 20
-314.532942
 10
-292.918954
 20
-314.538243
 10
-292.875056
 20
-314.543019
 10
-292.831272
 20
-314.547297
 10
-292.787722
 20
-314.551105
 10
-292.744525
 20
-314.554469
 10
-292.701799
 20
-314.557418
 10
-292.659664
 20
-314.55998
 10
-292.618238
 20
-314.562181
 10
-292.57764
 20
-314.564049
 10
-292.537989
 20
-314.565612
 10
-292.499403
 20
-314.566898
 10
-292.462002
 20
-314.567933
 10
-292.425904
 20
-314.568746
 10
-292.391229
 20
-314.569364
 10
-292.358094
 20
-314.569815
 10
-292.32662
 20
-314.570125
 10
-292.296924
 20
-314.570324
 10
-292.269125
 20
-314.570437
 10
-292.243343
 20
-314.570494
 10
-292.069431
 20
-314.570661
 10
-292.069152
 20
-314.570661
 10
-292.067201
 20
-314.570663
 10
-292.061905
 20
-314.570669
 10
-292.051593
 20
-314.57068
 10
-292.034592
 20
-314.570698
 10
-292.009229
 20
-314.570726
 10
-291.973832
 20
-314.570764
 10
-291.92673
 20
-314.570815
 10
-291.86625
 20
-314.57088
 10
-291.790719
 20
-314.570962
 10
-291.698465
 20
-314.571062
 10
-291.587817
 20
-314.571181
 10
-291.457101
 20
-314.571322
 10
-291.304646
 20
-314.571487
 10
-291.128779
 20
-314.571677
 10
-290.927828
 20
-314.571894
 10
-290.700121
 20
-314.57214
 10
-290.443985
 20
-314.572417
 10
-290.157748
 20
-314.572726
 10
-289.839738
 20
-314.57307
 10
-289.489119
 20
-314.573449
 10
-289.108399
 20
-314.57386
 10
-288.700923
 20
-314.5743
 10
-288.270034
 20
-314.574766
 10
-287.819079
 20
-314.575253
 10
-287.351401
 20
-314.575759
 10
-286.870345
 20
-314.576279
 10
-286.379255
 20
-314.576809
 10
-285.881476
 20
-314.577347
 10
-285.380353
 20
-314.577889
 10
-284.87923
 20
-314.57843
 10
-284.381451
 20
-314.578968
 10
-283.890361
 20
-314.579499
 10
-283.409305
 20
-314.580018
 10
-282.941627
 20
-314.580524
 10
-282.490671
 20
-314.581011
 10
-282.059783
 20
-314.581477
 10
-281.652307
 20
-314.581917
 10
-281.271587
 20
-314.582328
 10
-280.920968
 20
-314.582707
 10
-280.602958
 20
-314.583051
 10
-280.316721
 20
-314.58336
 10
-280.060585
 20
-314.583637
 10
-279.832878
 20
-314.583883
 10
-279.631927
 20
-314.5841
 10
-279.45606
 20
-314.58429
 10
-279.303605
 20
-314.584455
 10
-279.172889
 20
-314.584596
 10
-279.06224
 20
-314.584716
 10
-278.969987
 20
-314.584815
 10
-278.894456
 20
-314.584897
 10
-278.833976
 20
-314.584962
 10
-278.786873
 20
-314.585013
 10
-278.751477
 20
-314.585051
 10
-278.726114
 20
-314.585079
 10
-278.709113
 20
-314.585097
 10
-278.698801
 20
-314.585108
 10
-278.693505
 20
-314.585114
 10
-278.691554
 20
-314.585116
 10
-278.691275
 20
-314.585116
 10
-278.189511
 20
-314.585659
 10
-278.110557
 20
-314.585693
 10
-278.024522
 20
-314.585427
 10
-277.931849
 20
-314.584553
 10
-277.832982
 20
-314.582761
 10
-277.728368
 20
-314.579744
 10
-277.618449
 20
-314.575194
 10
-277.503672
 20
-314.568802
 10
-277.384479
 20
-314.560259
 10
-277.261315
 20
-314.549258
 10
-277.134626
 20
-314.53549
 10
-277.004856
 20
-314.518647
 10
-276.872448
 20
-314.49842
 10
-276.737849
 20
-314.474501
 10
-276.601501
 20
-314.446581
 10
-276.46385
 20
-314.414354
 10
-276.32534
 20
-314.377509
 10
-276.186416
 20
-314.335738
 10
-276.047522
 20
-314.288734
 10
-275.909103
 20
-314.236188
 10
-275.771602
 20
-314.177792
 10
-275.635432
 20
-314.113328
 10
-275.500864
 20
-314.042944
 10
-275.36814
 20
-313.96688
 10
-275.237498
 20
-313.885375
 10
-275.109178
 20
-313.798668
 10
-274.983419
 20
-313.706997
 10
-274.860462
 20
-313.610603
 10
-274.740546
 20
-313.509724
 10
-274.62391
 20
-313.404599
 10
-274.510794
 20
-313.295468
 10
-274.401437
 20
-313.18257
 10
-274.29608
 20
-313.066143
 10
-274.194962
 20
-312.946428
 10
-274.098322
 20
-312.823663
 10
-274.0064
 20
-312.698087
 10
-273.919435
 20
-312.569939
 10
-273.837668
 20
-312.439459
 10
-273.761337
 20
-312.306886
 10
-273.690683
 20
-312.172458
 10
-273.625945
 20
-312.036416
 10
-273.567271
 20
-311.899032
 10
-273.514445
 20
-311.760717
 10
-273.46716
 20
-311.621917
 10
-273.425108
 20
-311.483076
 10
-273.387982
 20
-311.344639
 10
-273.355474
 20
-311.207053
 10
-273.327278
 20
-311.070761
 10
-273.303085
 20
-310.936209
 10
-273.282588
 20
-310.803843
 10
-273.26548
 20
-310.674106
 10
-273.251454
 20
-310.547445
 10
-273.240201
 20
-310.424304
 10
-273.231415
 20
-310.305129
 10
-273.224789
 20
-310.190364
 10
-273.220014
 20
-310.080455
 10
-273.216783
 20
-309.975847
 10
-273.214789
 20
-309.876985
 10
-273.213725
 20
-309.784314
 10
-273.213282
 20
-309.698279
 10
-273.212671
 20
-309.117563
 10
-273.21267
 20
-309.117136
 10
-273.212667
 20
-309.114144
 10
-273.212658
 20
-309.106023
 10
-273.212641
 20
-309.090208
 10
-273.212613
 20
-309.064135
 10
-273.212571
 20
-309.025239
 10
-273.212513
 20
-308.970955
 10
-273.212435
 20
-308.89872
 10
-273.212336
 20
-308.805968
 10
-273.212211
 20
-308.690135
 10
-273.212059
 20
-308.548657
 10
-273.211877
 20
-308.378968
 10
-273.211661
 20
-308.178504
 10
-273.21141
 20
-307.944701
 10
-273.21112
 20
-307.674994
 10
-273.210788
 20
-307.366819
 10
-273.210413
 20
-307.01761
 10
-273.209991
 20
-306.624804
 10
-273.209519
 20
-306.185836
 10
-273.208995
 20
-305.69814
 10
-273.208417
 20
-305.160436
 10
-273.207789
 20
-304.57657
 10
-273.207117
 20
-303.95167
 10
-273.206407
 20
-303.290867
 10
-273.205663
 20
-302.599289
 10
-273.204892
 20
-301.882065
 10
-273.204099
 20
-301.144324
 10
-273.20329
 20
-300.391196
 10
-273.202469
 20
-299.62781
 10
-273.201643
 20
-298.859295
 10
-273.200817
 20
-298.09078
 10
-273.199996
 20
-297.327393
 10
-273.199186
 20
-296.574266
 10
-273.198393
 20
-295.836525
 10
-273.197622
 20
-295.119301
 10
-273.196879
 20
-294.427723
 10
-273.196168
 20
-293.766919
 10
-273.195497
 20
-293.14202
 10
-273.194869
 20
-292.558153
 10
-273.194291
 20
-292.020449
 10
-273.193767
 20
-291.532754
 10
-273.193295
 20
-291.093786
 10
-273.192873
 20
-290.700979
 10
-273.192497
 20
-290.351771
 10
-273.192166
 20
-290.043595
 10
-273.191876
 20
-289.773888
 10
-273.191625
 20
-289.540085
 10
-273.191409
 20
-289.339622
 10
-273.191227
 20
-289.169933
 10
-273.191075
 20
-289.028454
 10
-273.19095
 20
-288.912621
 10
-273.19085
 20
-288.819869
 10
-273.190773
 20
-288.747634
 10
-273.190714
 20
-288.693351
 10
-273.190673
 20
-288.654455
 10
-273.190644
 20
-288.628382
 10
-273.190627
 20
-288.612567
 10
-273.190619
 20
-288.604446
 10
-273.190616
 20
-288.601454
 10
-273.190615
 20
-288.601026
 10
-273.190042
 20
-288.099291
 10
-273.190003
 20
-288.020341
 10
-273.190264
 20
-287.934311
 10
-273.191133
 20
-287.841643
 10
-273.192919
 20
-287.742782
 10
-273.195929
 20
-287.638173
 10
-273.200472
 20
-287.528261
 10
-273.206857
 20
-287.413489
 10
-273.215392
 20
-287.294302
 10
-273.226385
 20
-287.171145
 10
-273.240144
 20
-287.044463
 10
-273.256978
 20
-286.914698
 10
-273.277196
 20
-286.782297
 10
-273.301105
 20
-286.647704
 10
-273.329014
 20
-286.511362
 10
-273.361231
 20
-286.373717
 10
-273.398064
 20
-286.235213
 10
-273.439823
 20
-286.096294
 10
-273.486815
 20
-285.957405
 10
-273.539348
 20
-285.81899
 10
-273.597732
 20
-285.681494
 10
-273.662182
 20
-285.545327
 10
-273.732552
 20
-285.410763
 10
-273.808602
 20
-285.278042
 10
-273.890092
 20
-285.147402
 10
-273.976785
 20
-285.019084
 10
-274.068441
 20
-284.893326
 10
-274.164821
 20
-284.77037
 10
-274.265685
 20
-284.650454
 10
-274.370795
 20
-284.533817
 10
-274.479912
 20
-284.4207
 10
-274.592796
 20
-284.311342
 10
-274.709209
 20
-284.205982
 10
-274.828911
 20
-284.104861
 10
-274.951663
 20
-284.008217
 10
-275.077227
 20
-283.91629
 10
-275.205363
 20
-283.829321
 10
-275.335831
 20
-283.747547
 10
-275.468394
 20
-283.67121
 10
-275.602812
 20
-283.600548
 10
-275.738845
 20
-283.535801
 10
-275.876221
 20
-283.477117
 10
-276.014529
 20
-283.424281
 10
-276.153323
 20
-283.376985
 10
-276.292158
 20
-283.334922
 10
-276.430589
 20
-283.297784
 10
-276.568171
 20
-283.265264
 10
-276.704459
 20
-283.237055
 10
-276.839008
 20
-283.212849
 10
-276.971372
 20
-283.192339
 10
-277.101107
 20
-283.175218
 10
-277.227766
 20
-283.161178
 10
-277.350906
 20
-283.149913
 10
-277.47008
 20
-283.141114
 10
-277.584844
 20
-283.134474
 10
-277.694753
 20
-283.129687
 10
-277.799361
 20
-283.126445
 10
-277.898223
 20
-283.124439
 10
-277.990894
 20
-283.123364
 10
-278.076929
 20
-283.122912
 10
-278.657647
 20
-283.122233
 10
-278.657926
 20
-283.122232
 10
-278.659877
 20
-283.12223
 10
-278.665172
 20
-283.122225
 10
-278.675485
 20
-283.122214
 10
-278.692487
 20
-283.122196
 10
-278.71785
 20
-283.122169
 10
-278.753247
 20
-283.122132
 10
-278.800351
 20
-283.122082
 10
-278.860833
 20
-283.122019
 10
-278.936365
 20
-283.121939
 10
-279.028621
 20
-283.121842
 10
-279.139273
 20
-283.121725
 10
-279.269992
 20
-283.121588
 10
-279.422451
 20
-283.121427
 10
-279.598322
 20
-283.121242
 10
-279.799279
 20
-283.12103
 10
-280.026992
 20
-283.12079
 10
-280.283134
 20
-283.12052
 10
-280.569378
 20
-283.120218
 10
-280.887396
 20
-283.119883
 10
-281.238024
 20
-283.119514
 10
-281.618754
 20
-283.119113
 10
-282.026241
 20
-283.118683
 10
-282.45714
 20
-283.118229
 10
-282.908107
 20
-283.117754
 10
-283.375797
 20
-283.117262
 10
-283.856865
 20
-283.116755
 10
-284.347967
 20
-283.116237
 10
-284.845759
 20
-283.115713
 10
-285.346895
 20
-283.115185
 10
-285.848031
 20
-283.114657
 10
-286.345823
 20
-283.114132
 10
-286.836925
 20
-283.113615
 10
-287.317994
 20
-283.113108
 10
-287.785684
 20
-283.112615
 10
-288.23665
 20
-283.11214
 10
-288.66755
 20
-283.111686
 10
-289.075036
 20
-283.111257
 10
-289.455766
 20
-283.110855
 10
-289.806394
 20
-283.110486
 10
-290.124412
 20
-283.110151
 10
-290.410656
 20
-283.109849
 10
-290.666799
 20
-283.109579
 10
-290.894512
 20
-283.10934
 10
-291.095468
 20
-283.109128
 10
-291.27134
 20
-283.108942
 10
-291.423799
 20
-283.108782
 10
-291.554518
 20
-283.108644
 10
-291.665169
 20
-283.108528
 10
-291.757425
 20
-283.10843
 10
-291.832958
 20
-283.108351
 10
-291.89344
 20
-283.108287
 10
-291.940543
 20
-283.108237
 10
-291.97594
 20
-283.1082
 10
-292.001304
 20
-283.108173
 10
-292.018306
 20
-283.108155
 10
-292.028618
 20
-283.108145
 10
-292.033914
 20
-283.108139
 10
-292.035865
 20
-283.108137
 10
-292.036144
 20
-283.108137
 10
-292.186381
 20
-283.107966
 10
-292.210023
 20
-283.107944
 10
-292.2358
 20
-283.107947
 10
-292.263594
 20
-283.108003
 10
-292.293284
 20
-283.10814
 10
-292.324754
 20
-283.108386
 10
-292.357883
 20
-283.108768
 10
-292.392552
 20
-283.109314
 10
-292.428644
 20
-283.110052
 10
-292.46604
 20
-283.11101
 10
-292.50462
 20
-283.112216
 10
-292.544266
 20
-283.113698
 10
-292.58486
 20
-283.115482
 10
-292.626281
 20
-283.117598
 10
-292.668413
 20
-283.120072
 10
-292.711135
 20
-283.122933
 10
-292.75433
 20
-283.126208
 10
-292.797877
 20
-283.129926
 10
-292.84166
 20
-283.134114
 10
-292.885558
 20
-283.138799
 10
-292.929453
 20
-283.144011
 10
-292.973245
 20
-283.14977
 10
-293.01691
 20
-283.156076
 10
-293.060439
 20
-283.162922
 10
-293.103828
 20
-283.170302
 10
-293.147069
 20
-283.178209
 10
-293.190157
 20
-283.186638
 10
-293.233084
 20
-283.19558
 10
-293.275845
 20
-283.205031
 10
-293.318433
 20
-283.214982
 10
-293.360842
 20
-283.225429
 10
-293.403065
 20
-283.236363
 10
-293.445095
 20
-283.247779
 10
-293.486927
 20
-283.259671
 10
-293.528554
 20
-283.272031
 10
-293.569969
 20
-283.284853
 10
-293.611167
 20
-283.298131
 10
-293.65214
 20
-283.311857
 10
-293.692883
 20
-283.326027
 10
-293.733388
 20
-283.340632
 10
-293.773651
 20
-283.355667
 10
-293.81365
 20
-283.371114
 10
-293.853318
 20
-283.386914
 10
-293.892573
 20
-283.402998
 10
-293.931333
 20
-283.419295
 10
-293.969517
 20
-283.435735
 10
-294.007043
 20
-283.452249
 10
-294.04383
 20
-283.468768
 10
-294.079795
 20
-283.48522
 10
-294.114858
 20
-283.501536
 10
-294.148936
 20
-283.517647
 10
-294.181948
 20
-283.533483
 10
-294.213813
 20
-283.548973
 10
-294.244449
 20
-283.564048
 10
-294.273774
 20
-283.578638
 10
-294.301706
 20
-283.592674
 10
-294.328165
 20
-283.606084
 10
-294.353068
 20
-283.6188
 10
-294.376334
 20
-283.630752
 10
-294.397881
 20
-283.64187
 10
-294.543092
 20
-283.717006
 10
-294.543092
 20
-283.716895
 10
-294.543091
 20
-283.716117
 10
-294.543088
 20
-283.714006
 10
-294.543084
 20
-283.709895
 10
-294.543077
 20
-283.703116
 10
-294.543066
 20
-283.693004
 10
-294.54305
 20
-283.678891
 10
-294.54303
 20
-283.660111
 10
-294.543004
 20
-283.635997
 10
-294.542971
 20
-283.605882
 10
-294.542932
 20
-283.5691
 10
-294.542884
 20
-283.524984
 10
-294.542828
 20
-283.472867
 10
-294.542762
 20
-283.412082
 10
-294.542686
 20
-283.341962
 10
-294.542599
 20
-283.261842
 10
-294.542501
 20
-283.171053
 10
-294.54239
 20
-283.06893
 10
-294.542267
 20
-282.954805
 10
-294.54213
 20
-282.828013
 10
-294.541979
 20
-282.688218
 10
-294.541814
 20
-282.536423
 10
-294.541639
 20
-282.373959
 10
-294.541453
 20
-282.202161
 10
-294.541258
 20
-282.022362
 10
-294.541056
 20
-281.835895
 10
-294.540849
 20
-281.644095
 10
-294.540637
 20
-281.448294
 10
-294.540422
 20
-281.249826
 10
-294.540206
 20
-281.050025
 10
-294.53999
 20
-280.850223
 10
-294.539775
 20
-280.651755
 10
-294.539563
 20
-280.455954
 10
-294.539356
 20
-280.264154
 10
-294.539154
 20
-280.077688
 10
-294.53896
 20
-279.897888
 10
-294.538774
 20
-279.72609
 10
-294.538598
 20
-279.563627
 10
-294.538434
 20
-279.411831
 10
-294.538282
 20
-279.272037
 10
-294.538145
 20
-279.145244
 10
-294.538022
 20
-279.031119
 10
-294.537911
 20
-278.928996
 10
-294.537813
 20
-278.838208
 10
-294.537726
 20
-278.758087
 10
-294.53765
 20
-278.687968
 10
-294.537585
 20
-278.627183
 10
-294.537528
 20
-278.575066
 10
-294.537481
 20
-278.530949
 10
-294.537441
 20
-278.494167
 10
-294.537408
 20
-278.464052
 10
-294.537382
 20
-278.439938
 10
-294.537362
 20
-278.421158
 10
-294.537346
 20
-278.407046
 10
-294.537336
 20
-278.396933
 10
-294.537328
 20
-278.390155
 10
-294.537324
 20
-278.386043
 10
-294.537321
 20
-278.383932
 10
-294.537321
 20
-278.383154
 10
-294.537321
 20
-278.383043
 10
-294.536741
 20
-277.849728
 10
-294.536672
 20
-277.765856
 10
-294.536728
 20
-277.674733
 10
-294.537042
 20
-277.577109
 10
-294.537747
 20
-277.473732
 10
-294.538977
 20
-277.365351
 10
-294.540865
 20
-277.252716
 10
-294.543545
 20
-277.136576
 10
-294.54715
 20
-277.01768
 10
-294.551814
 20
-276.896776
 10
-294.557669
 20
-276.774614
 10
-294.564849
 20
-276.651943
 10
-294.573488
 20
-276.529512
 10
-294.583718
 20
-276.40807
 10
-294.595674
 20
-276.288366
 10
-294.609489
 20
-276.171149
 10
-294.625296
 20
-276.057168
 10
-294.643228
 20
-275.947173
 10
-294.663419
 20
-275.841912
 10
-294.686002
 20
-275.742134
 10
-294.711111
 20
-275.648589
 10
-294.738839
 20
-275.56185
 10
-294.769123
 20
-275.481795
 10
-294.801858
 20
-275.408125
 10
-294.836943
 20
-275.340541
 10
-294.874272
 20
-275.278745
 10
-294.913742
 20
-275.222439
 10
-294.955251
 20
-275.171324
 10
-294.998694
 20
-275.125102
 10
-295.043968
 20
-275.083474
 10
-295.090969
 20
-275.046143
 10
-295.139594
 20
-275.01281
 10
-295.18974
 20
-274.983176
 10
-295.241302
 20
-274.956944
 10
-295.294178
 20
-274.933814
 10
-295.348263
 20
-274.913488
 10
-295.403456
 20
-274.895669
 10
-295.45965
 20
-274.880058
 10
-295.516745
 20
-274.866355
 10
-295.574635
 20
-274.854264
 10
-295.633217
 20
-274.843485
 10
-295.692374
 20
-274.833762
 10
-295.751928
 20
-274.825003
 10
-295.811688
 20
-274.817157
 10
-295.871462
 20
-274.810174
 10
-295.93106
 20
-274.804002
 10
-295.99029
 20
-274.798593
 10
-296.04896
 20
-274.793895
 10
-296.106879
 20
-274.789857
 10
-296.163856
 20
-274.78643
 10
-296.219699
 20
-274.783562
 10
-296.274217
 20
-274.781203
 10
-296.327218
 20
-274.779303
 10
-296.378512
 20
-274.777811
 10
-296.427906
 20
-274.776676
 10
-296.475209
 20
-274.775849
 10
-296.52023
 20
-274.775278
 10
-296.562778
 20
-274.774913
 10
-296.602661
 20
-274.774703
 10
-296.639687
 20
-274.774599
 10
-296.889607
 20
-274.774285
 10
-297.105574
 20
-274.77411
 10
-297.139557
 20
-274.77409
 10
-297.176588
 20
-274.774118
 10
-297.216476
 20
-274.774241
 10
-297.25903
 20
-274.774511
 10
-297.304058
 20
-274.774975
 10
-297.351368
 20
-274.775684
 10
-297.40077
 20
-274.776687
 10
-297.452072
 20
-274.778034
 10
-297.505083
 20
-274.779773
 10
-297.559612
 20
-274.781955
 10
-297.615467
 20
-274.784629
 10
-297.672456
 20
-274.787844
 10
-297.730389
 20
-274.791649
 10
-297.789074
 20
-274.796095
 10
-297.84832
 20
-274.80123
 10
-297.907936
 20
-274.807104
 10
-297.967729
 20
-274.813767
 10
-298.027509
 20
-274.821267
 10
-298.087085
 20
-274.829655
 10
-298.146265
 20
-274.838979
 10
-298.204873
 20
-274.849332
 10
-298.26279
 20
-274.860974
 10
-298.319915
 20
-274.874209
 10
-298.376144
 20
-274.889338
 10
-298.431374
 20
-274.906665
 10
-298.485504
 20
-274.926493
 10
-298.538429
 20
-274.949125
 10
-298.590047
 20
-274.974864
 10
-298.640255
 20
-275.004013
 10
-298.688951
 20
-275.036874
 10
-298.736032
 20
-275.073751
 10
-298.781395
 20
-275.114947
 10
-298.824936
 20
-275.160764
 10
-298.866554
 20
-275.211505
 10
-298.906145
 20
-275.267474
 10
-298.943607
 20
-275.328974
 10
-298.978836
 20
-275.396306
 10
-299.011731
 20
-275.469775
 10
-299.042187
 20
-275.549684
 10
-299.070103
 20
-275.636334
 10
-299.095415
 20
-275.729853
 10
-299.118214
 20
-275.829664
 10
-299.138634
 20
-275.935013
 10
-299.156805
 20
-276.045145
 10
-299.17286
 20
-276.159308
 10
-299.18693
 20
-276.276747
 10
-299.199147
 20
-276.39671
 10
-299.209643
 20
-276.518442
 10
-299.218549
 20
-276.641189
 10
-299.225997
 20
-276.764198
 10
-299.232119
 20
-276.886716
 10
-299.237047
 20
-277.007988
 10
-299.240911
 20
-277.12726
 10
-299.243845
 20
-277.24378
 10
-299.24598
 20
-277.356794
 10
-299.247447
 20
-277.465547
 10
-299.248379
 20
-277.569286
 10
-299.248906
 20
-277.667258
 10
-299.249161
 20
-277.758708
 10
-299.249864
 20
-278.378128
 10
-299.249865
 20
-278.37964
 10
-299.249877
 20
-278.390221
 10
-299.249907
 20
-278.418941
 10
-299.249967
 20
-278.47487
 10
-299.250065
 20
-278.567077
 10
-299.250212
 20
-278.704631
 10
-299.250417
 20
-278.896602
 10
-299.25069
 20
-279.15206
 10
-299.25104
 20
-279.480074
 10
-299.251477
 20
-279.889714
 10
-299.252011
 20
-280.390049
 10
-299.252651
 20
-280.990149
 10
-299.253407
 20
-281.699083
 10
-299.25429
 20
-282.52592
 10
-299.255307
 20
-283.479731
 10
-299.25647
 20
-284.569584
 10
-299.257788
 20
-285.80455
 10
-299.25927
 20
-287.193697
 10
-299.260927
 20
-288.746096
 10
-299.262767
 20
-290.470816
 10
-299.264796
 20
-292.372391
 10
-299.266999
 20
-294.437217
 10
-299.269357
 20
-296.647156
 10
-299.271851
 20
-298.984068
 10
-299.274461
 20
-301.429814
 10
-299.277167
 20
-303.966255
 10
-299.279951
 20
-306.575252
 10
-299.282793
 20
-309.238666
 10
-299.285674
 20
-311.938359
 10
-299.288574
 20
-314.65619
 10
-299.291474
 20
-317.374022
 10
-299.294354
 20
-320.073714
 10
-299.297196
 20
-322.737129
 10
-299.29998
 20
-325.346126
 10
-299.302687
 20
-327.882567
 10
-299.305296
 20
-330.328313
 10
-299.30779
 20
-332.665225
 10
-299.310148
 20
-334.875164
 10
-299.312351
 20
-336.93999
 10
-299.31438
 20
-338.841565
 10
-299.316221
 20
-340.566284
 10
-299.317877
 20
-342.118683
 10
-299.319359
 20
-343.507831
 10
-299.320677
 20
-344.742796
 10
-299.32184
 20
-345.83265
 10
-299.322858
 20
-346.786461
 10
-299.32374
 20
-347.613298
 10
-299.324497
 20
-348.322232
 10
-299.325137
 20
-348.922331
 10
-299.325671
 20
-349.422666
 10
-299.326108
 20
-349.832306
 10
-299.326458
 20
-350.16032
 10
-299.32673
 20
-350.415778
 10
-299.326935
 20
-350.60775
 10
-299.327082
 20
-350.745304
 10
-299.32718
 20
-350.837511
 10
-299.32724
 20
-350.893439
 10
-299.327271
 20
-350.92216
 10
-299.327282
 20
-350.932741
 10
-299.327284
 20
-350.934252
 10
-299.327746
 20
-350.934252
 10
-299.330981
 20
-350.934248
 10
-299.339762
 20
-350.934239
 10
-299.356861
 20
-350.934221
 10
-299.385052
 20
-350.934191
 10
-299.427107
 20
-350.934147
 10
-299.485799
 20
-350.934085
 10
-299.563901
 20
-350.934003
 10
-299.664186
 20
-350.933897
 10
-299.789427
 20
-350.933765
 10
-299.942396
 20
-350.933603
 10
-300.125867
 20
-350.93341
 10
-300.342612
 20
-350.933181
 10
-300.595405
 20
-350.932915
 10
-300.887017
 20
-350.932607
 10
-301.220222
 20
-350.932255
 10
-301.597793
 20
-350.931857
 10
-302.022503
 20
-350.931409
 10
-302.497124
 20
-350.930908
 10
-303.024429
 20
-350.930352
 10
-303.605805
 20
-350.929739
 10
-304.237093
 20
-350.929073
 10
-304.912746
 20
-350.92836
 10
-305.62722
 20
-350.927606
 10
-306.374967
 20
-350.926818
 10
-307.150444
 20
-350.926
 10
-307.948103
 20
-350.925158
 10
-308.762399
 20
-350.924299
 10
-309.587787
 20
-350.923428
 10
-310.41872
 20
-350.922552
 10
-311.249654
 20
-350.921675
 10
-312.075042
 20
-350.920805
 10
-312.889338
 20
-350.919945
 10
-313.686997
 20
-350.919104
 10
-314.462473
 20
-350.918286
 10
-315.210221
 20
-350.917497
 10
-315.924694
 20
-350.916743
 10
-316.600348
 20
-350.916031
 10
-317.231635
 20
-350.915365
 10
-317.813011
 20
-350.914751
 10
-318.340317
 20
-350.914195
 10
-318.814938
 20
-350.913695
 10
-319.239647
 20
-350.913246
 10
-319.617218
 20
-350.912848
 10
-319.950424
 20
-350.912497
 10
-320.242036
 20
-350.912189
 10
-320.494828
 20
-350.911922
 10
-320.711574
 20
-350.911694
 10
-320.895044
 20
-350.9115
 10
-321.048014
 20
-350.911339
 10
-321.173255
 20
-350.911207
 10
-321.27354
 20
-350.911101
 10
-321.351642
 20
-350.911019
 10
-321.410334
 20
-350.910957
 10
-321.452389
 20
-350.910912
 10
-321.48058
 20
-350.910882
 10
-321.497679
 20
-350.910864
 10
-321.50646
 20
-350.910855
 10
-321.509695
 20
-350.910852
 10
-321.510157
 20
-350.910851
 10
-321.727706
 20
-350.9106
 10
-321.761937
 20
-350.910582
 10
-321.79924
 20
-350.910694
 10
-321.83942
 20
-350.911067
 10
-321.882285
 20
-350.911834
 10
-321.927642
 20
-350.913129
 10
-321.9753
 20
-350.915084
 10
-322.025064
 20
-350.917832
 10
-322.076742
 20
-350.921506
 10
-322.130142
 20
-350.926237
 10
-322.185071
 20
-350.93216
 10
-322.241336
 20
-350.939407
 10
-322.298744
 20
-350.94811
 10
-322.357103
 20
-350.958402
 10
-322.41622
 20
-350.970417
 10
-322.475902
 20
-350.984286
 10
-322.535957
 20
-351.000144
 10
-322.596192
 20
-351.018121
 10
-322.656414
 20
-351.038352
 10
-322.71643
 20
-351.060968
 10
-322.776048
 20
-351.086104
 10
-322.835089
 20
-351.113851
 10
-322.893436
 20
-351.144147
 10
-322.950984
 20
-351.176889
 10
-323.007629
 20
-351.211973
 10
-323.063268
 20
-351.249297
 10
-323.117796
 20
-351.288757
 10
-323.17111
 20
-351.330252
 10
-323.223106
 20
-351.373677
 10
-323.27368
 20
-351.418931
 10
-323.322728
 20
-351.465909
 10
-323.370145
 20
-351.51451
 10
-323.415829
 20
-351.564629
 10
-323.459676
 20
-351.616165
 10
-323.501581
 20
-351.669014
 10
-323.54144
 20
-351.723074
 10
-323.57915
 20
-351.778241
 10
-323.614607
 20
-351.834412
 10
-323.647707
 20
-351.891485
 10
-323.678346
 20
-351.949357
 10
-323.70642
 20
-352.007924
 10
-323.731865
 20
-352.067069
 10
-323.754775
 20
-352.126615
 10
-323.775282
 20
-352.186371
 10
-323.79352
 20
-352.246145
 10
-323.809623
 20
-352.305744
 10
-323.823723
 20
-352.364978
 10
-323.835954
 20
-352.423655
 10
-323.846449
 20
-352.481583
 10
-323.855342
 20
-352.538571
 10
-323.862765
 20
-352.594426
 10
-323.868852
 20
-352.648958
 10
-323.873736
 20
-352.701974
 10
-323.87755
 20
-352.753282
 10
-323.880429
 20
-352.802693
 10
-323.882504
 20
-352.850012
 10
-323.883909
 20
-352.89505
 10
-323.884778
 20
-352.937613
 10
-323.885244
 20
-352.977512
 10
-323.885439
 20
-353.014553
 10
-323.88573
 20
-353.264573
 10
-323.885934
 20
-353.48057
 10
-323.885944
 20
-353.514558
 10
-323.885823
 20
-353.551594
 10
-323.885436
 20
-353.591488
 10
-323.88465
 20
-353.634048
 10
-323.88333
 20
-353.679082
 10
-323.881342
 20
-353.7264
 10
-323.878553
 20
-353.77581
 10
-323.874827
 20
-353.82712
 10
-323.870031
 20
-353.88014
 10
-323.86403
 20
-353.934678
 10
-323.85669
 20
-353.990542
 10
-323.847878
 20
-354.047542
 10
-323.837459
 20
-354.105487
 10
-323.825298
 20
-354.164183
 10
-323.811262
 20
-354.223442
 10
-323.795216
 20
-354.28307
 10
-323.777026
 20
-354.342877
 10
-323.756559
 20
-354.402672
 10
-323.733679
 20
-354.462263
 10
-323.708253
 20
-354.521459
 10
-323.680187
 20
-354.580083
 10
-323.649545
 20
-354.638017
 10
-323.616433
 20
-354.695158
 10
-323.580957
 20
-354.751404
 10
-323.543222
 20
-354.80665
 10
-323.503334
 20
-354.860793
 10
-323.461396
 20
-354.913731
 10
-323.417516
 20
-354.96536
 10
-323.371798
 20
-355.015578
 10
-323.324348
 20
-355.06428
 10
-323.27527
 20
-355.111363
 10
-323.224671
 20
-355.156725
 10
-323.172656
 20
-355.200263
 10
-323.11933
 20
-355.241872
 10
-323.064798
 20
-355.28145
 10
-323.009166
 20
-355.318894
 10
-322.952539
 20
-355.354101
 10
-322.895023
 20
-355.386966
 10
-322.836722
 20
-355.417388
 10
-322.777743
 20
-355.445263
 10
-322.718204
 20
-355.470527
 10
-322.658283
 20
-355.493273
 10
-322.598171
 20
-355.513633
 10
-322.538059
 20
-355.53174
 10
-322.478139
 20
-355.547727
 10
-322.418601
 20
-355.561724
 10
-322.359637
 20
-355.573866
 10
-322.301438
 20
-355.584284
 10
-322.244196
 20
-355.59311
 10
-322.188101
 20
-355.600478
 10
-322.133344
 20
-355.606518
 10
-322.080118
 20
-355.611364
 10
-322.028612
 20
-355.615149
 10
-321.97902
 20
-355.618003
 10
-321.93153
 20
-355.62006
 10
-321.886336
 20
-355.621452
 10
-321.843627
 20
-355.622312
 10
-321.803596
 20
-355.622771
 10
-321.766434
 20
-355.622963
 10
-321.515602
 20
-355.623233
 10
-321.51514
 20
-355.623233
 10
-321.511905
 20
-355.623237
 10
-321.503124
 20
-355.623246
 10
-321.486024
 20
-355.623264
 10
-321.457832
 20
-355.623294
 10
-321.415775
 20
-355.623339
 10
-321.357081
 20
-355.623401
 10
-321.278975
 20
-355.623484
 10
-321.178686
 20
-355.623591
 10
-321.05344
 20
-355.623724
 10
-320.900465
 20
-355.623886
 10
-320.716987
 20
-355.624081
 10
-320.500233
 20
-355.624311
 10
-320.247431
 20
-355.624579
 10
-319.955807
 20
-355.624889
 10
-319.622588
 20
-355.625243
 10
-319.245002
 20
-355.625644
 10
-318.820276
 20
-355.626095
 10
-318.345636
 20
-355.626599
 10
-317.81831
 20
-355.627158
 10
-317.23691
 20
-355.627776
 10
-316.605598
 20
-355.628446
 10
-315.929917
 20
-355.629163
 10
-315.215416
 20
-355.629922
 10
-314.467638
 20
-355.630716
 10
-313.692131
 20
-355.631539
 10
-312.89444
 20
-355.632386
 10
-312.080112
 20
-355.633251
 10
-311.254691
 20
-355.634127
 10
-310.423725
 20
-355.63501
 10
-309.592758
 20
-355.635892
 10
-308.767338
 20
-355.636768
 10
-307.953009
 20
-355.637633
 10
-307.155318
 20
-355.63848
 10
-306.379811
 20
-355.639303
 10
-305.632034
 20
-355.640097
 10
-304.917532
 20
-355.640856
 10
-304.241852
 20
-355.641573
 10
-303.610539
 20
-355.642244
 10
-303.02914
 20
-355.642861
 10
-302.501814
 20
-355.643421
 10
-302.027174
 20
-355.643925
 10
-301.602447
 20
-355.644376
 10
-301.224861
 20
-355.644777
 10
-300.891643
 20
-355.64513
 10
-300.600019
 20
-355.64544
 10
-300.347216
 20
-355.645708
 10
-300.130463
 20
-355.645939
 10
-299.946985
 20
-355.646133
 10
-299.794009
 20
-355.646296
 10
-299.668763
 20
-355.646429
 10
-299.568474
 20
-355.646535
 10
-299.490369
 20
-355.646618
 10
-299.431674
 20
-355.646681
 10
-299.389618
 20
-355.646725
 10
-299.361426
 20
-355.646755
 10
-299.344326
 20
-355.646773
 10
-299.335545
 20
-355.646783
 10
-299.33231
 20
-355.646786
 10
-299.331848
 20
-355.646787
 10
-299.331848
 20
-355.646896
 10
-299.331848
 20
-355.647664
 10
-299.331851
 20
-355.649747
 10
-299.331855
 20
-355.653803
 10
-299.331863
 20
-355.660491
 10
-299.331874
 20
-355.670467
 10
-299.331889
 20
-355.684391
 10
-299.33191
 20
-355.702919
 10
-299.331936
 20
-355.726709
 10
-299.33197
 20
-355.75642
 10
-299.33201
 20
-355.792708
 10
-299.332058
 20
-355.836233
 10
-299.332116
 20
-355.88765
 10
-299.332182
 20
-355.94762
 10
-299.332259
 20
-356.016798
 10
-299.332347
 20
-356.095844
 10
-299.332447
 20
-356.185414
 10
-299.332559
 20
-356.286167
 10
-299.332685
 20
-356.39876
 10
-299.332824
 20
-356.523851
 10
-299.332977
 20
-356.66177
 10
-299.333144
 20
-356.811528
 10
-299.333323
 20
-356.971812
 10
-299.333511
 20
-357.141305
 10
-299.333709
 20
-357.318691
 10
-299.333913
 20
-357.502655
 10
-299.334124
 20
-357.691882
 10
-299.334339
 20
-357.885055
 10
-299.334557
 20
-358.08086
 10
-299.334776
 20
-358.27798
 10
-299.334996
 20
-358.475101
 10
-299.335214
 20
-358.670905
 10
-299.335429
 20
-358.864079
 10
-299.33564
 20
-359.053305
 10
-299.335844
 20
-359.23727
 10
-299.336042
 20
-359.414656
 10
-299.33623
 20
-359.584149
 10
-299.336409
 20
-359.744432
 10
-299.336576
 20
-359.894191
 10
-299.336729
 20
-360.03211
 10
-299.336868
 20
-360.157201
 10
-299.336994
 20
-360.269794
 10
-299.337106
 20
-360.370547
 10
-299.337206
 20
-360.460117
 10
-299.337294
 20
-360.539162
 10
-299.337371
 20
-360.608341
 10
-299.337437
 20
-360.66831
 10
-299.337495
 20
-360.719728
 10
-299.337543
 20
-360.763253
 10
-299.337583
 20
-360.799541
 10
-299.337617
 20
-360.829252
 10
-299.337643
 20
-360.853042
 10
-299.337664
 20
-360.87157
 10
-299.337679
 20
-360.885493
 10
-299.33769
 20
-360.89547
 10
-299.337698
 20
-360.902158
 10
-299.337702
 20
-360.906214
 10
-299.337705
 20
-360.908297
 10
-299.337705
 20
-360.909064
 10
-299.337705
 20
-360.909174
 10
-299.338237
 20
-361.444359
 10
-299.338298
 20
-361.528525
 10
-299.338234
 20
-361.619965
 10
-299.337912
 20
-361.717927
 10
-299.337198
 20
-361.821657
 10
-299.335958
 20
-361.930402
 10
-299.334061
 20
-362.043408
 10
-299.331372
 20
-362.159922
 10
-299.327758
 20
-362.279192
 10
-299.323086
 20
-362.400463
 10
-299.317223
 20
-362.522983
 10
-299.310035
 20
-362.645998
 10
-299.301389
 20
-362.768756
 10
-299.291152
 20
-362.890502
 10
-299.279191
 20
-363.010483
 10
-299.265373
 20
-363.127947
 10
-299.249563
 20
-363.24214
 10
-299.231629
 20
-363.352309
 10
-299.211438
 20
-363.457701
 10
-299.188857
 20
-363.557562
 10
-299.163751
 20
-363.651138
 10
-299.136028
 20
-363.737854
 10
-299.105751
 20
-363.817835
 10
-299.073024
 20
-363.891384
 10
-299.03795
 20
-363.958804
 10
-299.000631
 20
-364.020396
 10
-298.961173
 20
-364.076465
 10
-298.919677
 20
-364.127311
 10
-298.876247
 20
-364.173238
 10
-298.830988
 20
-364.214548
 10
-298.784
 20
-364.251544
 10
-298.73539
 20
-364.284528
 10
-298.685258
 20
-364.313803
 10
-298.63371
 20
-364.339672
 10
-298.580848
 20
-364.362436
 10
-298.526775
 20
-364.382399
 10
-298.471596
 20
-364.399863
 10
-298.415412
 20
-364.41513
 10
-298.358329
 20
-364.428504
 10
-298.300448
 20
-364.440286
 10
-298.241873
 20
-364.45078
 10
-298.182723
 20
-364.460245
 10
-298.123174
 20
-364.468773
 10
-298.063417
 20
-364.476413
 10
-298.003644
 20
-364.483214
 10
-297.944047
 20
-364.489225
 10
-297.884817
 20
-364.494495
 10
-297.826146
 20
-364.499074
 10
-297.768225
 20
-364.50301
 10
-297.711245
 20
-364.506352
 10
-297.655399
 20
-364.509151
 10
-297.600876
 20
-364.511453
 10
-297.54787
 20
-364.51331
 10
-297.496572
 20
-364.514769
 10
-297.447173
 20
-364.515881
 10
-297.399864
 20
-364.516693
 10
-297.354837
 20
-364.517256
 10
-297.312284
 20
-364.517618
 10
-297.272396
 20
-364.517828
 10
-297.235365
 20
-364.517936
 10
-296.98541
 20
-364.518283
  0
LWPOLYLINE
  5
31
330
1F
100
AcDbEntity
  8
0
100
AcDbPolyline
 90
      667
 70
   128
 43
0.0
 10
-60.37361
 20
-408.435355
 10
-60.373613
 20
-408.435303
 10
-60.373631
 20
-408.434941
 10
-60.37368
 20
-408.433957
 10
-60.373775
 20
-408.432042
 10
-60.373932
 20
-408.428885
 10
-60.374166
 20
-408.424175
 10
-60.374493
 20
-408.417602
 10
-60.374927
 20
-408.408855
 10
-60.375486
 20
-408.397623
 10
-60.376183
 20
-408.383596
 10
-60.377034
 20
-408.366464
 10
-60.378055
 20
-408.345916
 10
-60.379262
 20
-408.321641
 10
-60.380669
 20
-408.293329
 10
-60.382292
 20
-408.26067
 10
-60.384147
 20
-408.223352
 10
-60.386249
 20
-408.181065
 10
-60.388613
 20
-408.133499
 10
-60.391255
 20
-408.080343
 10
-60.39419
 20
-408.021286
 10
-60.397426
 20
-407.956174
 10
-60.40094
 20
-407.885472
 10
-60.404701
 20
-407.809801
 10
-60.408678
 20
-407.729782
 10
-60.41284
 20
-407.646037
 10
-60.417156
 20
-407.559186
 10
-60.421596
 20
-407.469851
 10
-60.426129
 20
-407.378652
 10
-60.430723
 20
-407.286211
 10
-60.435349
 20
-407.193149
 10
-60.439974
 20
-407.100087
 10
-60.444568
 20
-407.007647
 10
-60.449101
 20
-406.916448
 10
-60.453541
 20
-406.827113
 10
-60.457857
 20
-406.740262
 10
-60.46202
 20
-406.656516
 10
-60.465997
 20
-406.576498
 10
-60.469757
 20
-406.500827
 10
-60.473271
 20
-406.430124
 10
-60.476507
 20
-406.365012
 10
-60.479443
 20
-406.305956
 10
-60.482085
 20
-406.2528
 10
-60.484449
 20
-406.205233
 10
-60.48655
 20
-406.162947
 10
-60.488405
 20
-406.125629
 10
-60.490028
 20
-406.092969
 10
-60.491435
 20
-406.064657
 10
-60.492642
 20
-406.040382
 10
-60.493663
 20
-406.019834
 10
-60.494514
 20
-406.002702
 10
-60.495212
 20
-405.988676
 10
-60.49577
 20
-405.977444
 10
-60.496205
 20
-405.968697
 10
-60.496531
 20
-405.962123
 10
-60.496765
 20
-405.957413
 10
-60.496922
 20
-405.954256
 10
-60.497017
 20
-405.952341
 10
-60.497066
 20
-405.951358
 10
-60.497084
 20
-405.950995
 10
-60.497087
 20
-405.950944
 10
-60.548155
 20
-404.926046
 10
-60.556086
 20
-404.764771
 10
-60.564108
 20
-404.589
 10
-60.571548
 20
-404.399609
 10
-60.577729
 20
-404.197476
 10
-60.581979
 20
-403.983478
 10
-60.583622
 20
-403.758491
 10
-60.581984
 20
-403.523394
 10
-60.57639
 20
-403.279063
 10
-60.566167
 20
-403.026374
 10
-60.550638
 20
-402.766206
 10
-60.529131
 20
-402.499436
 10
-60.500969
 20
-402.226939
 10
-60.46548
 20
-401.949594
 10
-60.421987
 20
-401.668277
 10
-60.369818
 20
-401.383866
 10
-60.308296
 20
-401.097238
 10
-60.236748
 20
-400.809269
 10
-60.1545
 20
-400.520837
 10
-60.060876
 20
-400.232819
 10
-59.955202
 20
-399.946091
 10
-59.836994
 20
-399.661471
 10
-59.706527
 20
-399.379533
 10
-59.564267
 20
-399.10079
 10
-59.410681
 20
-398.825756
 10
-59.246233
 20
-398.554944
 10
-59.071391
 20
-398.288868
 10
-58.886619
 20
-398.028043
 10
-58.692383
 20
-397.77298
 10
-58.48915
 20
-397.524195
 10
-58.277384
 20
-397.282201
 10
-58.057553
 20
-397.047511
 10
-57.830122
 20
-396.820639
 10
-57.595556
 20
-396.602099
 10
-57.354322
 20
-396.392404
 10
-57.106885
 20
-396.192069
 10
-56.853711
 20
-396.001606
 10
-56.595266
 20
-395.821529
 10
-56.332016
 20
-395.652352
 10
-56.064426
 20
-395.494588
 10
-55.792964
 20
-395.348752
 10
-55.518172
 20
-395.215174
 10
-55.240911
 20
-395.093453
 10
-54.96212
 20
-394.983005
 10
-54.682738
 20
-394.883247
 10
-54.403702
 20
-394.793594
 10
-54.125953
 20
-394.713463
 10
-53.850427
 20
-394.642271
 10
-53.578065
 20
-394.579432
 10
-53.309805
 20
-394.524364
 10
-53.046585
 20
-394.476482
 10
-52.789345
 20
-394.435203
 10
-52.539022
 20
-394.399943
 10
-52.296556
 20
-394.370118
 10
-52.062885
 20
-394.345144
 10
-51.838948
 20
-394.324438
 10
-51.625683
 20
-394.307415
 10
-51.42403
 20
-394.293493
 10
-51.234927
 20
-394.282086
 10
-51.059313
 20
-394.272612
 10
-49.873723
 20
-394.213511
 10
-49.873054
 20
-394.213478
 10
-49.868369
 20
-394.213245
 10
-49.855654
 20
-394.212612
 10
-49.830893
 20
-394.211379
 10
-49.790071
 20
-394.209346
 10
-49.729173
 20
-394.206314
 10
-49.644183
 20
-394.202083
 10
-49.531086
 20
-394.196452
 10
-49.385867
 20
-394.189222
 10
-49.20451
 20
-394.180192
 10
-48.983
 20
-394.169164
 10
-48.717323
 20
-394.155936
 10
-48.403462
 20
-394.14031
 10
-48.037402
 20
-394.122084
 10
-47.615129
 20
-394.10106
 10
-47.132626
 20
-394.077037
 10
-46.585879
 20
-394.049815
 10
-45.970872
 20
-394.019195
 10
-45.28359
 20
-393.984977
 10
-44.520018
 20
-393.94696
 10
-43.678148
 20
-393.905044
 10
-42.764003
 20
-393.859531
 10
-41.785614
 20
-393.810818
 10
-40.75101
 20
-393.759307
 10
-39.668223
 20
-393.705397
 10
-38.545284
 20
-393.649488
 10
-37.390222
 20
-393.591979
 10
-36.211068
 20
-393.533271
 10
-35.015854
 20
-393.473764
 10
-33.812609
 20
-393.413856
 10
-32.609363
 20
-393.353949
 10
-31.414149
 20
-393.294441
 10
-30.234995
 20
-393.235733
 10
-29.079934
 20
-393.178225
 10
-27.956994
 20
-393.122315
 10
-26.874207
 20
-393.068405
 10
-25.839604
 20
-393.016894
 10
-24.861214
 20
-392.968182
 10
-23.947069
 20
-392.922668
 10
-23.105199
 20
-392.880753
 10
-22.341627
 20
-392.842736
 10
-21.654345
 20
-392.808517
 10
-21.039338
 20
-392.777897
 10
-20.492591
 20
-392.750676
 10
-20.010088
 20
-392.726653
 10
-19.587815
 20
-392.705628
 10
-19.221755
 20
-392.687403
 10
-18.907894
 20
-392.671776
 10
-18.642217
 20
-392.658549
 10
-18.420707
 20
-392.64752
 10
-18.239351
 20
-392.638491
 10
-18.094131
 20
-392.631261
 10
-17.981034
 20
-392.62563
 10
-17.896044
 20
-392.621398
 10
-17.835146
 20
-392.618366
 10
-17.794324
 20
-392.616334
 10
-17.769563
 20
-392.615101
 10
-17.756848
 20
-392.614468
 10
-17.752163
 20
-392.614235
 10
-17.751494
 20
-392.614201
 10
-16.838507
 20
-392.568716
 10
-16.69484
 20
-392.561642
 10
-16.538248
 20
-392.554426
 10
-16.369502
 20
-392.547605
 10
-16.189373
 20
-392.541721
 10
-15.998629
 20
-392.537313
 10
-15.798043
 20
-392.534919
 10
-15.588383
 20
-392.535081
 10
-15.370421
 20
-392.538336
 10
-15.144926
 20
-392.545224
 10
-14.912669
 20
-392.556285
 10
-14.67442
 20
-392.572059
 10
-14.43095
 20
-392.593084
 10
-14.183029
 20
-392.619901
 10
-13.931426
 20
-392.653049
 10
-13.676913
 20
-392.693066
 10
-13.42026
 20
-392.740494
 10
-13.162237
 20
-392.79587
 10
-12.903614
 20
-392.859735
 10
-12.645162
 20
-392.932628
 10
-12.38765
 20
-393.015089
 10
-12.131782
 20
-393.107511
 10
-11.87799
 20
-393.209711
 10
-11.626637
 20
-393.321358
 10
-11.378089
 20
-393.442123
 10
-11.132709
 20
-393.571675
 10
-10.890862
 20
-393.709686
 10
-10.652911
 20
-393.855824
 10
-10.419223
 20
-394.009761
 10
-10.190159
 20
-394.171167
 10
-9.966086
 20
-394.339711
 10
-9.747367
 20
-394.515064
 10
-9.534367
 20
-394.696897
 10
-9.32745
 20
-394.884879
 10
-9.126979
 20
-395.078681
 10
-8.933321
 20
-395.277972
 10
-8.746838
 20
-395.482423
 10
-8.567895
 20
-395.691705
 10
-8.396857
 20
-395.905487
 10
-8.234087
 20
-396.12344
 10
-8.079951
 20
-396.345233
 10
-7.934701
 20
-396.570455
 10
-7.798148
 20
-396.798367
 10
-7.669991
 20
-397.028144
 10
-7.54993
 20
-397.258966
 10
-7.437664
 20
-397.490009
 10
-7.332893
 20
-397.720451
 10
-7.235316
 20
-397.949471
 10
-7.144632
 20
-398.176245
 10
-7.060541
 20
-398.399951
 10
-6.982742
 20
-398.619768
 10
-6.910936
 20
-398.834872
 10
-6.84482
 20
-399.044442
 10
-6.784095
 20
-399.247654
 10
-6.728461
 20
-399.443687
 10
-6.677616
 20
-399.631719
 10
-6.63126
 20
-399.810926
 10
-6.589092
 20
-399.980487
 10
-6.550812
 20
-400.139579
 10
-6.51612
 20
-400.287381
 10
-6.285632
 20
-401.285449
 10
-6.285944
 20
-401.285465
 10
-6.28813
 20
-401.285574
 10
-6.294063
 20
-401.285869
 10
-6.305617
 20
-401.286445
 10
-6.324666
 20
-401.287393
 10
-6.353082
 20
-401.288809
 10
-6.39274
 20
-401.290784
 10
-6.445514
 20
-401.293413
 10
-6.513276
 20
-401.296788
 10
-6.597901
 20
-401.301003
 10
-6.701262
 20
-401.306151
 10
-6.825233
 20
-401.312325
 10
-6.971688
 20
-401.31962
 10
-7.142499
 20
-401.328127
 10
-7.339541
 20
-401.337941
 10
-7.564687
 20
-401.349155
 10
-7.819811
 20
-401.361862
 10
-8.106786
 20
-401.376155
 10
-8.427487
 20
-401.392129
 10
-8.783786
 20
-401.409875
 10
-9.176621
 20
-401.429441
 10
-9.60318
 20
-401.450686
 10
-10.059718
 20
-401.473425
 10
-10.542486
 20
-401.49747
 10
-11.047738
 20
-401.522635
 10
-11.571726
 20
-401.548733
 10
-12.110702
 20
-401.575578
 10
-12.660921
 20
-401.602983
 10
-13.218634
 20
-401.630761
 10
-13.780094
 20
-401.658725
 10
-14.341554
 20
-401.68669
 10
-14.899267
 20
-401.714468
 10
-15.449485
 20
-401.741873
 10
-15.988462
 20
-401.768718
 10
-16.51245
 20
-401.794816
 10
-17.017701
 20
-401.819981
 10
-17.500469
 20
-401.844026
 10
-17.957007
 20
-401.866765
 10
-18.383567
 20
-401.88801
 10
-18.776402
 20
-401.907576
 10
-19.132701
 20
-401.925322
 10
-19.453401
 20
-401.941295
 10
-19.740377
 20
-401.955589
 10
-19.995501
 20
-401.968296
 10
-20.220647
 20
-401.97951
 10
-20.417689
 20
-401.989324
 10
-20.5885
 20
-401.997831
 10
-20.734954
 20
-402.005126
 10
-20.858925
 20
-402.0113
 10
-20.962286
 20
-402.016448
 10
-21.046911
 20
-402.020663
 10
-21.114674
 20
-402.024038
 10
-21.167447
 20
-402.026667
 10
-21.207105
 20
-402.028642
 10
-21.235522
 20
-402.030057
 10
-21.25457
 20
-402.031006
 10
-21.266124
 20
-402.031582
 10
-21.272057
 20
-402.031877
 10
-21.274243
 20
-402.031986
 10
-21.274556
 20
-402.032002
 10
-21.491338
 20
-402.042787
 10
-21.525448
 20
-402.044506
 10
-21.562611
 20
-402.04651
 10
-21.602631
 20
-402.048921
 10
-21.645307
 20
-402.051862
 10
-21.690443
 20
-402.055457
 10
-21.73784
 20
-402.059828
 10
-21.7873
 20
-402.065098
 10
-21.838624
 20
-402.071389
 10
-21.891616
 20
-402.078825
 10
-21.946075
 20
-402.087529
 10
-22.001806
 20
-402.097623
 10
-22.058608
 20
-402.10923
 10
-22.116285
 20
-402.122473
 10
-22.174638
 20
-402.137475
 10
-22.233468
 20
-402.154359
 10
-22.292579
 20
-402.173248
 10
-22.351771
 20
-402.194263
 10
-22.410847
 20
-402.21753
 10
-22.469608
 20
-402.243169
 10
-22.527856
 20
-402.271304
 10
-22.58541
 20
-402.30202
 10
-22.642153
 20
-402.335247
 10
-22.697986
 20
-402.370876
 10
-22.75281
 20
-402.408799
 10
-22.806525
 20
-402.448909
 10
-22.859031
 20
-402.491096
 10
-22.910228
 20
-402.535254
 10
-22.960018
 20
-402.581273
 10
-23.008301
 20
-402.629045
 10
-23.054976
 20
-402.678463
 10
-23.099945
 20
-402.729418
 10
-23.143108
 20
-402.781802
 10
-23.184365
 20
-402.835507
 10
-23.223617
 20
-402.890424
 10
-23.260765
 20
-402.946446
 10
-23.295708
 20
-403.003464
 10
-23.328347
 20
-403.06137
 10
-23.358582
 20
-403.120056
 10
-23.386315
 20
-403.179414
 10
-23.411445
 20
-403.239336
 10
-23.433913
 20
-403.2997
 10
-23.453822
 20
-403.360335
 10
-23.471316
 20
-403.421056
 10
-23.486536
 20
-403.481679
 10
-23.499628
 20
-403.542018
 10
-23.510733
 20
-403.601891
 10
-23.519995
 20
-403.661111
 10
-23.527557
 20
-403.719495
 10
-23.533562
 20
-403.776858
 10
-23.538154
 20
-403.833014
 10
-23.541475
 20
-403.887781
 10
-23.543669
 20
-403.940972
 10
-23.544879
 20
-403.992405
 10
-23.545248
 20
-404.041893
 10
-23.544919
 20
-404.089252
 10
-23.544035
 20
-404.134298
 10
-23.542741
 20
-404.176847
 10
-23.541178
 20
-404.216713
 10
-23.53949
 20
-404.253712
 10
-23.527066
 20
-404.503397
 10
-23.516341
 20
-404.719056
 10
-23.514631
 20
-404.752989
 10
-23.512637
 20
-404.78996
 10
-23.510234
 20
-404.82977
 10
-23.507299
 20
-404.872222
 10
-23.503708
 20
-404.917118
 10
-23.499337
 20
-404.96426
 10
-23.494063
 20
-405.013451
 10
-23.487761
 20
-405.064492
 10
-23.480308
 20
-405.117187
 10
-23.471581
 20
-405.171338
 10
-23.461455
 20
-405.226746
 10
-23.449807
 20
-405.283215
 10
-23.436512
 20
-405.340546
 10
-23.421448
 20
-405.398541
 10
-23.40449
 20
-405.457004
 10
-23.385514
 20
-405.515736
 10
-23.364397
 20
-405.574539
 10
-23.341016
 20
-405.633216
 10
-23.315245
 20
-405.69157
 10
-23.286962
 20
-405.749402
 10
-23.256082
 20
-405.806531
 10
-23.222674
 20
-405.862843
 10
-23.186847
 20
-405.91824
 10
-23.14871
 20
-405.972624
 10
-23.108372
 20
-406.025896
 10
-23.06594
 20
-406.07796
 10
-23.021525
 20
-406.128716
 10
-22.975235
 20
-406.178067
 10
-22.927178
 20
-406.225915
 10
-22.877463
 20
-406.272162
 10
-22.826199
 20
-406.31671
 10
-22.773494
 20
-406.359461
 10
-22.719458
 20
-406.400317
 10
-22.664199
 20
-406.43918
 10
-22.607826
 20
-406.475953
 10
-22.550447
 20
-406.510536
 10
-22.492171
 20
-406.542832
 10
-22.433107
 20
-406.572743
 10
-22.373364
 20
-406.600172
 10
-22.31305
 20
-406.62502
 10
-22.252287
 20
-406.647229
 10
-22.191248
 20
-406.666901
 10
-22.130119
 20
-406.684178
 10
-22.069086
 20
-406.699203
 10
-22.008336
 20
-406.712118
 10
-21.948054
 20
-406.723064
 10
-21.888426
 20
-406.732184
 10
-21.829639
 20
-406.73962
 10
-21.771878
 20
-406.745514
 10
-21.71533
 20
-406.750009
 10
-21.66018
 20
-406.753245
 10
-21.606615
 20
-406.755365
 10
-21.55482
 20
-406.756512
 10
-21.504983
 20
-406.756828
 10
-21.457288
 20
-406.756453
 10
-21.411922
 20
-406.755532
 10
-21.369071
 20
-406.754206
 10
-21.328921
 20
-406.752616
 10
-21.291657
 20
-406.750905
 10
-21.040191
 20
-406.738337
 10
-21.039875
 20
-406.738321
 10
-21.037665
 20
-406.738211
 10
-21.031664
 20
-406.737913
 10
-21.019979
 20
-406.737331
 10
-21.000715
 20
-406.736372
 10
-20.971976
 20
-406.734941
 10
-20.931867
 20
-406.732945
 10
-20.878495
 20
-406.730288
 10
-20.809963
 20
-406.726877
 10
-20.724378
 20
-406.722617
 10
-20.619844
 20
-406.717414
 10
-20.494466
 20
-406.711173
 10
-20.34635
 20
-406.7038
 10
-20.1736
 20
-406.695201
 10
-19.974322
 20
-406.685282
 10
-19.74662
 20
-406.673948
 10
-19.488601
 20
-406.661104
 10
-19.198368
 20
-406.646658
 10
-18.874028
 20
-406.630513
 10
-18.513685
 20
-406.612577
 10
-18.116392
 20
-406.592801
 10
-17.684991
 20
-406.571327
 10
-17.223272
 20
-406.548344
 10
-16.735025
 20
-406.524041
 10
-16.224039
 20
-406.498606
 10
-15.694105
 20
-406.472228
 10
-15.149011
 20
-406.445095
 10
-14.592548
 20
-406.417396
 10
-14.028506
 20
-406.38932
 10
-13.460674
 20
-406.361056
 10
-12.892841
 20
-406.332791
 10
-12.328799
 20
-406.304715
 10
-11.772336
 20
-406.277016
 10
-11.227242
 20
-406.249883
 10
-10.697308
 20
-406.223505
 10
-10.186322
 20
-406.19807
 10
-9.698075
 20
-406.173767
 10
-9.236356
 20
-406.150784
 10
-8.804955
 20
-406.12931
 10
-8.407662
 20
-406.109535
 10
-8.047319
 20
-406.091598
 10
-7.722979
 20
-406.075453
 10
-7.432746
 20
-406.061007
 10
-7.174727
 20
-406.048163
 10
-6.947026
 20
-406.036829
 10
-6.747747
 20
-406.02691
 10
-6.574998
 20
-406.018311
 10
-6.426881
 20
-406.010938
 10
-6.301503
 20
-406.004697
 10
-6.196969
 20
-405.999494
 10
-6.111384
 20
-405.995234
 10
-6.042852
 20
-405.991823
 10
-5.98948
 20
-405.989166
 10
-5.949372
 20
-405.98717
 10
-5.920633
 20
-405.985739
 10
-5.901368
 20
-405.98478
 10
-5.889683
 20
-405.984198
 10
-5.883682
 20
-405.9839
 10
-5.881472
 20
-405.98379
 10
-5.881156
 20
-405.983774
 10
-5.854507
 20
-406.989408
 10
-5.850415
 20
-407.147651
 10
-5.846555
 20
-407.320113
 10
-5.843557
 20
-407.505927
 10
-5.842055
 20
-407.704228
 10
-5.842677
 20
-407.914149
 10
-5.846057
 20
-408.134826
 10
-5.852826
 20
-408.365391
 10
-5.863614
 20
-408.604979
 10
-5.879054
 20
-408.852723
 10
-5.899776
 20
-409.107759
 10
-5.926412
 20
-409.369219
 10
-5.959594
 20
-409.636239
 10
-5.999953
 20
-409.907951
 10
-6.048119
 20
-410.183491
 10
-6.104725
 20
-410.461991
 10
-6.170402
 20
-410.742587
 10
-6.245781
 20
-411.024412
 10
-6.331494
 20
-411.3066
 10
-6.428172
 20
-411.588285
 10
-6.536446
 20
-411.868602
 10
-6.656769
 20
-412.146746
 10
-6.788874
 20
-412.422163
 10
-6.932317
 20
-412.694359
 10
-7.086653
 20
-412.962841
 10
-7.251436
 20
-413.227117
 10
-7.426221
 20
-413.486693
 10
-7.610564
 20
-413.741077
 10
-7.804019
 20
-413.989776
 10
-8.006142
 20
-414.232296
 10
-8.216487
 20
-414.468144
 10
-8.434609
 20
-414.696828
 10
-8.660063
 20
-414.917855
 10
-8.892404
 20
-415.130731
 10
-9.131187
 20
-415.334964
 10
-9.375968
 20
-415.530061
 10
-9.6263
 20
-415.715529
 10
-9.881739
 20
-415.890874
 10
-10.141839
 20
-416.055604
 10
-10.406157
 20
-416.209226
 10
-10.674246
 20
-416.351247
 10
-10.945582
 20
-416.48135
 10
-11.219321
 20
-416.599926
 10
-11.494538
 20
-416.707542
 10
-11.770309
 20
-416.804764
 10
-12.045711
 20
-416.89216
 10
-12.319819
 20
-416.970296
 10
-12.59171
 20
-417.03974
 10
-12.860458
 20
-417.101058
 10
-13.125141
 20
-417.154818
 10
-13.384833
 20
-417.201585
 10
-13.638612
 20
-417.241928
 10
-13.885553
 20
-417.276412
 10
-14.124731
 20
-417.305606
 10
-14.355224
 20
-417.330075
 10
-14.576106
 20
-417.350387
 10
-14.786453
 20
-417.367109
 10
-14.985343
 20
-417.380807
 10
-15.17185
 20
-417.392049
 10
-15.34505
 20
-417.401401
 10
-16.514329
 20
-417.459812
 10
-16.514999
 20
-417.459846
 10
-16.519683
 20
-417.460079
 10
-16.532398
 20
-417.460712
 10
-16.557159
 20
-417.461945
 10
-16.597981
 20
-417.463977
 10
-16.658879
 20
-417.467009
 10
-16.74387
 20
-417.471241
 10
-16.856967
 20
-417.476872
 10
-17.002186
 20
-417.484102
 10
-17.183543
 20
-417.493131
 10
-17.405052
 20
-417.50416
 10
-17.67073
 20
-417.517388
 10
-17.984591
 20
-417.533014
 10
-18.35065
 20
-417.55124
 10
-18.772924
 20
-417.572264
 10
-19.255426
 20
-417.596287
 10
-19.802173
 20
-417.623509
 10
-20.41718
 20
-417.654129
 10
-21.104462
 20
-417.688347
 10
-21.868034
 20
-417.726364
 10
-22.709904
 20
-417.768279
 10
-23.624049
 20
-417.813793
 10
-24.602439
 20
-417.862505
 10
-25.637042
 20
-417.914017
 10
-26.719829
 20
-417.967927
 10
-27.842769
 20
-418.023836
 10
-28.997831
 20
-418.081344
 10
-30.176984
 20
-418.140052
 10
-31.372199
 20
-418.19956
 10
-32.575444
 20
-418.259467
 10
-33.778689
 20
-418.319375
 10
-34.973904
 20
-418.378883
 10
-36.153057
 20
-418.437591
 10
-37.308119
 20
-418.495099
 10
-38.431059
 20
-418.551008
 10
-39.513845
 20
-418.604918
 10
-40.548449
 20
-418.65643
 10
-41.526838
 20
-418.705142
 10
-42.440983
 20
-418.750656
 10
-43.282854
 20
-418.792571
 10
-44.046426
 20
-418.830588
 10
-44.733708
 20
-418.864806
 10
-45.348714
 20
-418.895426
 10
-45.895461
 20
-418.922648
 10
-46.377964
 20
-418.946671
 10
-46.800238
 20
-418.967695
 10
-47.166297
 20
-418.985921
 10
-47.480158
 20
-419.001547
 10
-47.745836
 20
-419.014775
 10
-47.967345
 20
-419.025804
 10
-48.148702
 20
-419.034833
 10
-48.293921
 20
-419.042063
 10
-48.407018
 20
-419.047694
 10
-48.492008
 20
-419.051926
 10
-48.552907
 20
-419.054958
 10
-48.593729
 20
-419.05699
 10
-48.61849
 20
-419.058223
 10
-48.631205
 20
-419.058856
 10
-48.635889
 20
-419.059089
 10
-48.636558
 20
-419.059123
 10
-49.661445
 20
-419.110099
 10
-49.822719
 20
-419.118015
 10
-49.998488
 20
-419.126022
 10
-50.187877
 20
-419.133446
 10
-50.390007
 20
-419.139613
 10
-50.604002
 20
-419.143848
 10
-50.828984
 20
-419.145478
 10
-51.064077
 20
-419.143829
 10
-51.308403
 20
-419.138227
 10
-51.561084
 20
-419.127998
 10
-51.821244
 20
-419.112468
 10
-52.088006
 20
-419.090963
 10
-52.360492
 20
-419.062808
 10
-52.637826
 20
-419.027331
 10
-52.919129
 20
-418.983857
 10
-53.203525
 20
-418.931712
 10
-53.490137
 20
-418.870223
 10
-53.778088
 20
-418.798714
 10
-54.0665
 20
-418.716513
 10
-54.354495
 20
-418.622945
 10
-54.641198
 20
-418.517336
 10
-54.925792
 20
-418.399202
 10
-55.207701
 20
-418.268818
 10
-55.486414
 20
-418.126649
 10
-55.761417
 20
-417.973158
 10
-56.032196
 20
-417.808811
 10
-56.298238
 20
-417.634072
 10
-56.55903
 20
-417.449405
 10
-56.814059
 20
-417.255276
 10
-57.06281
 20
-417.052148
 10
-57.304772
 20
-416.840486
 10
-57.53943
 20
-416.620755
 10
-57.766271
 20
-416.393419
 10
-57.984782
 20
-416.158943
 10
-58.194449
 20
-415.917791
 10
-58.394759
 20
-415.670428
 10
-58.5852
 20
-415.417318
 10
-58.765256
 20
-415.158926
 10
-58.934416
 20
-414.895717
 10
-59.092166
 20
-414.628154
 10
-59.237992
 20
-414.356703
 10
-59.371564
 20
-414.081907
 10
-59.493283
 20
-413.804627
 10
-59.603732
 20
-413.525802
 10
-59.703495
 20
-413.246374
 10
-59.793155
 20
-412.967281
 10
-59.873296
 20
-412.689463
 10
-59.944501
 20
-412.413861
 10
-60.007354
 20
-412.141414
 10
-60.062438
 20
-411.873063
 10
-60.110337
 20
-411.609746
 10
-60.151635
 20
-411.352405
 10
-60.186915
 20
-411.101978
 10
-60.21676
 20
-410.859406
 10
-60.241754
 20
-410.625629
 10
-60.262481
 20
-410.401587
 10
-60.279524
 20
-410.188219
 10
-60.293467
 20
-409.986466
 10
-60.304893
 20
-409.797266
 10
-60.314385
 20
-409.621562
 10
-60.37361
 20
-408.435355
  0
LWPOLYLINE
  5
32
330
1F
100
AcDbEntity
  8
0
100
AcDbPolyline
 90
      365
 70
   128
 43
0.0
 10
265.137731
 20
-176.981825
 10
265.137731
 20
-176.765838
 10
265.137753
 20
-176.731852
 10
265.13791
 20
-176.694818
 10
265.138336
 20
-176.654926
 10
265.139166
 20
-176.612369
 10
265.140534
 20
-176.567339
 10
265.142576
 20
-176.520025
 10
265.145424
 20
-176.470621
 10
265.149215
 20
-176.419316
 10
265.154083
 20
-176.366304
 10
265.160161
 20
-176.311774
 10
265.167586
 20
-176.255919
 10
265.176491
 20
-176.198931
 10
265.187011
 20
-176.141
 10
265.19928
 20
-176.082317
 10
265.213434
 20
-176.023076
 10
265.229606
 20
-175.963466
 10
265.247932
 20
-175.903679
 10
265.268546
 20
-175.843907
 10
265.291582
 20
-175.784341
 10
265.317176
 20
-175.725173
 10
265.34542
 20
-175.666579
 10
265.37625
 20
-175.608677
 10
265.409556
 20
-175.551571
 10
265.445233
 20
-175.495362
 10
265.483172
 20
-175.440156
 10
265.523268
 20
-175.386053
 10
265.565412
 20
-175.333159
 10
265.609497
 20
-175.281574
 10
265.655417
 20
-175.231404
 10
265.703064
 20
-175.18275
 10
265.752331
 20
-175.135717
 10
265.80311
 20
-175.090406
 10
265.855295
 20
-175.046922
 10
265.908779
 20
-175.005366
 10
265.963453
 20
-174.965843
 10
266.019212
 20
-174.928455
 10
266.075947
 20
-174.893306
 10
266.133552
 20
-174.860498
 10
266.19192
 20
-174.830134
 10
266.250943
 20
-174.802319
 10
266.3105
 20
-174.777114
 10
266.370416
 20
-174.754428
 10
266.430502
 20
-174.734128
 10
266.490567
 20
-174.716081
 10
266.550423
 20
-174.700154
 10
266.60988
 20
-174.686216
 10
266.668749
 20
-174.674133
 10
266.72684
 20
-174.663773
 10
266.783964
 20
-174.655003
 10
266.839932
 20
-174.647691
 10
266.894553
 20
-174.641705
 10
266.94764
 20
-174.636912
 10
266.999002
 20
-174.633179
 10
267.04845
 20
-174.630373
 10
267.095794
 20
-174.628363
 10
267.140846
 20
-174.627016
 10
267.183415
 20
-174.626198
 10
267.223313
 20
-174.625779
 10
267.26035
 20
-174.625624
 10
267.510324
 20
-174.625602
 10
267.511859
 20
-174.625602
 10
267.522606
 20
-174.625602
 10
267.551775
 20
-174.625602
 10
267.60858
 20
-174.625602
 10
267.70223
 20
-174.625602
 10
267.841938
 20
-174.625602
 10
268.036914
 20
-174.625602
 10
268.296372
 20
-174.625602
 10
268.629521
 20
-174.625602
 10
269.045574
 20
-174.625602
 10
269.553742
 20
-174.625602
 10
270.163236
 20
-174.625602
 10
270.883268
 20
-174.625602
 10
271.72305
 20
-174.625602
 10
272.691793
 20
-174.625602
 10
273.798708
 20
-174.625602
 10
275.053008
 20
-174.625602
 10
276.463902
 20
-174.625602
 10
278.040604
 20
-174.625602
 10
279.792325
 20
-174.625602
 10
281.723669
 20
-174.625602
 10
283.820821
 20
-174.625602
 10
286.065357
 20
-174.625602
 10
288.438854
 20
-174.625602
 10
290.922888
 20
-174.625602
 10
293.499038
 20
-174.625602
 10
296.14888
 20
-174.625602
 10
298.853991
 20
-174.625602
 10
301.595947
 20
-174.625602
 10
304.356327
 20
-174.625602
 10
307.116707
 20
-174.625602
 10
309.858664
 20
-174.625602
 10
312.563774
 20
-174.625602
 10
315.213616
 20
-174.625602
 10
317.789766
 20
-174.625602
 10
320.2738
 20
-174.625602
 10
322.647297
 20
-174.625602
 10
324.891833
 20
-174.625602
 10
326.988985
 20
-174.625602
 10
328.920329
 20
-174.625602
 10
330.67205
 20
-174.625602
 10
332.248752
 20
-174.625602
 10
333.659646
 20
-174.625602
 10
334.913946
 20
-174.625602
 10
336.020861
 20
-174.625602
 10
336.989604
 20
-174.625602
 10
337.829386
 20
-174.625602
 10
338.549418
 20
-174.625602
 10
339.158912
 20
-174.625602
 10
339.66708
 20
-174.625602
 10
340.083133
 20
-174.625602
 10
340.416282
 20
-174.625602
 10
340.67574
 20
-174.625602
 10
340.870716
 20
-174.625602
 10
341.010424
 20
-174.625602
 10
341.104074
 20
-174.625602
 10
341.160879
 20
-174.625602
 10
341.190048
 20
-174.625602
 10
341.200795
 20
-174.625602
 10
341.20233
 20
-174.625602
 10
341.4184
 20
-174.625602
 10
341.4524
 20
-174.625624
 10
341.489451
 20
-174.625779
 10
341.529363
 20
-174.626198
 10
341.571949
 20
-174.627016
 10
341.617017
 20
-174.628363
 10
341.664378
 20
-174.630373
 10
341.713843
 20
-174.633179
 10
341.765222
 20
-174.636912
 10
341.818326
 20
-174.641705
 10
341.872965
 20
-174.647691
 10
341.92895
 20
-174.655003
 10
341.98609
 20
-174.663773
 10
342.044197
 20
-174.674133
 10
342.103081
 20
-174.686216
 10
342.162552
 20
-174.700154
 10
342.222421
 20
-174.716081
 10
342.282498
 20
-174.734128
 10
342.342594
 20
-174.754428
 10
342.402519
 20
-174.777114
 10
342.462083
 20
-174.802319
 10
342.521111
 20
-174.830134
 10
342.579483
 20
-174.860498
 10
342.63709
 20
-174.893306
 10
342.693826
 20
-174.928455
 10
342.749583
 20
-174.965843
 10
342.804256
 20
-175.005366
 10
342.857736
 20
-175.046922
 10
342.909917
 20
-175.090406
 10
342.960691
 20
-175.135717
 10
343.009952
 20
-175.18275
 10
343.057592
 20
-175.231404
 10
343.103505
 20
-175.281574
 10
343.147583
 20
-175.333159
 10
343.189719
 20
-175.386053
 10
343.229807
 20
-175.440156
 10
343.267739
 20
-175.495362
 10
343.303408
 20
-175.551571
 10
343.336707
 20
-175.608677
 10
343.36753
 20
-175.666579
 10
343.395768
 20
-175.725173
 10
343.421355
 20
-175.784341
 10
343.444386
 20
-175.843907
 10
343.464995
 20
-175.903679
 10
343.483317
 20
-175.963466
 10
343.499486
 20
-176.023076
 10
343.513636
 20
-176.082317
 10
343.525903
 20
-176.141
 10
343.53642
 20
-176.198931
 10
343.545323
 20
-176.255919
 10
343.552746
 20
-176.311774
 10
343.558823
 20
-176.366304
 10
343.56369
 20
-176.419316
 10
343.56748
 20
-176.470621
 10
343.570328
 20
-176.520025
 10
343.572368
 20
-176.567339
 10
343.573736
 20
-176.612369
 10
343.574566
 20
-176.654926
 10
343.574992
 20
-176.694818
 10
343.575149
 20
-176.731852
 10
343.575172
 20
-176.981825
 10
343.575172
 20
-177.197812
 10
343.575149
 20
-177.231799
 10
343.574994
 20
-177.268833
 10
343.574571
 20
-177.308724
 10
343.573748
 20
-177.351282
 10
343.572391
 20
-177.396313
 10
343.570367
 20
-177.443627
 10
343.567542
 20
-177.493032
 10
343.563782
 20
-177.544337
 10
343.558955
 20
-177.597351
 10
343.552927
 20
-177.651882
 10
343.545564
 20
-177.707738
 10
343.536733
 20
-177.764729
 10
343.5263
 20
-177.822662
 10
343.514132
 20
-177.881347
 10
343.500096
 20
-177.940593
 10
343.484058
 20
-178.000206
 10
343.465884
 20
-178.059997
 10
343.445441
 20
-178.119774
 10
343.422596
 20
-178.179345
 10
343.397215
 20
-178.238519
 10
343.369204
 20
-178.29712
 10
343.338627
 20
-178.355028
 10
343.305589
 20
-178.412142
 10
343.270193
 20
-178.468359
 10
343.232543
 20
-178.523574
 10
343.192742
 20
-178.577685
 10
343.150895
 20
-178.630588
 10
343.107104
 20
-178.682182
 10
343.061475
 20
-178.732361
 10
343.014111
 20
-178.781024
 10
342.965116
 20
-178.828067
 10
342.914593
 20
-178.873387
 10
342.862646
 20
-178.916881
 10
342.809379
 20
-178.958445
 10
342.754896
 20
-178.997977
 10
342.6993
 20
-179.035373
 10
342.642696
 20
-179.070531
 10
342.585187
 20
-179.103346
 10
342.526877
 20
-179.133717
 10
342.46787
 20
-179.161539
 10
342.408285
 20
-179.186749
 10
342.348299
 20
-179.20944
 10
342.288105
 20
-179.229745
 10
342.227896
 20
-179.247797
 10
342.167865
 20
-179.263727
 10
342.108204
 20
-179.277669
 10
342.049107
 20
-179.289755
 10
341.990766
 20
-179.300117
 10
341.933375
 20
-179.308889
 10
341.877125
 20
-179.316202
 10
341.82221
 20
-179.32219
 10
341.768822
 20
-179.326984
 10
341.717155
 20
-179.330718
 10
341.6674
 20
-179.333524
 10
341.619752
 20
-179.335535
 10
341.574402
 20
-179.336883
 10
341.531544
 20
-179.3377
 10
341.49137
 20
-179.33812
 10
341.454074
 20
-179.338275
 10
341.20233
 20
-179.338297
 10
341.200795
 20
-179.338297
 10
341.190048
 20
-179.338297
 10
341.160879
 20
-179.338297
 10
341.104074
 20
-179.338297
 10
341.010424
 20
-179.338297
 10
340.870716
 20
-179.338297
 10
340.67574
 20
-179.338297
 10
340.416282
 20
-179.338297
 10
340.083133
 20
-179.338297
 10
339.66708
 20
-179.338297
 10
339.158912
 20
-179.338297
 10
338.549418
 20
-179.338297
 10
337.829386
 20
-179.338297
 10
336.989604
 20
-179.338297
 10
336.020861
 20
-179.338297
 10
334.913946
 20
-179.338297
 10
333.659646
 20
-179.338297
 10
332.248752
 20
-179.338297
 10
330.67205
 20
-179.338297
 10
328.920329
 20
-179.338297
 10
326.988985
 20
-179.338297
 10
324.891833
 20
-179.338297
 10
322.647297
 20
-179.338297
 10
320.2738
 20
-179.338297
 10
317.789766
 20
-179.338297
 10
315.213616
 20
-179.338297
 10
312.563774
 20
-179.338297
 10
309.858664
 20
-179.338297
 10
307.116707
 20
-179.338297
 10
304.356327
 20
-179.338297
 10
301.595947
 20
-179.338297
 10
298.853991
 20
-179.338297
 10
296.14888
 20
-179.338297
 10
293.499038
 20
-179.338297
 10
290.922888
 20
-179.338297
 10
288.438854
 20
-179.338297
 10
286.065357
 20
-179.338297
 10
283.820821
 20
-179.338297
 10
281.723669
 20
-179.338297
 10
279.792325
 20
-179.338297
 10
278.040604
 20
-179.338297
 10
276.463902
 20
-179.338297
 10
275.053008
 20
-179.338297
 10
273.798708
 20
-179.338297
 10
272.691793
 20
-179.338297
 10
271.72305
 20
-179.338297
 10
270.883268
 20
-179.338297
 10
270.163236
 20
-179.338297
 10
269.553742
 20
-179.338297
 10
269.045574
 20
-179.338297
 10
268.629521
 20
-179.338297
 10
268.296372
 20
-179.338297
 10
268.036914
 20
-179.338297
 10
267.841938
 20
-179.338297
 10
267.70223
 20
-179.338297
 10
267.60858
 20
-179.338297
 10
267.551775
 20
-179.338297
 10
267.522606
 20
-179.338297
 10
267.511859
 20
-179.338297
 10
267.510324
 20
-179.338297
 10
267.29289
 20
-179.338297
 10
267.258676
 20
-179.338275
 10
267.221393
 20
-179.33812
 10
267.181235
 20
-179.3377
 10
267.138392
 20
-179.336883
 10
267.093059
 20
-179.335535
 10
267.045427
 20
-179.333524
 10
266.99569
 20
-179.330718
 10
266.94404
 20
-179.326984
 10
266.89067
 20
-179.32219
 10
266.835772
 20
-179.316202
 10
266.779539
 20
-179.308889
 10
266.722164
 20
-179.300117
 10
266.663839
 20
-179.289755
 10
266.604757
 20
-179.277669
 10
266.54511
 20
-179.263727
 10
266.485092
 20
-179.247797
 10
266.424895
 20
-179.229745
 10
266.364712
 20
-179.20944
 10
266.304734
 20
-179.186749
 10
266.245156
 20
-179.161539
 10
266.186154
 20
-179.133717
 10
266.127848
 20
-179.103346
 10
266.070341
 20
-179.070531
 10
266.013737
 20
-179.035373
 10
265.958141
 20
-178.997977
 10
265.903656
 20
-178.958445
 10
265.850385
 20
-178.916881
 10
265.798434
 20
-178.873387
 10
265.747906
 20
-178.828067
 10
265.698905
 20
-178.781024
 10
265.651534
 20
-178.732361
 10
265.605898
 20
-178.682182
 10
265.5621
 20
-178.630588
 10
265.520246
 20
-178.577685
 10
265.480437
 20
-178.523574
 10
265.442779
 20
-178.468359
 10
265.407375
 20
-178.412142
 10
265.37433
 20
-178.355028
 10
265.343746
 20
-178.29712
 10
265.315729
 20
-178.238519
 10
265.290342
 20
-178.179345
 10
265.267491
 20
-178.119774
 10
265.247044
 20
-178.059997
 10
265.228866
 20
-178.000206
 10
265.212824
 20
-177.940593
 10
265.198784
 20
-177.881347
 10
265.186613
 20
-177.822662
 10
265.176178
 20
-177.764729
 10
265.167345
 20
-177.707738
 10
265.15998
 20
-177.651882
 10
265.153951
 20
-177.597351
 10
265.149122
 20
-177.544337
 10
265.145362
 20
-177.493032
 10
265.142537
 20
-177.443627
 10
265.140512
 20
-177.396313
 10
265.139155
 20
-177.351282
 10
265.138331
 20
-177.308724
 10
265.137909
 20
-177.268833
 10
265.137753
 20
-177.231799
 10
265.137731
 20
-176.981825
  0
LWPOLYLINE
  5
33
330
1F
100
AcDbEntity
  8
0
100
AcDbPolyline
 90
      365
 70
   128
 43
0.0
 10
265.137731
 20
-59.666448
 10
265.137731
 20
-59.450461
 10
265.137753
 20
-59.416475
 10
265.13791
 20
-59.379441
 10
265.138336
 20
-59.339549
 10
265.139166
 20
-59.296993
 10
265.140534
 20
-59.251962
 10
265.142576
 20
-59.204649
 10
265.145424
 20
-59.155245
 10
265.149215
 20
-59.103942
 10
265.154083
 20
-59.05093
 10
265.160161
 20
-58.996402
 10
265.167586
 20
-58.940549
 10
265.176491
 20
-58.883563
 10
265.187011
 20
-58.825634
 10
265.19928
 20
-58.766955
 10
265.213434
 20
-58.707716
 10
265.229606
 20
-58.64811
 10
265.247932
 20
-58.588327
 10
265.268546
 20
-58.52856
 10
265.291582
 20
-58.468999
 10
265.317176
 20
-58.409837
 10
265.34542
 20
-58.35125
 10
265.37625
 20
-58.293355
 10
265.409556
 20
-58.236256
 10
265.445233
 20
-58.180056
 10
265.483172
 20
-58.124857
 10
265.523268
 20
-58.070764
 10
265.565412
 20
-58.017878
 10
265.609497
 20
-57.966303
 10
265.655417
 20
-57.916142
 10
265.703064
 20
-57.867497
 10
265.752331
 20
-57.820473
 10
265.80311
 20
-57.775172
 10
265.855295
 20
-57.731696
 10
265.908779
 20
-57.69015
 10
265.963453
 20
-57.650635
 10
266.019212
 20
-57.613256
 10
266.075947
 20
-57.578114
 10
266.133552
 20
-57.545314
 10
266.19192
 20
-57.514957
 10
266.250943
 20
-57.487148
 10
266.3105
 20
-57.46195
 10
266.370416
 20
-57.439269
 10
266.430502
 20
-57.418974
 10
266.490567
 20
-57.400931
 10
266.550423
 20
-57.385008
 10
266.60988
 20
-57.371072
 10
266.668749
 20
-57.358992
 10
266.72684
 20
-57.348635
 10
266.783964
 20
-57.339867
 10
266.839932
 20
-57.332557
 10
266.894553
 20
-57.326572
 10
266.94764
 20
-57.32178
 10
266.999002
 20
-57.318048
 10
267.04845
 20
-57.315243
 10
267.095794
 20
-57.313233
 10
267.140846
 20
-57.311886
 10
267.183415
 20
-57.311069
 10
267.223313
 20
-57.310649
 10
267.26035
 20
-57.310495
 10
267.510324
 20
-57.310473
 10
267.511859
 20
-57.310473
 10
267.522606
 20
-57.310473
 10
267.551775
 20
-57.310473
 10
267.60858
 20
-57.310473
 10
267.70223
 20
-57.310473
 10
267.841938
 20
-57.310473
 10
268.036914
 20
-57.310473
 10
268.296372
 20
-57.310473
 10
268.629521
 20
-57.310473
 10
269.045574
 20
-57.310473
 10
269.553742
 20
-57.310473
 10
270.163236
 20
-57.310473
 10
270.883268
 20
-57.310473
 10
271.72305
 20
-57.310473
 10
272.691793
 20
-57.310473
 10
273.798708
 20
-57.310473
 10
275.053008
 20
-57.310473
 10
276.463902
 20
-57.310473
 10
278.040604
 20
-57.310473
 10
279.792325
 20
-57.310473
 10
281.723669
 20
-57.310473
 10
283.820821
 20
-57.310473
 10
286.065357
 20
-57.310473
 10
288.438854
 20
-57.310473
 10
290.922888
 20
-57.310473
 10
293.499038
 20
-57.310473
 10
296.14888
 20
-57.310473
 10
298.853991
 20
-57.310473
 10
301.595947
 20
-57.310473
 10
304.356327
 20
-57.310473
 10
307.116707
 20
-57.310473
 10
309.858664
 20
-57.310473
 10
312.563774
 20
-57.310473
 10
315.213616
 20
-57.310473
 10
317.789766
 20
-57.310473
 10
320.2738
 20
-57.310473
 10
322.647297
 20
-57.310473
 10
324.891833
 20
-57.310473
 10
326.988985
 20
-57.310473
 10
328.920329
 20
-57.310473
 10
330.67205
 20
-57.310473
 10
332.248752
 20
-57.310473
 10
333.659646
 20
-57.310473
 10
334.913946
 20
-57.310473
 10
336.020861
 20
-57.310473
 10
336.989604
 20
-57.310473
 10
337.829386
 20
-57.310473
 10
338.549418
 20
-57.310473
 10
339.158912
 20
-57.310473
 10
339.66708
 20
-57.310473
 10
340.083133
 20
-57.310473
 10
340.416282
 20
-57.310473
 10
340.67574
 20
-57.310473
 10
340.870716
 20
-57.310473
 10
341.010424
 20
-57.310473
 10
341.104074
 20
-57.310473
 10
341.160879
 20
-57.310473
 10
341.190048
 20
-57.310473
 10
341.200795
 20
-57.310473
 10
341.20233
 20
-57.310473
 10
341.4184
 20
-57.310473
 10
341.4524
 20
-57.310495
 10
341.489451
 20
-57.310649
 10
341.529363
 20
-57.311069
 10
341.571949
 20
-57.311886
 10
341.617017
 20
-57.313233
 10
341.664378
 20
-57.315243
 10
341.713843
 20
-57.318048
 10
341.765222
 20
-57.32178
 10
341.818326
 20
-57.326572
 10
341.872965
 20
-57.332557
 10
341.92895
 20
-57.339867
 10
341.98609
 20
-57.348635
 10
342.044197
 20
-57.358992
 10
342.103081
 20
-57.371072
 10
342.162552
 20
-57.385008
 10
342.222421
 20
-57.400931
 10
342.282498
 20
-57.418974
 10
342.342594
 20
-57.439269
 10
342.402519
 20
-57.46195
 10
342.462083
 20
-57.487148
 10
342.521111
 20
-57.514957
 10
342.579483
 20
-57.545314
 10
342.63709
 20
-57.578114
 10
342.693826
 20
-57.613256
 10
342.749583
 20
-57.650635
 10
342.804256
 20
-57.69015
 10
342.857736
 20
-57.731696
 10
342.909917
 20
-57.775172
 10
342.960691
 20
-57.820473
 10
343.009952
 20
-57.867497
 10
343.057592
 20
-57.916142
 10
343.103505
 20
-57.966303
 10
343.147583
 20
-58.017878
 10
343.189719
 20
-58.070764
 10
343.229807
 20
-58.124857
 10
343.267739
 20
-58.180056
 10
343.303408
 20
-58.236256
 10
343.336707
 20
-58.293355
 10
343.36753
 20
-58.35125
 10
343.395768
 20
-58.409837
 10
343.421355
 20
-58.468999
 10
343.444386
 20
-58.52856
 10
343.464995
 20
-58.588327
 10
343.483317
 20
-58.64811
 10
343.499486
 20
-58.707716
 10
343.513636
 20
-58.766955
 10
343.525903
 20
-58.825634
 10
343.53642
 20
-58.883563
 10
343.545323
 20
-58.940549
 10
343.552746
 20
-58.996402
 10
343.558823
 20
-59.05093
 10
343.56369
 20
-59.103942
 10
343.56748
 20
-59.155245
 10
343.570328
 20
-59.204649
 10
343.572368
 20
-59.251962
 10
343.573736
 20
-59.296993
 10
343.574566
 20
-59.339549
 10
343.574992
 20
-59.379441
 10
343.575149
 20
-59.416475
 10
343.575172
 20
-59.666448
 10
343.575172
 20
-59.882435
 10
343.575149
 20
-59.916422
 10
343.574994
 20
-59.953456
 10
343.574571
 20
-59.993347
 10
343.573748
 20
-60.035904
 10
343.572391
 20
-60.080936
 10
343.570367
 20
-60.12825
 10
343.567542
 20
-60.177655
 10
343.563782
 20
-60.22896
 10
343.558955
 20
-60.281974
 10
343.552927
 20
-60.336505
 10
343.545564
 20
-60.392361
 10
343.536733
 20
-60.449352
 10
343.5263
 20
-60.507285
 10
343.514132
 20
-60.56597
 10
343.500096
 20
-60.625216
 10
343.484058
 20
-60.684829
 10
343.465884
 20
-60.74462
 10
343.445441
 20
-60.804397
 10
343.422596
 20
-60.863968
 10
343.397215
 20
-60.923142
 10
343.369204
 20
-60.981743
 10
343.338627
 20
-61.039651
 10
343.305589
 20
-61.096765
 10
343.270193
 20
-61.152982
 10
343.232543
 20
-61.208197
 10
343.192742
 20
-61.262308
 10
343.150895
 20
-61.315211
 10
343.107104
 20
-61.366805
 10
343.061475
 20
-61.416984
 10
343.014111
 20
-61.465647
 10
342.965116
 20
-61.51269
 10
342.914593
 20
-61.55801
 10
342.862646
 20
-61.601504
 10
342.809379
 20
-61.643068
 10
342.754896
 20
-61.6826
 10
342.6993
 20
-61.719996
 10
342.642696
 20
-61.755154
 10
342.585187
 20
-61.787969
 10
342.526877
 20
-61.81834
 10
342.46787
 20
-61.846162
 10
342.408285
 20
-61.871372
 10
342.348299
 20
-61.894063
 10
342.288105
 20
-61.914368
 10
342.227896
 20
-61.93242
 10
342.167865
 20
-61.94835
 10
342.108204
 20
-61.962292
 10
342.049107
 20
-61.974378
 10
341.990766
 20
-61.98474
 10
341.933375
 20
-61.993512
 10
341.877125
 20
-62.000825
 10
341.82221
 20
-62.006813
 10
341.768822
 20
-62.011607
 10
341.717155
 20
-62.015341
 10
341.6674
 20
-62.018147
 10
341.619752
 20
-62.020158
 10
341.574402
 20
-62.021506
 10
341.531544
 20
-62.022323
 10
341.49137
 20
-62.022743
 10
341.454074
 20
-62.022898
 10
341.20233
 20
-62.02292
 10
341.200795
 20
-62.02292
 10
341.190048
 20
-62.02292
 10
341.160879
 20
-62.02292
 10
341.104074
 20
-62.02292
 10
341.010424
 20
-62.02292
 10
340.870716
 20
-62.02292
 10
340.67574
 20
-62.02292
 10
340.416282
 20
-62.02292
 10
340.083133
 20
-62.02292
 10
339.66708
 20
-62.02292
 10
339.158912
 20
-62.02292
 10
338.549418
 20
-62.02292
 10
337.829386
 20
-62.02292
 10
336.989604
 20
-62.02292
 10
336.020861
 20
-62.02292
 10
334.913946
 20
-62.02292
 10
333.659646
 20
-62.02292
 10
332.248752
 20
-62.02292
 10
330.67205
 20
-62.02292
 10
328.920329
 20
-62.02292
 10
326.988985
 20
-62.02292
 10
324.891833
 20
-62.02292
 10
322.647297
 20
-62.02292
 10
320.2738
 20
-62.02292
 10
317.789766
 20
-62.02292
 10
315.213616
 20
-62.02292
 10
312.563774
 20
-62.02292
 10
309.858664
 20
-62.02292
 10
307.116707
 20
-62.02292
 10
304.356327
 20
-62.02292
 10
301.595947
 20
-62.02292
 10
298.853991
 20
-62.02292
 10
296.14888
 20
-62.02292
 10
293.499038
 20
-62.02292
 10
290.922888
 20
-62.02292
 10
288.438854
 20
-62.02292
 10
286.065357
 20
-62.02292
 10
283.820821
 20
-62.02292
 10
281.723669
 20
-62.02292
 10
279.792325
 20
-62.02292
 10
278.040604
 20
-62.02292
 10
276.463902
 20
-62.02292
 10
275.053008
 20
-62.02292
 10
273.798708
 20
-62.02292
 10
272.691793
 20
-62.02292
 10
271.72305
 20
-62.02292
 10
270.883268
 20
-62.02292
 10
270.163236
 20
-62.02292
 10
269.553742
 20
-62.02292
 10
269.045574
 20
-62.02292
 10
268.629521
 20
-62.02292
 10
268.296372
 20
-62.02292
 10
268.036914
 20
-62.02292
 10
267.841938
 20
-62.02292
 10
267.70223
 20
-62.02292
 10
267.60858
 20
-62.02292
 10
267.551775
 20
-62.02292
 10
267.522606
 20
-62.02292
 10
267.511859
 20
-62.02292
 10
267.510324
 20
-62.02292
 10
267.29289
 20
-62.02292
 10
267.258676
 20
-62.022898
 10
267.221393
 20
-62.022743
 10
267.181235
 20
-62.022323
 10
267.138392
 20
-62.021506
 10
267.093059
 20
-62.020158
 10
267.045427
 20
-62.018147
 10
266.99569
 20
-62.015341
 10
266.94404
 20
-62.011607
 10
266.89067
 20
-62.006813
 10
266.835772
 20
-62.000825
 10
266.779539
 20
-61.993512
 10
266.722164
 20
-61.98474
 10
266.663839
 20
-61.974378
 10
266.604757
 20
-61.962292
 10
266.54511
 20
-61.94835
 10
266.485092
 20
-61.93242
 10
266.424895
 20
-61.914368
 10
266.364712
 20
-61.894063
 10
266.304734
 20
-61.871372
 10
266.245156
 20
-61.846162
 10
266.186154
 20
-61.81834
 10
266.127848
 20
-61.787969
 10
266.070341
 20
-61.755154
 10
266.013737
 20
-61.719996
 10
265.958141
 20
-61.6826
 10
265.903656
 20
-61.643068
 10
265.850385
 20
-61.601504
 10
265.798434
 20
-61.55801
 10
265.747906
 20
-61.51269
 10
265.698905
 20
-61.465647
 10
265.651534
 20
-61.416984
 10
265.605898
 20
-61.366805
 10
265.5621
 20
-61.315211
 10
265.520246
 20
-61.262308
 10
265.480437
 20
-61.208197
 10
265.442779
 20
-61.152982
 10
265.407375
 20
-61.096765
 10
265.37433
 20
-61.039651
 10
265.343746
 20
-60.981743
 10
265.315729
 20
-60.923142
 10
265.290342
 20
-60.863968
 10
265.267491
 20
-60.804397
 10
265.247044
 20
-60.74462
 10
265.228866
 20
-60.684829
 10
265.212824
 20
-60.625216
 10
265.198784
 20
-60.56597
 10
265.186613
 20
-60.507285
 10
265.176178
 20
-60.449352
 10
265.167345
 20
-60.392361
 10
265.15998
 20
-60.336505
 10
265.153951
 20
-60.281974
 10
265.149122
 20
-60.22896
 10
265.145362
 20
-60.177655
 10
265.142537
 20
-60.12825
 10
265.140512
 20
-60.080936
 10
265.139155
 20
-60.035904
 10
265.138331
 20
-59.993347
 10
265.137909
 20
-59.953456
 10
265.137753
 20
-59.916422
 10
265.137731
 20
-59.666448
  0
LWPOLYLINE
  5
34
330
1F
100
AcDbEntity
  8
0
100
AcDbPolyline
 90
      787
 70
   128
 43
0.0
 10
206.840296
 20
-43.010924
 10
206.844339
 20
-43.010924
 10
206.872635
 20
-43.010924
 10
206.949441
 20
-43.010924
 10
207.099009
 20
-43.010924
 10
207.345595
 20
-43.010924
 10
207.713453
 20
-43.010924
 10
208.226836
 20
-43.010924
 10
208.91
 20
-43.010924
 10
209.787199
 20
-43.010924
 10
210.882687
 20
-43.010924
 10
212.220718
 20
-43.010924
 10
213.825548
 20
-43.010924
 10
215.721429
 20
-43.010924
 10
217.932617
 20
-43.010924
 10
220.483365
 20
-43.010924
 10
223.397929
 20
-43.010924
 10
226.700562
 20
-43.010924
 10
230.415519
 20
-43.010924
 10
234.567055
 20
-43.010924
 10
239.179423
 20
-43.010924
 10
244.26475
 20
-43.010924
 10
249.786656
 20
-43.010924
 10
255.696632
 20
-43.010924
 10
261.946168
 20
-43.010924
 10
268.486756
 20
-43.010924
 10
275.269888
 20
-43.010924
 10
282.247054
 20
-43.010924
 10
289.369747
 20
-43.010924
 10
296.589457
 20
-43.010924
 10
303.857676
 20
-43.010924
 10
311.125894
 20
-43.010924
 10
318.345604
 20
-43.010924
 10
325.468297
 20
-43.010924
 10
332.445464
 20
-43.010924
 10
339.228595
 20
-43.010924
 10
345.769184
 20
-43.010924
 10
352.01872
 20
-43.010924
 10
357.928695
 20
-43.010924
 10
363.450601
 20
-43.010924
 10
368.535929
 20
-43.010924
 10
373.148297
 20
-43.010924
 10
377.299832
 20
-43.010924
 10
381.014789
 20
-43.010924
 10
384.317422
 20
-43.010924
 10
387.231986
 20
-43.010924
 10
389.782735
 20
-43.010924
 10
391.993923
 20
-43.010924
 10
393.889804
 20
-43.010924
 10
395.494633
 20
-43.010924
 10
396.832664
 20
-43.010924
 10
397.928152
 20
-43.010924
 10
398.805351
 20
-43.010924
 10
399.488515
 20
-43.010924
 10
400.001899
 20
-43.010924
 10
400.369756
 20
-43.010924
 10
400.616342
 20
-43.010924
 10
400.765911
 20
-43.010924
 10
400.842716
 20
-43.010924
 10
400.871013
 20
-43.010924
 10
400.875055
 20
-43.010924
 10
401.564023
 20
-43.010924
 10
401.672434
 20
-43.010995
 10
401.790568
 20
-43.011488
 10
401.917816
 20
-43.012827
 10
402.053566
 20
-43.015434
 10
402.197208
 20
-43.019732
 10
402.348131
 20
-43.026144
 10
402.505724
 20
-43.035092
 10
402.669377
 20
-43.046999
 10
402.838479
 20
-43.062289
 10
403.012419
 20
-43.081384
 10
403.190586
 20
-43.104706
 10
403.372371
 20
-43.132678
 10
403.557161
 20
-43.165723
 10
403.744347
 20
-43.204265
 10
403.933318
 20
-43.248725
 10
404.123463
 20
-43.299526
 10
404.314172
 20
-43.357091
 10
404.504833
 20
-43.421843
 10
404.694836
 20
-43.494205
 10
404.88357
 20
-43.574599
 10
405.070472
 20
-43.663323
 10
405.255166
 20
-43.760173
 10
405.437323
 20
-43.864821
 10
405.616614
 20
-43.976938
 10
405.79271
 20
-44.096195
 10
405.965283
 20
-44.222262
 10
406.134004
 20
-44.354813
 10
406.298544
 20
-44.493516
 10
406.458575
 20
-44.638045
 10
406.613767
 20
-44.78807
 10
406.763791
 20
-44.943262
 10
406.90832
 20
-45.103292
 10
407.047024
 20
-45.267832
 10
407.179574
 20
-45.436553
 10
407.305642
 20
-45.609126
 10
407.424899
 20
-45.785223
 10
407.537015
 20
-45.964514
 10
407.641663
 20
-46.146671
 10
407.738513
 20
-46.331364
 10
407.827237
 20
-46.518266
 10
407.907632
 20
-46.707001
 10
407.979993
 20
-46.897004
 10
408.044745
 20
-47.087665
 10
408.102311
 20
-47.278373
 10
408.153112
 20
-47.468518
 10
408.197572
 20
-47.657489
 10
408.236113
 20
-47.844675
 10
408.269158
 20
-48.029466
 10
408.297131
 20
-48.21125
 10
408.320453
 20
-48.389418
 10
408.339547
 20
-48.563358
 10
408.354837
 20
-48.73246
 10
408.366745
 20
-48.896113
 10
408.375693
 20
-49.053706
 10
408.382105
 20
-49.204629
 10
408.386403
 20
-49.34827
 10
408.38901
 20
-49.48402
 10
408.390349
 20
-49.611268
 10
408.390842
 20
-49.729403
 10
408.390912
 20
-50.526781
 10
408.390912
 20
-50.5296
 10
408.390912
 20
-50.549329
 10
408.390912
 20
-50.602879
 10
408.390912
 20
-50.707161
 10
408.390912
 20
-50.879085
 10
408.390912
 20
-51.135562
 10
408.390912
 20
-51.493503
 10
408.390912
 20
-51.969818
 10
408.390912
 20
-52.581417
 10
408.390912
 20
-53.345212
 10
408.390912
 20
-54.278113
 10
408.390912
 20
-55.39703
 10
408.390912
 20
-56.718874
 10
408.390912
 20
-58.260556
 10
408.390912
 20
-60.038985
 10
408.390912
 20
-62.071074
 10
408.390912
 20
-64.373732
 10
408.390912
 20
-66.96387
 10
408.390912
 20
-69.858399
 10
408.390912
 20
-73.074228
 10
408.390912
 20
-76.619814
 10
408.390912
 20
-80.469791
 10
408.390912
 20
-84.590337
 10
408.390912
 20
-88.947631
 10
408.390912
 20
-93.507852
 10
408.390912
 20
-98.237179
 10
408.390912
 20
-103.101791
 10
408.390912
 20
-108.067866
 10
408.390912
 20
-113.101583
 10
408.390912
 20
-118.169122
 10
408.390912
 20
-123.236661
 10
408.390912
 20
-128.270378
 10
408.390912
 20
-133.236454
 10
408.390912
 20
-138.101065
 10
408.390912
 20
-142.830392
 10
408.390912
 20
-147.390613
 10
408.390912
 20
-151.747907
 10
408.390912
 20
-155.868453
 10
408.390912
 20
-159.71843
 10
408.390912
 20
-163.264016
 10
408.390912
 20
-166.479846
 10
408.390912
 20
-169.374374
 10
408.390912
 20
-171.964512
 10
408.390912
 20
-174.26717
 10
408.390912
 20
-176.299259
 10
408.390912
 20
-178.077689
 10
408.390912
 20
-179.61937
 10
408.390912
 20
-180.941214
 10
408.390912
 20
-182.060131
 10
408.390912
 20
-182.993032
 10
408.390912
 20
-183.756827
 10
408.390912
 20
-184.368426
 10
408.390912
 20
-184.844741
 10
408.390912
 20
-185.202682
 10
408.390912
 20
-185.459159
 10
408.390912
 20
-185.631083
 10
408.390912
 20
-185.735365
 10
408.390912
 20
-185.788915
 10
408.390912
 20
-185.808645
 10
408.390912
 20
-185.811463
 10
408.390912
 20
-186.50039
 10
408.390842
 20
-186.608794
 10
408.390349
 20
-186.726921
 10
408.38901
 20
-186.854161
 10
408.386403
 20
-186.989903
 10
408.382105
 20
-187.133537
 10
408.375693
 20
-187.284451
 10
408.366745
 20
-187.442035
 10
408.354837
 20
-187.605679
 10
408.339547
 20
-187.774772
 10
408.320453
 20
-187.948702
 10
408.297131
 20
-188.126861
 10
408.269158
 20
-188.308636
 10
408.236113
 20
-188.493417
 10
408.197572
 20
-188.680595
 10
408.153112
 20
-188.869557
 10
408.102311
 20
-189.059693
 10
408.044745
 20
-189.250394
 10
407.979993
 20
-189.441047
 10
407.907632
 20
-189.631043
 10
407.827237
 20
-189.819771
 10
407.738513
 20
-190.006667
 10
407.641663
 20
-190.191356
 10
407.537015
 20
-190.373508
 10
407.424899
 20
-190.552794
 10
407.305642
 20
-190.728887
 10
407.179574
 20
-190.901457
 10
407.047024
 20
-191.070175
 10
406.90832
 20
-191.234713
 10
406.763791
 20
-191.394741
 10
406.613767
 20
-191.549932
 10
406.458575
 20
-191.699955
 10
406.298544
 20
-191.844482
 10
406.134004
 20
-191.983185
 10
405.965283
 20
-192.115735
 10
405.79271
 20
-192.241802
 10
405.616614
 20
-192.361059
 10
405.437323
 20
-192.473175
 10
405.255166
 20
-192.577823
 10
405.070472
 20
-192.674673
 10
404.88357
 20
-192.763397
 10
404.694836
 20
-192.843791
 10
404.504833
 20
-192.916153
 10
404.314172
 20
-192.980905
 10
404.123463
 20
-193.03847
 10
403.933318
 20
-193.089272
 10
403.744347
 20
-193.133731
 10
403.557161
 20
-193.172273
 10
403.372371
 20
-193.205318
 10
403.190586
 20
-193.233291
 10
403.012419
 20
-193.256613
 10
402.838479
 20
-193.275707
 10
402.669377
 20
-193.290997
 10
402.505724
 20
-193.302904
 10
402.348131
 20
-193.311853
 10
402.197208
 20
-193.318264
 10
402.053566
 20
-193.322563
 10
401.917816
 20
-193.32517
 10
401.790568
 20
-193.326508
 10
401.672434
 20
-193.327001
 10
400.875055
 20
-193.327072
 10
400.871013
 20
-193.327072
 10
400.842716
 20
-193.327072
 10
400.765911
 20
-193.327072
 10
400.616342
 20
-193.327072
 10
400.369756
 20
-193.327072
 10
400.001899
 20
-193.327072
 10
399.488515
 20
-193.327072
 10
398.805351
 20
-193.327072
 10
397.928152
 20
-193.327072
 10
396.832664
 20
-193.327072
 10
395.494633
 20
-193.327072
 10
393.889804
 20
-193.327072
 10
391.993923
 20
-193.327072
 10
389.782735
 20
-193.327072
 10
387.231986
 20
-193.327072
 10
384.317422
 20
-193.327072
 10
381.014789
 20
-193.327072
 10
377.299832
 20
-193.327072
 10
373.148297
 20
-193.327072
 10
368.535929
 20
-193.327072
 10
363.450601
 20
-193.327072
 10
357.928695
 20
-193.327072
 10
352.01872
 20
-193.327072
 10
345.769184
 20
-193.327072
 10
339.228595
 20
-193.327072
 10
332.445464
 20
-193.327072
 10
325.468297
 20
-193.327072
 10
318.345604
 20
-193.327072
 10
311.125894
 20
-193.327072
 10
303.857676
 20
-193.327072
 10
296.589457
 20
-193.327072
 10
289.369747
 20
-193.327072
 10
282.247054
 20
-193.327072
 10
275.269888
 20
-193.327072
 10
268.486756
 20
-193.327072
 10
261.946168
 20
-193.327072
 10
255.696632
 20
-193.327072
 10
249.786656
 20
-193.327072
 10
244.26475
 20
-193.327072
 10
239.179423
 20
-193.327072
 10
234.567055
 20
-193.327072
 10
230.415519
 20
-193.327072
 10
226.700562
 20
-193.327072
 10
223.397929
 20
-193.327072
 10
220.483365
 20
-193.327072
 10
217.932617
 20
-193.327072
 10
215.721429
 20
-193.327072
 10
213.825548
 20
-193.327072
 10
212.220718
 20
-193.327072
 10
210.882687
 20
-193.327072
 10
209.787199
 20
-193.327072
 10
208.91
 20
-193.327072
 10
208.226836
 20
-193.327072
 10
207.713453
 20
-193.327072
 10
207.345595
 20
-193.327072
 10
207.099009
 20
-193.327072
 10
206.949441
 20
-193.327072
 10
206.872635
 20
-193.327072
 10
206.844339
 20
-193.327072
 10
206.840296
 20
-193.327072
 10
206.151328
 20
-193.327072
 10
206.042918
 20
-193.327001
 10
205.924783
 20
-193.326508
 10
205.797535
 20
-193.32517
 10
205.661785
 20
-193.322563
 10
205.518144
 20
-193.318264
 10
205.367221
 20
-193.311853
 10
205.209628
 20
-193.302904
 10
205.045975
 20
-193.290997
 10
204.876873
 20
-193.275707
 10
204.702933
 20
-193.256613
 10
204.524765
 20
-193.233291
 10
204.342981
 20
-193.205318
 10
204.15819
 20
-193.172273
 10
203.971004
 20
-193.133731
 10
203.782033
 20
-193.089272
 10
203.591888
 20
-193.03847
 10
203.40118
 20
-192.980905
 10
203.210519
 20
-192.916153
 10
203.020516
 20
-192.843791
 10
202.831781
 20
-192.763397
 10
202.644879
 20
-192.674673
 10
202.460186
 20
-192.577823
 10
202.278029
 20
-192.473175
 10
202.098738
 20
-192.361059
 10
201.922641
 20
-192.241802
 10
201.750068
 20
-192.115735
 10
201.581347
 20
-191.983185
 10
201.416807
 20
-191.844482
 10
201.256777
 20
-191.699955
 10
201.101585
 20
-191.549932
 10
200.95156
 20
-191.394741
 10
200.807031
 20
-191.234713
 10
200.668328
 20
-191.070175
 10
200.535777
 20
-190.901457
 10
200.40971
 20
-190.728887
 10
200.290453
 20
-190.552794
 10
200.178336
 20
-190.373508
 10
200.073688
 20
-190.191356
 10
199.976838
 20
-190.006667
 10
199.888114
 20
-189.819771
 10
199.80772
 20
-189.631043
 10
199.735358
 20
-189.441047
 10
199.670606
 20
-189.250394
 10
199.613041
 20
-189.059693
 10
199.56224
 20
-188.869557
 10
199.51778
 20
-188.680595
 10
199.479238
 20
-188.493417
 10
199.446193
 20
-188.308636
 10
199.418221
 20
-188.126861
 10
199.394899
 20
-187.948702
 10
199.375804
 20
-187.774772
 10
199.360514
 20
-187.605679
 10
199.348607
 20
-187.442035
 10
199.339659
 20
-187.284451
 10
199.333247
 20
-187.133537
 10
199.328949
 20
-186.989903
 10
199.326342
 20
-186.854161
 10
199.325003
 20
-186.726921
 10
199.32451
 20
-186.608794
 10
199.324439
 20
-185.811463
 10
199.324439
 20
-185.810087
 10
199.324439
 20
-185.800457
 10
199.324439
 20
-185.774318
 10
199.324439
 20
-185.723417
 10
199.324439
 20
-185.639497
 10
199.324439
 20
-185.514306
 10
199.324439
 20
-185.339589
 10
199.324439
 20
-185.107092
 10
199.324439
 20
-184.80856
 10
199.324439
 20
-184.435738
 10
199.324439
 20
-183.980374
 10
199.324439
 20
-183.434211
 10
199.324439
 20
-182.788996
 10
199.324439
 20
-182.036475
 10
199.324439
 20
-181.168393
 10
199.324439
 20
-180.176495
 10
199.324439
 20
-179.052528
 10
199.324439
 20
-177.788238
 10
199.324439
 20
-176.375369
 10
199.324439
 20
-174.805667
 10
199.324439
 20
-173.075005
 10
199.324439
 20
-171.195766
 10
199.324439
 20
-169.184457
 10
199.324439
 20
-167.057586
 10
199.324439
 20
-164.831664
 10
199.324439
 20
-162.523198
 10
199.324439
 20
-160.148698
 10
199.324439
 20
-157.724671
 10
199.324439
 20
-155.267627
 10
199.324439
 20
-152.794075
 10
199.324439
 20
-150.320522
 10
199.324439
 20
-147.863478
 10
199.324439
 20
-145.439452
 10
199.324439
 20
-143.064951
 10
199.324439
 20
-140.756485
 10
199.324439
 20
-138.530563
 10
199.324439
 20
-136.403693
 10
199.324439
 20
-134.392384
 10
199.324439
 20
-132.513144
 10
199.324439
 20
-130.782483
 10
199.324439
 20
-129.212781
 10
199.324439
 20
-127.799912
 10
199.324439
 20
-126.535621
 10
199.324439
 20
-125.411654
 10
199.324439
 20
-124.419757
 10
199.324439
 20
-123.551675
 10
199.324439
 20
-122.799153
 10
199.324439
 20
-122.153939
 10
199.324439
 20
-121.607776
 10
199.324439
 20
-121.152411
 10
199.324439
 20
-120.77959
 10
199.324439
 20
-120.481058
 10
199.324439
 20
-120.24856
 10
199.324439
 20
-120.073843
 10
199.324439
 20
-119.948652
 10
199.324439
 20
-119.864733
 10
199.324439
 20
-119.813831
 10
199.324439
 20
-119.787692
 10
199.324439
 20
-119.778062
 10
199.324439
 20
-119.776687
 10
199.324871
 20
-119.776687
 10
199.327891
 20
-119.776687
 10
199.336088
 20
-119.776687
 10
199.352052
 20
-119.776687
 10
199.378371
 20
-119.776687
 10
199.417633
 20
-119.776687
 10
199.472427
 20
-119.776687
 10
199.545343
 20
-119.776687
 10
199.638968
 20
-119.776687
 10
199.755892
 20
-119.776687
 10
199.898702
 20
-119.776687
 10
200.069989
 20
-119.776687
 10
200.27234
 20
-119.776687
 10
200.508345
 20
-119.776687
 10
200.780591
 20
-119.776687
 10
201.091668
 20
-119.776687
 10
201.444165
 20
-119.776687
 10
201.84067
 20
-119.776687
 10
202.283771
 20
-119.776687
 10
202.776059
 20
-119.776687
 10
203.318826
 20
-119.776687
 10
203.90819
 20
-119.776687
 10
204.538973
 20
-119.776687
 10
205.205999
 20
-119.776687
 10
205.904089
 20
-119.776687
 10
206.628066
 20
-119.776687
 10
207.372753
 20
-119.776687
 10
208.132972
 20
-119.776687
 10
208.903546
 20
-119.776687
 10
209.679298
 20
-119.776687
 10
210.455049
 20
-119.776687
 10
211.225623
 20
-119.776687
 10
211.985842
 20
-119.776687
 10
212.730529
 20
-119.776687
 10
213.454506
 20
-119.776687
 10
214.152596
 20
-119.776687
 10
214.819622
 20
-119.776687
 10
215.450405
 20
-119.776687
 10
216.039769
 20
-119.776687
 10
216.582536
 20
-119.776687
 10
217.074824
 20
-119.776687
 10
217.517925
 20
-119.776687
 10
217.91443
 20
-119.776687
 10
218.266927
 20
-119.776687
 10
218.578004
 20
-119.776687
 10
218.85025
 20
-119.776687
 10
219.086255
 20
-119.776687
 10
219.288606
 20
-119.776687
 10
219.459893
 20
-119.776687
 10
219.602703
 20
-119.776687
 10
219.719627
 20
-119.776687
 10
219.813252
 20
-119.776687
 10
219.886168
 20
-119.776687
 10
219.940962
 20
-119.776687
 10
219.980224
 20
-119.776687
 10
220.006543
 20
-119.776687
 10
220.022507
 20
-119.776687
 10
220.030704
 20
-119.776687
 10
220.033724
 20
-119.776687
 10
220.034156
 20
-119.776687
 10
220.251714
 20
-119.776687
 10
220.285947
 20
-119.776665
 10
220.323251
 20
-119.77651
 10
220.363432
 20
-119.77609
 10
220.406298
 20
-119.775273
 10
220.451656
 20
-119.773925
 10
220.499312
 20
-119.771914
 10
220.549075
 20
-119.769108
 10
220.60075
 20
-119.765374
 10
220.654146
 20
-119.76058
 10
220.709069
 20
-119.754592
 10
220.765327
 20
-119.747278
 10
220.822726
 20
-119.738507
 10
220.881073
 20
-119.728144
 10
220.940176
 20
-119.716059
 10
220.999842
 20
-119.702117
 10
221.059878
 20
-119.686186
 10
221.12009
 20
-119.668135
 10
221.180287
 20
-119.64783
 10
221.240275
 20
-119.625139
 10
221.299861
 20
-119.599929
 10
221.358868
 20
-119.572106
 10
221.417176
 20
-119.541736
 10
221.474682
 20
-119.50892
 10
221.531282
 20
-119.473763
 10
221.586873
 20
-119.436367
 10
221.641351
 20
-119.396835
 10
221.694611
 20
-119.35527
 10
221.746552
 20
-119.311777
 10
221.797068
 20
-119.266457
 10
221.846056
 20
-119.219414
 10
221.893412
 20
-119.170751
 10
221.939033
 20
-119.120571
 10
221.982815
 20
-119.068978
 10
222.024654
 20
-119.016075
 10
222.064446
 20
-118.961964
 10
222.102088
 20
-118.906748
 10
222.137477
 20
-118.850532
 10
222.170508
 20
-118.793418
 10
222.201077
 20
-118.735509
 10
222.229081
 20
-118.676909
 10
222.254457
 20
-118.617735
 10
222.277297
 20
-118.558164
 10
222.297735
 20
-118.498387
 10
222.315904
 20
-118.438596
 10
222.331939
 20
-118.378982
 10
222.345972
 20
-118.319737
 10
222.358137
 20
-118.261052
 10
222.368567
 20
-118.203119
 10
222.377396
 20
-118.146128
 10
222.384758
 20
-118.090271
 10
222.390784
 20
-118.035741
 10
222.39561
 20
-117.982727
 10
222.399369
 20
-117.931422
 10
222.402193
 20
-117.882016
 10
222.404217
 20
-117.834702
 10
222.405574
 20
-117.789671
 10
222.406397
 20
-117.747114
 10
222.406819
 20
-117.707223
 10
222.406975
 20
-117.670188
 10
222.406997
 20
-117.420215
 10
222.406997
 20
-117.204228
 10
222.406975
 20
-117.170242
 10
222.406819
 20
-117.133207
 10
222.406396
 20
-117.093316
 10
222.405571
 20
-117.050759
 10
222.404213
 20
-117.005728
 10
222.402185
 20
-116.958415
 10
222.399356
 20
-116.90901
 10
222.395592
 20
-116.857706
 10
222.390758
 20
-116.804693
 10
222.384721
 20
-116.750164
 10
222.377348
 20
-116.694309
 10
222.368505
 20
-116.637321
 10
222.358057
 20
-116.579389
 10
222.345873
 20
-116.520707
 10
222.331817
 20
-116.461465
 10
222.315756
 20
-116.401855
 10
222.297557
 20
-116.342069
 10
222.277086
 20
-116.282297
 10
222.254209
 20
-116.222731
 10
222.228792
 20
-116.163563
 10
222.200742
 20
-116.104969
 10
222.170124
 20
-116.047067
 10
222.137041
 20
-115.98996
 10
222.101598
 20
-115.933752
 10
222.063899
 20
-115.878545
 10
222.024049
 20
-115.824443
 10
221.982152
 20
-115.771548
 10
221.938313
 20
-115.719964
 10
221.892635
 20
-115.669794
 10
221.845224
 20
-115.62114
 10
221.796183
 20
-115.574107
 10
221.745616
 20
-115.528796
 10
221.693629
 20
-115.485311
 10
221.640326
 20
-115.443756
 10
221.58581
 20
-115.404233
 10
221.530187
 20
-115.366845
 10
221.473561
 20
-115.331695
 10
221.416035
 20
-115.298887
 10
221.357715
 20
-115.268524
 10
221.298704
 20
-115.240708
 10
221.239122
 20
-115.215504
 10
221.179146
 20
-115.192818
 10
221.118969
 20
-115.172518
 10
221.058783
 20
-115.154471
 10
220.998779
 20
-115.138544
 10
220.939151
 20
-115.124605
 10
220.880091
 20
-115.112522
 10
220.82179
 20
-115.102162
 10
220.764442
 20
-115.093393
 10
220.708237
 20
-115.086081
 10
220.65337
 20
-115.080095
 10
220.60003
 20
-115.075301
 10
220.548413
 20
-115.071568
 10
220.498708
 20
-115.068763
 10
220.451109
 20
-115.066753
 10
220.405807
 20
-115.065405
 10
220.362996
 20
-115.064588
 10
220.322867
 20
-115.064168
 10
220.285612
 20
-115.064014
 10
220.034156
 20
-115.063992
 10
220.033724
 20
-115.063992
 10
220.030704
 20
-115.063992
 10
220.022507
 20
-115.063992
 10
220.006543
 20
-115.063992
 10
219.980224
 20
-115.063992
 10
219.940962
 20
-115.063992
 10
219.886168
 20
-115.063992
 10
219.813252
 20
-115.063992
 10
219.719627
 20
-115.063992
 10
219.602703
 20
-115.063992
 10
219.459893
 20
-115.063992
 10
219.288606
 20
-115.063992
 10
219.086255
 20
-115.063992
 10
218.85025
 20
-115.063992
 10
218.578004
 20
-115.063992
 10
218.266927
 20
-115.063992
 10
217.91443
 20
-115.063992
 10
217.517925
 20
-115.063992
 10
217.074824
 20
-115.063992
 10
216.582536
 20
-115.063992
 10
216.039769
 20
-115.063992
 10
215.450405
 20
-115.063992
 10
214.819622
 20
-115.063992
 10
214.152596
 20
-115.063992
 10
213.454506
 20
-115.063992
 10
212.730529
 20
-115.063992
 10
211.985842
 20
-115.063992
 10
211.225623
 20
-115.063992
 10
210.455049
 20
-115.063992
 10
209.679298
 20
-115.063992
 10
208.903546
 20
-115.063992
 10
208.132972
 20
-115.063992
 10
207.372753
 20
-115.063992
 10
206.628066
 20
-115.063992
 10
205.904089
 20
-115.063992
 10
205.205999
 20
-115.063992
 10
204.538973
 20
-115.063992
 10
203.90819
 20
-115.063992
 10
203.318826
 20
-115.063992
 10
202.776059
 20
-115.063992
 10
202.283771
 20
-115.063992
 10
201.84067
 20
-115.063992
 10
201.444165
 20
-115.063992
 10
201.091668
 20
-115.063992
 10
200.780591
 20
-115.063992
 10
200.508345
 20
-115.063992
 10
200.27234
 20
-115.063992
 10
200.069989
 20
-115.063992
 10
199.898702
 20
-115.063992
 10
199.755892
 20
-115.063992
 10
199.638968
 20
-115.063992
 10
199.545343
 20
-115.063992
 10
199.472427
 20
-115.063992
 10
199.417633
 20
-115.063992
 10
199.378371
 20
-115.063992
 10
199.352052
 20
-115.063992
 10
199.336088
 20
-115.063992
 10
199.327891
 20
-115.063992
 10
199.324871
 20
-115.063992
 10
199.324439
 20
-115.063992
 10
199.324439
 20
-115.062647
 10
199.324439
 20
-115.053235
 10
199.324439
 20
-115.027689
 10
199.324439
 20
-114.977942
 10
199.324439
 20
-114.895926
 10
199.324439
 20
-114.773574
 10
199.324439
 20
-114.602819
 10
199.324439
 20
-114.375595
 10
199.324439
 20
-114.083833
 10
199.324439
 20
-113.719466
 10
199.324439
 20
-113.274428
 10
199.324439
 20
-112.740652
 10
199.324439
 20
-112.11007
 10
199.324439
 20
-111.374614
 10
199.324439
 20
-110.526219
 10
199.324439
 20
-109.556816
 10
199.324439
 20
-108.458339
 10
199.324439
 20
-107.22272
 10
199.324439
 20
-105.841893
 10
199.324439
 20
-104.30779
 10
199.324439
 20
-102.616377
 10
199.324439
 20
-100.779756
 10
199.324439
 20
-98.81406
 10
199.324439
 20
-96.735424
 10
199.324439
 20
-94.559982
 10
199.324439
 20
-92.303869
 10
199.324439
 20
-89.983218
 10
199.324439
 20
-87.614165
 10
199.324439
 20
-85.212843
 10
199.324439
 20
-82.795386
 10
199.324439
 20
-80.37793
 10
199.324439
 20
-77.976608
 10
199.324439
 20
-75.607555
 10
199.324439
 20
-73.286904
 10
199.324439
 20
-71.030791
 10
199.324439
 20
-68.855349
 10
199.324439
 20
-66.776713
 10
199.324439
 20
-64.811017
 10
199.324439
 20
-62.974396
 10
199.324439
 20
-61.282983
 10
199.324439
 20
-59.74888
 10
199.324439
 20
-58.368052
 10
199.324439
 20
-57.132434
 10
199.324439
 20
-56.033957
 10
199.324439
 20
-55.064554
 10
199.324439
 20
-54.216158
 10
199.324439
 20
-53.480703
 10
199.324439
 20
-52.850121
 10
199.324439
 20
-52.316344
 10
199.324439
 20
-51.871306
 10
199.324439
 20
-51.50694
 10
199.324439
 20
-51.215178
 10
199.324439
 20
-50.987953
 10
199.324439
 20
-50.817199
 10
199.324439
 20
-50.694847
 10
199.324439
 20
-50.612831
 10
199.324439
 20
-50.563083
 10
199.324439
 20
-50.537537
 10
199.324439
 20
-50.528126
 10
199.324439
 20
-50.526781
 10
199.324439
 20
-49.837813
 10
199.32451
 20
-49.729403
 10
199.325003
 20
-49.611268
 10
199.326342
 20
-49.48402
 10
199.328949
 20
-49.34827
 10
199.333247
 20
-49.204629
 10
199.339659
 20
-49.053706
 10
199.348607
 20
-48.896113
 10
199.360514
 20
-48.73246
 10
199.375804
 20
-48.563358
 10
199.394899
 20
-48.389418
 10
199.418221
 20
-48.21125
 10
199.446193
 20
-48.029466
 10
199.479238
 20
-47.844675
 10
199.51778
 20
-47.657489
 10
199.56224
 20
-47.468518
 10
199.613041
 20
-47.278373
 10
199.670606
 20
-47.087665
 10
199.735358
 20
-46.897004
 10
199.80772
 20
-46.707001
 10
199.888114
 20
-46.518266
 10
199.976838
 20
-46.331364
 10
200.073688
 20
-46.146671
 10
200.178336
 20
-45.964514
 10
200.290453
 20
-45.785223
 10
200.40971
 20
-45.609126
 10
200.535777
 20
-45.436553
 10
200.668328
 20
-45.267832
 10
200.807031
 20
-45.103292
 10
200.95156
 20
-44.943262
 10
201.101585
 20
-44.78807
 10
201.256777
 20
-44.638045
 10
201.416807
 20
-44.493516
 10
201.581347
 20
-44.354813
 10
201.750068
 20
-44.222262
 10
201.922641
 20
-44.096195
 10
202.098738
 20
-43.976938
 10
202.278029
 20
-43.864821
 10
202.460186
 20
-43.760173
 10
202.644879
 20
-43.663323
 10
202.831781
 20
-43.574599
 10
203.020516
 20
-43.494205
 10
203.210519
 20
-43.421843
 10
203.40118
 20
-43.357091
 10
203.591888
 20
-43.299526
 10
203.782033
 20
-43.248725
 10
203.971004
 20
-43.204265
 10
204.15819
 20
-43.165723
 10
204.342981
 20
-43.132678
 10
204.524765
 20
-43.104706
 10
204.702933
 20
-43.081384
 10
204.876873
 20
-43.062289
 10
205.045975
 20
-43.046999
 10
205.209628
 20
-43.035092
 10
205.367221
 20
-43.026144
 10
205.518144
 20
-43.019732
 10
205.661785
 20
-43.015434
 10
205.797535
 20
-43.012827
 10
205.924783
 20
-43.011488
 10
206.042918
 20
-43.010995
 10
206.840296
 20
-43.010924
  0
LWPOLYLINE
  5
35
330
1F
100
AcDbEntity
  8
0
100
AcDbPolyline
 90
      365
 70
   128
 43
0.0
 10
389.443138
 20
-101.443283
 10
389.227151
 20
-101.443283
 10
389.193165
 20
-101.443306
 10
389.15613
 20
-101.443462
 10
389.116239
 20
-101.443886
 10
389.073682
 20
-101.444711
 10
389.028651
 20
-101.446071
 10
388.981337
 20
-101.448101
 10
388.931932
 20
-101.450933
 10
388.880626
 20
-101.454702
 10
388.827613
 20
-101.459541
 10
388.773082
 20
-101.465585
 10
388.717225
 20
-101.472967
 10
388.660235
 20
-101.48182
 10
388.602301
 20
-101.49228
 10
388.543616
 20
-101.504479
 10
388.484371
 20
-101.518551
 10
388.424757
 20
-101.53463
 10
388.364966
 20
-101.55285
 10
388.305189
 20
-101.573345
 10
388.245618
 20
-101.596249
 10
388.186444
 20
-101.621695
 10
388.127844
 20
-101.649777
 10
388.069935
 20
-101.680431
 10
388.012821
 20
-101.713551
 10
387.956605
 20
-101.749033
 10
387.90139
 20
-101.786772
 10
387.847279
 20
-101.826663
 10
387.794375
 20
-101.868601
 10
387.742782
 20
-101.912482
 10
387.692602
 20
-101.9582
 10
387.643939
 20
-102.005651
 10
387.596896
 20
-102.05473
 10
387.551576
 20
-102.105332
 10
387.508083
 20
-102.157352
 10
387.466518
 20
-102.210686
 10
387.426986
 20
-102.265229
 10
387.38959
 20
-102.320875
 10
387.354433
 20
-102.377521
 10
387.321617
 20
-102.435061
 10
387.291247
 20
-102.49339
 10
387.263425
 20
-102.552403
 10
387.238215
 20
-102.611982
 10
387.215523
 20
-102.671949
 10
387.195218
 20
-102.732112
 10
387.177167
 20
-102.79228
 10
387.161236
 20
-102.85226
 10
387.147295
 20
-102.911861
 10
387.135209
 20
-102.970891
 10
387.124846
 20
-103.029158
 10
387.116075
 20
-103.086471
 10
387.108761
 20
-103.142637
 10
387.102774
 20
-103.197466
 10
387.097979
 20
-103.250764
 10
387.094245
 20
-103.302341
 10
387.091439
 20
-103.352004
 10
387.089428
 20
-103.399563
 10
387.088081
 20
-103.444824
 10
387.087263
 20
-103.487596
 10
387.086843
 20
-103.527688
 10
387.086689
 20
-103.564907
 10
387.086667
 20
-103.816125
 10
387.086667
 20
-103.816703
 10
387.086667
 20
-103.820751
 10
387.086667
 20
-103.831738
 10
387.086667
 20
-103.853135
 10
387.086667
 20
-103.88841
 10
387.086667
 20
-103.941035
 10
387.086667
 20
-104.014477
 10
387.086667
 20
-104.112208
 10
387.086667
 20
-104.237696
 10
387.086667
 20
-104.394412
 10
387.086667
 20
-104.585825
 10
387.086667
 20
-104.815405
 10
387.086667
 20
-105.086622
 10
387.086667
 20
-105.402945
 10
387.086667
 20
-105.767845
 10
387.086667
 20
-106.18479
 10
387.086667
 20
-106.657251
 10
387.086667
 20
-107.188697
 10
387.086667
 20
-107.782599
 10
387.086667
 20
-108.442425
 10
387.086667
 20
-109.16991
 10
387.086667
 20
-109.959851
 10
387.086667
 20
-110.805308
 10
387.086667
 20
-111.69934
 10
387.086667
 20
-112.635009
 10
387.086667
 20
-113.605376
 10
387.086667
 20
-114.6035
 10
387.086667
 20
-115.622443
 10
387.086667
 20
-116.655264
 10
387.086667
 20
-117.695025
 10
387.086667
 20
-118.734786
 10
387.086667
 20
-119.767608
 10
387.086667
 20
-120.78655
 10
387.086667
 20
-121.784675
 10
387.086667
 20
-122.755041
 10
387.086667
 20
-123.69071
 10
387.086667
 20
-124.584743
 10
387.086667
 20
-125.430199
 10
387.086667
 20
-126.22014
 10
387.086667
 20
-126.947626
 10
387.086667
 20
-127.607452
 10
387.086667
 20
-128.201353
 10
387.086667
 20
-128.732799
 10
387.086667
 20
-129.20526
 10
387.086667
 20
-129.622205
 10
387.086667
 20
-129.987105
 10
387.086667
 20
-130.303428
 10
387.086667
 20
-130.574645
 10
387.086667
 20
-130.804225
 10
387.086667
 20
-130.995638
 10
387.086667
 20
-131.152354
 10
387.086667
 20
-131.277843
 10
387.086667
 20
-131.375573
 10
387.086667
 20
-131.449016
 10
387.086667
 20
-131.50164
 10
387.086667
 20
-131.536915
 10
387.086667
 20
-131.558312
 10
387.086667
 20
-131.569299
 10
387.086667
 20
-131.573347
 10
387.086667
 20
-131.573926
 10
387.086667
 20
-131.790988
 10
387.086689
 20
-131.825143
 10
387.086843
 20
-131.862362
 10
387.087263
 20
-131.902454
 10
387.088081
 20
-131.945227
 10
387.089428
 20
-131.990488
 10
387.091439
 20
-132.038046
 10
387.094245
 20
-132.087709
 10
387.097979
 20
-132.139286
 10
387.102774
 20
-132.192585
 10
387.108761
 20
-132.247413
 10
387.116075
 20
-132.303579
 10
387.124846
 20
-132.360892
 10
387.135209
 20
-132.419159
 10
387.147295
 20
-132.478189
 10
387.161236
 20
-132.53779
 10
387.177167
 20
-132.597771
 10
387.195218
 20
-132.657938
 10
387.215523
 20
-132.718101
 10
387.238215
 20
-132.778068
 10
387.263425
 20
-132.837647
 10
387.291247
 20
-132.896661
 10
387.321617
 20
-132.95499
 10
387.354433
 20
-133.012529
 10
387.38959
 20
-133.069175
 10
387.426986
 20
-133.124821
 10
387.466518
 20
-133.179364
 10
387.508083
 20
-133.232698
 10
387.551576
 20
-133.284718
 10
387.596896
 20
-133.33532
 10
387.643939
 20
-133.384399
 10
387.692602
 20
-133.43185
 10
387.742782
 20
-133.477568
 10
387.794375
 20
-133.521449
 10
387.847279
 20
-133.563387
 10
387.90139
 20
-133.603278
 10
387.956605
 20
-133.641017
 10
388.012821
 20
-133.676499
 10
388.069935
 20
-133.709619
 10
388.127844
 20
-133.740273
 10
388.186444
 20
-133.768355
 10
388.245618
 20
-133.793801
 10
388.305189
 20
-133.816705
 10
388.364966
 20
-133.8372
 10
388.424757
 20
-133.85542
 10
388.484371
 20
-133.871499
 10
388.543616
 20
-133.885572
 10
388.602301
 20
-133.897771
 10
388.660235
 20
-133.90823
 10
388.717225
 20
-133.917084
 10
388.773082
 20
-133.924465
 10
388.827613
 20
-133.930509
 10
388.880626
 20
-133.935349
 10
388.931932
 20
-133.939117
 10
388.981337
 20
-133.94195
 10
389.028651
 20
-133.943979
 10
389.073682
 20
-133.94534
 10
389.116239
 20
-133.946165
 10
389.15613
 20
-133.946588
 10
389.193165
 20
-133.946745
 10
389.443138
 20
-133.946767
 10
389.659125
 20
-133.946767
 10
389.693111
 20
-133.946745
 10
389.730146
 20
-133.946589
 10
389.770037
 20
-133.946166
 10
389.812594
 20
-133.945343
 10
389.857624
 20
-133.943986
 10
389.904937
 20
-133.941962
 10
389.954341
 20
-133.939137
 10
390.005645
 20
-133.935378
 10
390.058656
 20
-133.930551
 10
390.113184
 20
-133.924522
 10
390.169037
 20
-133.917159
 10
390.226024
 20
-133.908328
 10
390.283952
 20
-133.897895
 10
390.342632
 20
-133.885728
 10
390.40187
 20
-133.871691
 10
390.461477
 20
-133.855653
 10
390.521259
 20
-133.837479
 10
390.581026
 20
-133.817036
 10
390.640587
 20
-133.794191
 10
390.699749
 20
-133.76881
 10
390.758337
 20
-133.740799
 10
390.816231
 20
-133.710223
 10
390.87333
 20
-133.677184
 10
390.929531
 20
-133.641788
 10
390.984729
 20
-133.604138
 10
391.038823
 20
-133.564337
 10
391.091708
 20
-133.52249
 10
391.143283
 20
-133.4787
 10
391.193445
 20
-133.433071
 10
391.242089
 20
-133.385707
 10
391.289113
 20
-133.336711
 10
391.334415
 20
-133.286188
 10
391.37789
 20
-133.234241
 10
391.419437
 20
-133.180974
 10
391.458951
 20
-133.126491
 10
391.496331
 20
-133.070896
 10
391.531472
 20
-133.014292
 10
391.564273
 20
-132.956783
 10
391.594629
 20
-132.898473
 10
391.622438
 20
-132.839466
 10
391.647636
 20
-132.77988
 10
391.670317
 20
-132.719894
 10
391.690613
 20
-132.6597
 10
391.708656
 20
-132.599491
 10
391.724579
 20
-132.53946
 10
391.738514
 20
-132.4798
 10
391.750594
 20
-132.420703
 10
391.760952
 20
-132.362362
 10
391.769719
 20
-132.30497
 10
391.777029
 20
-132.24872
 10
391.783014
 20
-132.193805
 10
391.787806
 20
-132.140417
 10
391.791539
 20
-132.08875
 10
391.794343
 20
-132.038996
 10
391.796353
 20
-131.991347
 10
391.7977
 20
-131.945998
 10
391.798517
 20
-131.90314
 10
391.798937
 20
-131.862966
 10
391.799091
 20
-131.825669
 10
391.799114
 20
-131.573926
 10
391.799114
 20
-131.573347
 10
391.799114
 20
-131.569299
 10
391.799114
 20
-131.558312
 10
391.799114
 20
-131.536915
 10
391.799114
 20
-131.50164
 10
391.799114
 20
-131.449016
 10
391.799114
 20
-131.375573
 10
391.799114
 20
-131.277843
 10
391.799114
 20
-131.152354
 10
391.799114
 20
-130.995638
 10
391.799114
 20
-130.804225
 10
391.799114
 20
-130.574645
 10
391.799114
 20
-130.303428
 10
391.799114
 20
-129.987105
 10
391.799114
 20
-129.622205
 10
391.799114
 20
-129.20526
 10
391.799114
 20
-128.732799
 10
391.799114
 20
-128.201353
 10
391.799114
 20
-127.607452
 10
391.799114
 20
-126.947626
 10
391.799114
 20
-126.22014
 10
391.799114
 20
-125.430199
 10
391.799114
 20
-124.584743
 10
391.799114
 20
-123.69071
 10
391.799114
 20
-122.755041
 10
391.799114
 20
-121.784675
 10
391.799114
 20
-120.78655
 10
391.799114
 20
-119.767608
 10
391.799114
 20
-118.734786
 10
391.799114
 20
-117.695025
 10
391.799114
 20
-116.655264
 10
391.799114
 20
-115.622443
 10
391.799114
 20
-114.6035
 10
391.799114
 20
-113.605376
 10
391.799114
 20
-112.635009
 10
391.799114
 20
-111.69934
 10
391.799114
 20
-110.805308
 10
391.799114
 20
-109.959851
 10
391.799114
 20
-109.16991
 10
391.799114
 20
-108.442425
 10
391.799114
 20
-107.782599
 10
391.799114
 20
-107.188697
 10
391.799114
 20
-106.657251
 10
391.799114
 20
-106.18479
 10
391.799114
 20
-105.767845
 10
391.799114
 20
-105.402945
 10
391.799114
 20
-105.086622
 10
391.799114
 20
-104.815405
 10
391.799114
 20
-104.585825
 10
391.799114
 20
-104.394412
 10
391.799114
 20
-104.237696
 10
391.799114
 20
-104.112208
 10
391.799114
 20
-104.014477
 10
391.799114
 20
-103.941035
 10
391.799114
 20
-103.88841
 10
391.799114
 20
-103.853135
 10
391.799114
 20
-103.831738
 10
391.799114
 20
-103.820751
 10
391.799114
 20
-103.816703
 10
391.799114
 20
-103.816125
 10
391.799114
 20
-103.598608
 10
391.799091
 20
-103.564381
 10
391.798937
 20
-103.527084
 10
391.798517
 20
-103.486911
 10
391.7977
 20
-103.444053
 10
391.796353
 20
-103.398703
 10
391.794343
 20
-103.351054
 10
391.791539
 20
-103.3013
 10
391.787806
 20
-103.249633
 10
391.783014
 20
-103.196245
 10
391.777029
 20
-103.14133
 10
391.769719
 20
-103.08508
 10
391.760952
 20
-103.027688
 10
391.750594
 20
-102.969348
 10
391.738514
 20
-102.910251
 10
391.724579
 20
-102.85059
 10
391.708656
 20
-102.790559
 10
391.690613
 20
-102.73035
 10
391.670317
 20
-102.670156
 10
391.647636
 20
-102.61017
 10
391.622438
 20
-102.550584
 10
391.594629
 20
-102.491577
 10
391.564273
 20
-102.433268
 10
391.531472
 20
-102.375759
 10
391.496331
 20
-102.319155
 10
391.458951
 20
-102.263559
 10
391.419437
 20
-102.209076
 10
391.37789
 20
-102.155809
 10
391.334415
 20
-102.103862
 10
391.289113
 20
-102.053339
 10
391.242089
 20
-102.004344
 10
391.193445
 20
-101.956979
 10
391.143283
 20
-101.91135
 10
391.091708
 20
-101.86756
 10
391.038823
 20
-101.825713
 10
390.984729
 20
-101.785912
 10
390.929531
 20
-101.748262
 10
390.87333
 20
-101.712866
 10
390.816231
 20
-101.679828
 10
390.758337
 20
-101.649251
 10
390.699749
 20
-101.62124
 10
390.640587
 20
-101.595859
 10
390.581026
 20
-101.573014
 10
390.521259
 20
-101.552571
 10
390.461477
 20
-101.534397
 10
390.40187
 20
-101.518359
 10
390.342632
 20
-101.504323
 10
390.283952
 20
-101.492155
 10
390.226024
 20
-101.481722
 10
390.169037
 20
-101.472891
 10
390.113184
 20
-101.465528
 10
390.058656
 20
-101.4595
 10
390.005645
 20
-101.454673
 10
389.954341
 20
-101.450913
 10
389.904937
 20
-101.448088
 10
389.857624
 20
-101.446064
 10
389.812594
 20
-101.444707
 10
389.770037
 20
-101.443884
 10
389.730146
 20
-101.443461
 10
389.693111
 20
-101.443306
 10
389.443138
 20
-101.443283
  0
LWPOLYLINE
  5
36
330
1F
100
AcDbEntity
  8
0
100
AcDbPolyline
 90
      667
 70
   128
 43
0.0
 10
-56.662686
 20
-460.388296
 10
-56.662689
 20
-460.388244
 10
-56.662707
 20
-460.387882
 10
-56.662756
 20
-460.386898
 10
-56.662851
 20
-460.384983
 10
-56.663008
 20
-460.381826
 10
-56.663242
 20
-460.377116
 10
-56.663569
 20
-460.370543
 10
-56.664003
 20
-460.361796
 10
-56.664562
 20
-460.350564
 10
-56.665259
 20
-460.336537
 10
-56.66611
 20
-460.319405
 10
-56.667131
 20
-460.298857
 10
-56.668338
 20
-460.274582
 10
-56.669745
 20
-460.24627
 10
-56.671368
 20
-460.213611
 10
-56.673223
 20
-460.176293
 10
-56.675325
 20
-460.134006
 10
-56.677689
 20
-460.08644
 10
-56.680331
 20
-460.033284
 10
-56.683266
 20
-459.974227
 10
-56.686502
 20
-459.909115
 10
-56.690016
 20
-459.838413
 10
-56.693777
 20
-459.762742
 10
-56.697754
 20
-459.682723
 10
-56.701916
 20
-459.598978
 10
-56.706232
 20
-459.512127
 10
-56.710672
 20
-459.422792
 10
-56.715205
 20
-459.331593
 10
-56.719799
 20
-459.239152
 10
-56.724425
 20
-459.14609
 10
-56.72905
 20
-459.053028
 10
-56.733644
 20
-458.960588
 10
-56.738177
 20
-458.869389
 10
-56.742617
 20
-458.780054
 10
-56.746933
 20
-458.693203
 10
-56.751096
 20
-458.609457
 10
-56.755073
 20
-458.529439
 10
-56.758833
 20
-458.453768
 10
-56.762347
 20
-458.383065
 10
-56.765583
 20
-458.317953
 10
-56.768519
 20
-458.258897
 10
-56.771161
 20
-458.205741
 10
-56.773525
 20
-458.158174
 10
-56.775626
 20
-458.115888
 10
-56.777481
 20
-458.07857
 10
-56.779104
 20
-458.04591
 10
-56.780511
 20
-458.017598
 10
-56.781718
 20
-457.993323
 10
-56.782739
 20
-457.972775
 10
-56.78359
 20
-457.955643
 10
-56.784288
 20
-457.941617
 10
-56.784846
 20
-457.930385
 10
-56.785281
 20
-457.921638
 10
-56.785607
 20
-457.915064
 10
-56.785841
 20
-457.910354
 10
-56.785998
 20
-457.907197
 10
-56.786093
 20
-457.905282
 10
-56.786142
 20
-457.904299
 10
-56.78616
 20
-457.903936
 10
-56.786163
 20
-457.903885
 10
-56.837231
 20
-456.878987
 10
-56.845162
 20
-456.717712
 10
-56.853184
 20
-456.541941
 10
-56.860624
 20
-456.35255
 10
-56.866805
 20
-456.150417
 10
-56.871055
 20
-455.936419
 10
-56.872698
 20
-455.711432
 10
-56.87106
 20
-455.476335
 10
-56.865466
 20
-455.232004
 10
-56.855243
 20
-454.979315
 10
-56.839714
 20
-454.719147
 10
-56.818207
 20
-454.452377
 10
-56.790045
 20
-454.17988
 10
-56.754556
 20
-453.902535
 10
-56.711063
 20
-453.621218
 10
-56.658894
 20
-453.336807
 10
-56.597372
 20
-453.050179
 10
-56.525824
 20
-452.76221
 10
-56.443576
 20
-452.473778
 10
-56.349952
 20
-452.18576
 10
-56.244278
 20
-451.899032
 10
-56.12607
 20
-451.614412
 10
-55.995603
 20
-451.332474
 10
-55.853343
 20
-451.053731
 10
-55.699757
 20
-450.778697
 10
-55.535309
 20
-450.507885
 10
-55.360467
 20
-450.241809
 10
-55.175695
 20
-449.980984
 10
-54.981459
 20
-449.725921
 10
-54.778226
 20
-449.477136
 10
-54.56646
 20
-449.235142
 10
-54.346629
 20
-449.000452
 10
-54.119198
 20
-448.77358
 10
-53.884632
 20
-448.55504
 10
-53.643398
 20
-448.345345
 10
-53.395961
 20
-448.14501
 10
-53.142787
 20
-447.954547
 10
-52.884342
 20
-447.77447
 10
-52.621092
 20
-447.605293
 10
-52.353502
 20
-447.447529
 10
-52.08204
 20
-447.301693
 10
-51.807248
 20
-447.168115
 10
-51.529987
 20
-447.046394
 10
-51.251196
 20
-446.935946
 10
-50.971814
 20
-446.836188
 10
-50.692778
 20
-446.746535
 10
-50.415029
 20
-446.666404
 10
-50.139503
 20
-446.595212
 10
-49.867141
 20
-446.532373
 10
-49.598881
 20
-446.477305
 10
-49.335661
 20
-446.429423
 10
-49.078421
 20
-446.388144
 10
-48.828098
 20
-446.352884
 10
-48.585632
 20
-446.323059
 10
-48.351961
 20
-446.298085
 10
-48.128024
 20
-446.277379
 10
-47.914759
 20
-446.260356
 10
-47.713106
 20
-446.246434
 10
-47.524003
 20
-446.235027
 10
-47.348389
 20
-446.225553
 10
-46.162799
 20
-446.166452
 10
-46.16213
 20
-446.166419
 10
-46.157445
 20
-446.166186
 10
-46.14473
 20
-446.165553
 10
-46.119969
 20
-446.16432
 10
-46.079147
 20
-446.162287
 10
-46.018249
 20
-446.159255
 10
-45.933259
 20
-446.155024
 10
-45.820162
 20
-446.149393
 10
-45.674943
 20
-446.142163
 10
-45.493586
 20
-446.133133
 10
-45.272076
 20
-446.122105
 10
-45.006399
 20
-446.108877
 10
-44.692538
 20
-446.093251
 10
-44.326478
 20
-446.075025
 10
-43.904205
 20
-446.054001
 10
-43.421702
 20
-446.029978
 10
-42.874955
 20
-446.002756
 10
-42.259948
 20
-445.972136
 10
-41.572666
 20
-445.937918
 10
-40.809094
 20
-445.899901
 10
-39.967224
 20
-445.857985
 10
-39.053079
 20
-445.812472
 10
-38.07469
 20
-445.763759
 10
-37.040086
 20
-445.712248
 10
-35.957299
 20
-445.658338
 10
-34.83436
 20
-445.602429
 10
-33.679298
 20
-445.54492
 10
-32.500144
 20
-445.486212
 10
-31.30493
 20
-445.426705
 10
-30.101685
 20
-445.366797
 10
-28.898439
 20
-445.30689
 10
-27.703225
 20
-445.247382
 10
-26.524071
 20
-445.188674
 10
-25.36901
 20
-445.131166
 10
-24.24607
 20
-445.075256
 10
-23.163283
 20
-445.021346
 10
-22.12868
 20
-444.969835
 10
-21.15029
 20
-444.921123
 10
-20.236145
 20
-444.875609
 10
-19.394275
 20
-444.833694
 10
-18.630703
 20
-444.795677
 10
-17.943421
 20
-444.761458
 10
-17.328414
 20
-444.730838
 10
-16.781667
 20
-444.703617
 10
-16.299164
 20
-444.679594
 10
-15.876891
 20
-444.658569
 10
-15.510831
 20
-444.640344
 10
-15.19697
 20
-444.624717
 10
-14.931293
 20
-444.61149
 10
-14.709783
 20
-444.600461
 10
-14.528427
 20
-444.591432
 10
-14.383207
 20
-444.584202
 10
-14.27011
 20
-444.578571
 10
-14.18512
 20
-444.574339
 10
-14.124222
 20
-444.571307
 10
-14.0834
 20
-444.569275
 10
-14.058639
 20
-444.568042
 10
-14.045924
 20
-444.567409
 10
-14.041239
 20
-444.567176
 10
-14.04057
 20
-444.567142
 10
-13.127583
 20
-444.521657
 10
-12.983916
 20
-444.514583
 10
-12.827324
 20
-444.507367
 10
-12.658578
 20
-444.500546
 10
-12.478449
 20
-444.494662
 10
-12.287705
 20
-444.490254
 10
-12.087119
 20
-444.48786
 10
-11.877459
 20
-444.488022
 10
-11.659497
 20
-444.491277
 10
-11.434002
 20
-444.498165
 10
-11.201745
 20
-444.509226
 10
-10.963496
 20
-444.525
 10
-10.720026
 20
-444.546025
 10
-10.472105
 20
-444.572842
 10
-10.220502
 20
-444.60599
 10
-9.965989
 20
-444.646007
 10
-9.709336
 20
-444.693435
 10
-9.451313
 20
-444.748811
 10
-9.19269
 20
-444.812676
 10
-8.934238
 20
-444.885569
 10
-8.676726
 20
-444.96803
 10
-8.420858
 20
-445.060452
 10
-8.167066
 20
-445.162652
 10
-7.915713
 20
-445.274299
 10
-7.667165
 20
-445.395064
 10
-7.421785
 20
-445.524616
 10
-7.179938
 20
-445.662627
 10
-6.941987
 20
-445.808765
 10
-6.708299
 20
-445.962702
 10
-6.479235
 20
-446.124108
 10
-6.255162
 20
-446.292652
 10
-6.036443
 20
-446.468005
 10
-5.823443
 20
-446.649838
 10
-5.616526
 20
-446.83782
 10
-5.416055
 20
-447.031622
 10
-5.222397
 20
-447.230913
 10
-5.035914
 20
-447.435364
 10
-4.856971
 20
-447.644646
 10
-4.685933
 20
-447.858428
 10
-4.523163
 20
-448.076381
 10
-4.369027
 20
-448.298174
 10
-4.223777
 20
-448.523396
 10
-4.087224
 20
-448.751308
 10
-3.959067
 20
-448.981085
 10
-3.839006
 20
-449.211907
 10
-3.72674
 20
-449.44295
 10
-3.621969
 20
-449.673392
 10
-3.524392
 20
-449.902412
 10
-3.433708
 20
-450.129186
 10
-3.349617
 20
-450.352892
 10
-3.271818
 20
-450.572709
 10
-3.200012
 20
-450.787813
 10
-3.133896
 20
-450.997383
 10
-3.073171
 20
-451.200595
 10
-3.017537
 20
-451.396628
 10
-2.966692
 20
-451.58466
 10
-2.920336
 20
-451.763867
 10
-2.878168
 20
-451.933428
 10
-2.839888
 20
-452.09252
 10
-2.805196
 20
-452.240322
 10
-2.574708
 20
-453.23839
 10
-2.57502
 20
-453.238406
 10
-2.577206
 20
-453.238515
 10
-2.583139
 20
-453.23881
 10
-2.594693
 20
-453.239386
 10
-2.613742
 20
-453.240334
 10
-2.642158
 20
-453.24175
 10
-2.681816
 20
-453.243725
 10
-2.73459
 20
-453.246354
 10
-2.802352
 20
-453.249729
 10
-2.886977
 20
-453.253944
 10
-2.990338
 20
-453.259092
 10
-3.114309
 20
-453.265266
 10
-3.260764
 20
-453.272561
 10
-3.431575
 20
-453.281068
 10
-3.628617
 20
-453.290882
 10
-3.853763
 20
-453.302096
 10
-4.108887
 20
-453.314803
 10
-4.395862
 20
-453.329096
 10
-4.716563
 20
-453.34507
 10
-5.072862
 20
-453.362816
 10
-5.465697
 20
-453.382382
 10
-5.892256
 20
-453.403627
 10
-6.348794
 20
-453.426366
 10
-6.831562
 20
-453.450411
 10
-7.336814
 20
-453.475576
 10
-7.860802
 20
-453.501674
 10
-8.399778
 20
-453.528519
 10
-8.949997
 20
-453.555924
 10
-9.50771
 20
-453.583702
 10
-10.06917
 20
-453.611666
 10
-10.63063
 20
-453.639631
 10
-11.188343
 20
-453.667409
 10
-11.738561
 20
-453.694814
 10
-12.277538
 20
-453.721659
 10
-12.801526
 20
-453.747757
 10
-13.306777
 20
-453.772922
 10
-13.789545
 20
-453.796967
 10
-14.246083
 20
-453.819706
 10
-14.672643
 20
-453.840951
 10
-15.065478
 20
-453.860517
 10
-15.421777
 20
-453.878263
 10
-15.742477
 20
-453.894236
 10
-16.029453
 20
-453.90853
 10
-16.284577
 20
-453.921237
 10
-16.509723
 20
-453.932451
 10
-16.706765
 20
-453.942265
 10
-16.877576
 20
-453.950772
 10
-17.02403
 20
-453.958067
 10
-17.148001
 20
-453.964241
 10
-17.251362
 20
-453.969389
 10
-17.335987
 20
-453.973604
 10
-17.40375
 20
-453.976979
 10
-17.456523
 20
-453.979608
 10
-17.496181
 20
-453.981583
 10
-17.524598
 20
-453.982998
 10
-17.543646
 20
-453.983947
 10
-17.5552
 20
-453.984523
 10
-17.561133
 20
-453.984818
 10
-17.563319
 20
-453.984927
 10
-17.563632
 20
-453.984943
 10
-17.780414
 20
-453.995728
 10
-17.814524
 20
-453.997447
 10
-17.851687
 20
-453.999451
 10
-17.891707
 20
-454.001862
 10
-17.934383
 20
-454.004803
 10
-17.979519
 20
-454.008398
 10
-18.026916
 20
-454.012769
 10
-18.076376
 20
-454.018039
 10
-18.1277
 20
-454.02433
 10
-18.180692
 20
-454.031766
 10
-18.235151
 20
-454.04047
 10
-18.290882
 20
-454.050564
 10
-18.347684
 20
-454.062171
 10
-18.405361
 20
-454.075414
 10
-18.463714
 20
-454.090416
 10
-18.522544
 20
-454.1073
 10
-18.581655
 20
-454.126189
 10
-18.640847
 20
-454.147204
 10
-18.699923
 20
-454.170471
 10
-18.758684
 20
-454.19611
 10
-18.816932
 20
-454.224245
 10
-18.874486
 20
-454.254961
 10
-18.931229
 20
-454.288188
 10
-18.987062
 20
-454.323817
 10
-19.041886
 20
-454.36174
 10
-19.095601
 20
-454.40185
 10
-19.148107
 20
-454.444037
 10
-19.199304
 20
-454.488195
 10
-19.249094
 20
-454.534214
 10
-19.297377
 20
-454.581986
 10
-19.344052
 20
-454.631404
 10
-19.389021
 20
-454.682359
 10
-19.432184
 20
-454.734743
 10
-19.473441
 20
-454.788448
 10
-19.512693
 20
-454.843365
 10
-19.549841
 20
-454.899387
 10
-19.584784
 20
-454.956405
 10
-19.617423
 20
-455.014311
 10
-19.647658
 20
-455.072997
 10
-19.675391
 20
-455.132355
 10
-19.700521
 20
-455.192277
 10
-19.722989
 20
-455.252641
 10
-19.742898
 20
-455.313276
 10
-19.760392
 20
-455.373997
 10
-19.775612
 20
-455.43462
 10
-19.788704
 20
-455.494959
 10
-19.799809
 20
-455.554832
 10
-19.809071
 20
-455.614052
 10
-19.816633
 20
-455.672436
 10
-19.822638
 20
-455.729799
 10
-19.82723
 20
-455.785955
 10
-19.830551
 20
-455.840722
 10
-19.832745
 20
-455.893913
 10
-19.833955
 20
-455.945346
 10
-19.834324
 20
-455.994834
 10
-19.833995
 20
-456.042193
 10
-19.833111
 20
-456.087239
 10
-19.831817
 20
-456.129788
 10
-19.830254
 20
-456.169654
 10
-19.828566
 20
-456.206653
 10
-19.816142
 20
-456.456338
 10
-19.805417
 20
-456.671997
 10
-19.803707
 20
-456.70593
 10
-19.801713
 20
-456.742901
 10
-19.79931
 20
-456.782711
 10
-19.796375
 20
-456.825163
 10
-19.792784
 20
-456.870059
 10
-19.788413
 20
-456.917201
 10
-19.783139
 20
-456.966392
 10
-19.776837
 20
-457.017433
 10
-19.769384
 20
-457.070128
 10
-19.760657
 20
-457.124279
 10
-19.750531
 20
-457.179687
 10
-19.738883
 20
-457.236156
 10
-19.725588
 20
-457.293487
 10
-19.710524
 20
-457.351482
 10
-19.693566
 20
-457.409945
 10
-19.67459
 20
-457.468677
 10
-19.653473
 20
-457.52748
 10
-19.630092
 20
-457.586157
 10
-19.604321
 20
-457.644511
 10
-19.576038
 20
-457.702343
 10
-19.545158
 20
-457.759472
 10
-19.51175
 20
-457.815784
 10
-19.475923
 20
-457.871181
 10
-19.437786
 20
-457.925565
 10
-19.397448
 20
-457.978837
 10
-19.355016
 20
-458.030901
 10
-19.310601
 20
-458.081657
 10
-19.264311
 20
-458.131008
 10
-19.216254
 20
-458.178856
 10
-19.166539
 20
-458.225103
 10
-19.115275
 20
-458.269651
 10
-19.06257
 20
-458.312402
 10
-19.008534
 20
-458.353258
 10
-18.953275
 20
-458.392121
 10
-18.896902
 20
-458.428894
 10
-18.839523
 20
-458.463477
 10
-18.781247
 20
-458.495773
 10
-18.722183
 20
-458.525684
 10
-18.66244
 20
-458.553113
 10
-18.602126
 20
-458.577961
 10
-18.541363
 20
-458.60017
 10
-18.480324
 20
-458.619842
 10
-18.419195
 20
-458.637119
 10
-18.358162
 20
-458.652144
 10
-18.297412
 20
-458.665059
 10
-18.23713
 20
-458.676005
 10
-18.177502
 20
-458.685125
 10
-18.118715
 20
-458.692561
 10
-18.060954
 20
-458.698455
 10
-18.004406
 20
-458.70295
 10
-17.949256
 20
-458.706186
 10
-17.895691
 20
-458.708306
 10
-17.843896
 20
-458.709453
 10
-17.794059
 20
-458.709769
 10
-17.746364
 20
-458.709394
 10
-17.700998
 20
-458.708473
 10
-17.658147
 20
-458.707147
 10
-17.617997
 20
-458.705557
 10
-17.580733
 20
-458.703846
 10
-17.329267
 20
-458.691278
 10
-17.328951
 20
-458.691262
 10
-17.326741
 20
-458.691152
 10
-17.32074
 20
-458.690854
 10
-17.309055
 20
-458.690272
 10
-17.289791
 20
-458.689313
 10
-17.261052
 20
-458.687882
 10
-17.220943
 20
-458.685886
 10
-17.167571
 20
-458.683229
 10
-17.099039
 20
-458.679818
 10
-17.013454
 20
-458.675558
 10
-16.90892
 20
-458.670355
 10
-16.783542
 20
-458.664114
 10
-16.635426
 20
-458.656741
 10
-16.462676
 20
-458.648142
 10
-16.263398
 20
-458.638223
 10
-16.035696
 20
-458.626889
 10
-15.777677
 20
-458.614045
 10
-15.487444
 20
-458.599599
 10
-15.163104
 20
-458.583454
 10
-14.802761
 20
-458.565518
 10
-14.405468
 20
-458.545742
 10
-13.974067
 20
-458.524268
 10
-13.512348
 20
-458.501285
 10
-13.024101
 20
-458.476982
 10
-12.513115
 20
-458.451547
 10
-11.983181
 20
-458.425169
 10
-11.438087
 20
-458.398036
 10
-10.881624
 20
-458.370337
 10
-10.317582
 20
-458.342261
 10
-9.74975
 20
-458.313997
 10
-9.181917
 20
-458.285732
 10
-8.617875
 20
-458.257656
 10
-8.061412
 20
-458.229957
 10
-7.516318
 20
-458.202824
 10
-6.986384
 20
-458.176446
 10
-6.475398
 20
-458.151011
 10
-5.987151
 20
-458.126708
 10
-5.525432
 20
-458.103725
 10
-5.094031
 20
-458.082251
 10
-4.696738
 20
-458.062476
 10
-4.336395
 20
-458.044539
 10
-4.012055
 20
-458.028394
 10
-3.721822
 20
-458.013948
 10
-3.463803
 20
-458.001104
 10
-3.236102
 20
-457.98977
 10
-3.036823
 20
-457.979851
 10
-2.864074
 20
-457.971252
 10
-2.715957
 20
-457.963879
 10
-2.590579
 20
-457.957638
 10
-2.486045
 20
-457.952435
 10
-2.40046
 20
-457.948175
 10
-2.331928
 20
-457.944764
 10
-2.278556
 20
-457.942107
 10
-2.238448
 20
-457.940111
 10
-2.209709
 20
-457.93868
 10
-2.190444
 20
-457.937721
 10
-2.178759
 20
-457.937139
 10
-2.172758
 20
-457.936841
 10
-2.170548
 20
-457.936731
 10
-2.170232
 20
-457.936715
 10
-2.143583
 20
-458.942349
 10
-2.139491
 20
-459.100592
 10
-2.135631
 20
-459.273054
 10
-2.132633
 20
-459.458868
 10
-2.131131
 20
-459.657169
 10
-2.131753
 20
-459.86709
 10
-2.135133
 20
-460.087767
 10
-2.141902
 20
-460.318332
 10
-2.15269
 20
-460.55792
 10
-2.16813
 20
-460.805664
 10
-2.188852
 20
-461.0607
 10
-2.215488
 20
-461.32216
 10
-2.24867
 20
-461.58918
 10
-2.289029
 20
-461.860892
 10
-2.337195
 20
-462.136432
 10
-2.393801
 20
-462.414932
 10
-2.459478
 20
-462.695528
 10
-2.534857
 20
-462.977353
 10
-2.62057
 20
-463.259541
 10
-2.717248
 20
-463.541226
 10
-2.825522
 20
-463.821543
 10
-2.945845
 20
-464.099687
 10
-3.07795
 20
-464.375104
 10
-3.221393
 20
-464.6473
 10
-3.375729
 20
-464.915782
 10
-3.540512
 20
-465.180058
 10
-3.715297
 20
-465.439634
 10
-3.89964
 20
-465.694018
 10
-4.093095
 20
-465.942717
 10
-4.295218
 20
-466.185237
 10
-4.505563
 20
-466.421085
 10
-4.723685
 20
-466.649769
 10
-4.949139
 20
-466.870796
 10
-5.18148
 20
-467.083672
 10
-5.420263
 20
-467.287905
 10
-5.665044
 20
-467.483002
 10
-5.915376
 20
-467.66847
 10
-6.170815
 20
-467.843815
 10
-6.430915
 20
-468.008545
 10
-6.695233
 20
-468.162167
 10
-6.963322
 20
-468.304188
 10
-7.234658
 20
-468.434291
 10
-7.508397
 20
-468.552867
 10
-7.783614
 20
-468.660483
 10
-8.059385
 20
-468.757705
 10
-8.334787
 20
-468.845101
 10
-8.608895
 20
-468.923237
 10
-8.880786
 20
-468.992681
 10
-9.149534
 20
-469.053999
 10
-9.414217
 20
-469.107759
 10
-9.673909
 20
-469.154526
 10
-9.927688
 20
-469.194869
 10
-10.174629
 20
-469.229353
 10
-10.413807
 20
-469.258547
 10
-10.6443
 20
-469.283016
 10
-10.865182
 20
-469.303328
 10
-11.075529
 20
-469.32005
 10
-11.274419
 20
-469.333748
 10
-11.460926
 20
-469.34499
 10
-11.634126
 20
-469.354342
 10
-12.803405
 20
-469.412753
 10
-12.804075
 20
-469.412787
 10
-12.808759
 20
-469.41302
 10
-12.821474
 20
-469.413653
 10
-12.846235
 20
-469.414886
 10
-12.887057
 20
-469.416918
 10
-12.947955
 20
-469.41995
 10
-13.032946
 20
-469.424182
 10
-13.146043
 20
-469.429813
 10
-13.291262
 20
-469.437043
 10
-13.472619
 20
-469.446072
 10
-13.694128
 20
-469.457101
 10
-13.959806
 20
-469.470329
 10
-14.273667
 20
-469.485955
 10
-14.639726
 20
-469.504181
 10
-15.062
 20
-469.525205
 10
-15.544502
 20
-469.549228
 10
-16.091249
 20
-469.57645
 10
-16.706256
 20
-469.60707
 10
-17.393538
 20
-469.641288
 10
-18.15711
 20
-469.679305
 10
-18.99898
 20
-469.72122
 10
-19.913125
 20
-469.766734
 10
-20.891515
 20
-469.815446
 10
-21.926118
 20
-469.866958
 10
-23.008905
 20
-469.920868
 10
-24.131845
 20
-469.976777
 10
-25.286907
 20
-470.034285
 10
-26.46606
 20
-470.092993
 10
-27.661275
 20
-470.152501
 10
-28.86452
 20
-470.212408
 10
-30.067765
 20
-470.272316
 10
-31.26298
 20
-470.331824
 10
-32.442133
 20
-470.390532
 10
-33.597195
 20
-470.44804
 10
-34.720135
 20
-470.503949
 10
-35.802921
 20
-470.557859
 10
-36.837525
 20
-470.609371
 10
-37.815914
 20
-470.658083
 10
-38.730059
 20
-470.703597
 10
-39.57193
 20
-470.745512
 10
-40.335502
 20
-470.783529
 10
-41.022784
 20
-470.817747
 10
-41.63779
 20
-470.848367
 10
-42.184537
 20
-470.875589
 10
-42.66704
 20
-470.899612
 10
-43.089314
 20
-470.920636
 10
-43.455373
 20
-470.938862
 10
-43.769234
 20
-470.954488
 10
-44.034912
 20
-470.967716
 10
-44.256421
 20
-470.978745
 10
-44.437778
 20
-470.987774
 10
-44.582997
 20
-470.995004
 10
-44.696094
 20
-471.000635
 10
-44.781084
 20
-471.004867
 10
-44.841983
 20
-471.007899
 10
-44.882805
 20
-471.009931
 10
-44.907566
 20
-471.011164
 10
-44.920281
 20
-471.011797
 10
-44.924965
 20
-471.01203
 10
-44.925634
 20
-471.012064
 10
-45.950521
 20
-471.06304
 10
-46.111795
 20
-471.070956
 10
-46.287564
 20
-471.078963
 10
-46.476953
 20
-471.086387
 10
-46.679083
 20
-471.092554
 10
-46.893078
 20
-471.096789
 10
-47.11806
 20
-471.098419
 10
-47.353153
 20
-471.09677
 10
-47.597479
 20
-471.091168
 10
-47.85016
 20
-471.080939
 10
-48.11032
 20
-471.065409
 10
-48.377082
 20
-471.043904
 10
-48.649568
 20
-471.015749
 10
-48.926902
 20
-470.980272
 10
-49.208205
 20
-470.936798
 10
-49.492601
 20
-470.884653
 10
-49.779213
 20
-470.823164
 10
-50.067164
 20
-470.751655
 10
-50.355576
 20
-470.669454
 10
-50.643571
 20
-470.575886
 10
-50.930274
 20
-470.470277
 10
-51.214868
 20
-470.352143
 10
-51.496777
 20
-470.221759
 10
-51.77549
 20
-470.07959
 10
-52.050493
 20
-469.926099
 10
-52.321272
 20
-469.761752
 10
-52.587314
 20
-469.587013
 10
-52.848106
 20
-469.402346
 10
-53.103135
 20
-469.208217
 10
-53.351886
 20
-469.005089
 10
-53.593848
 20
-468.793427
 10
-53.828506
 20
-468.573696
 10
-54.055347
 20
-468.34636
 10
-54.273858
 20
-468.111884
 10
-54.483525
 20
-467.870732
 10
-54.683835
 20
-467.623369
 10
-54.874276
 20
-467.370259
 10
-55.054332
 20
-467.111867
 10
-55.223492
 20
-466.848658
 10
-55.381242
 20
-466.581095
 10
-55.527068
 20
-466.309644
 10
-55.66064
 20
-466.034848
 10
-55.782359
 20
-465.757568
 10
-55.892808
 20
-465.478743
 10
-55.992571
 20
-465.199315
 10
-56.082231
 20
-464.920222
 10
-56.162372
 20
-464.642404
 10
-56.233577
 20
-464.366802
 10
-56.29643
 20
-464.094355
 10
-56.351514
 20
-463.826004
 10
-56.399413
 20
-463.562687
 10
-56.440711
 20
-463.305346
 10
-56.475991
 20
-463.054919
 10
-56.505836
 20
-462.812347
 10
-56.53083
 20
-462.57857
 10
-56.551557
 20
-462.354528
 10
-56.5686
 20
-462.14116
 10
-56.582543
 20
-461.939407
 10
-56.593969
 20
-461.750207
 10
-56.603461
 20
-461.574503
 10
-56.662686
 20
-460.388296
  0
LWPOLYLINE
  5
37
330
1F
100
AcDbEntity
  8
0
100
AcDbPolyline
 90
      667
 70
   128
 43
0.0
 10
-55.734955
 20
-513.268969
 10
-55.734958
 20
-513.268917
 10
-55.734976
 20
-513.268555
 10
-55.735025
 20
-513.267571
 10
-55.73512
 20
-513.265656
 10
-55.735277
 20
-513.262499
 10
-55.735511
 20
-513.257789
 10
-55.735838
 20
-513.251216
 10
-55.736272
 20
-513.242469
 10
-55.736831
 20
-513.231237
 10
-55.737528
 20
-513.21721
 10
-55.738379
 20
-513.200078
 10
-55.7394
 20
-513.17953
 10
-55.740607
 20
-513.155255
 10
-55.742014
 20
-513.126943
 10
-55.743637
 20
-513.094284
 10
-55.745492
 20
-513.056966
 10
-55.747594
 20
-513.014679
 10
-55.749958
 20
-512.967113
 10
-55.7526
 20
-512.913957
 10
-55.755535
 20
-512.8549
 10
-55.758771
 20
-512.789788
 10
-55.762285
 20
-512.719086
 10
-55.766046
 20
-512.643415
 10
-55.770023
 20
-512.563396
 10
-55.774185
 20
-512.479651
 10
-55.778501
 20
-512.3928
 10
-55.782941
 20
-512.303465
 10
-55.787474
 20
-512.212266
 10
-55.792068
 20
-512.119825
 10
-55.796694
 20
-512.026763
 10
-55.801319
 20
-511.933701
 10
-55.805913
 20
-511.841261
 10
-55.810446
 20
-511.750062
 10
-55.814886
 20
-511.660727
 10
-55.819202
 20
-511.573876
 10
-55.823365
 20
-511.49013
 10
-55.827342
 20
-511.410112
 10
-55.831102
 20
-511.334441
 10
-55.834616
 20
-511.263738
 10
-55.837852
 20
-511.198626
 10
-55.840788
 20
-511.13957
 10
-55.84343
 20
-511.086414
 10
-55.845794
 20
-511.038847
 10
-55.847895
 20
-510.996561
 10
-55.84975
 20
-510.959243
 10
-55.851373
 20
-510.926583
 10
-55.85278
 20
-510.898271
 10
-55.853987
 20
-510.873996
 10
-55.855008
 20
-510.853448
 10
-55.855859
 20
-510.836316
 10
-55.856557
 20
-510.82229
 10
-55.857115
 20
-510.811058
 10
-55.85755
 20
-510.802311
 10
-55.857876
 20
-510.795737
 10
-55.85811
 20
-510.791027
 10
-55.858267
 20
-510.78787
 10
-55.858362
 20
-510.785955
 10
-55.858411
 20
-510.784972
 10
-55.858429
 20
-510.784609
 10
-55.858432
 20
-510.784558
 10
-55.9095
 20
-509.75966
 10
-55.917431
 20
-509.598385
 10
-55.925453
 20
-509.422614
 10
-55.932893
 20
-509.233223
 10
-55.939074
 20
-509.03109
 10
-55.943324
 20
-508.817092
 10
-55.944967
 20
-508.592105
 10
-55.943329
 20
-508.357008
 10
-55.937735
 20
-508.112677
 10
-55.927512
 20
-507.859988
 10
-55.911983
 20
-507.59982
 10
-55.890476
 20
-507.33305
 10
-55.862314
 20
-507.060553
 10
-55.826825
 20
-506.783208
 10
-55.783332
 20
-506.501891
 10
-55.731163
 20
-506.21748
 10
-55.669641
 20
-505.930852
 10
-55.598093
 20
-505.642883
 10
-55.515845
 20
-505.354451
 10
-55.422221
 20
-505.066433
 10
-55.316547
 20
-504.779705
 10
-55.198339
 20
-504.495085
 10
-55.067872
 20
-504.213147
 10
-54.925612
 20
-503.934404
 10
-54.772026
 20
-503.65937
 10
-54.607578
 20
-503.388558
 10
-54.432736
 20
-503.122482
 10
-54.247964
 20
-502.861657
 10
-54.053728
 20
-502.606594
 10
-53.850495
 20
-502.357809
 10
-53.638729
 20
-502.115815
 10
-53.418898
 20
-501.881125
 10
-53.191467
 20
-501.654253
 10
-52.956901
 20
-501.435713
 10
-52.715667
 20
-501.226018
 10
-52.46823
 20
-501.025683
 10
-52.215056
 20
-500.83522
 10
-51.956611
 20
-500.655143
 10
-51.693361
 20
-500.485966
 10
-51.425771
 20
-500.328202
 10
-51.154309
 20
-500.182366
 10
-50.879517
 20
-500.048788
 10
-50.602256
 20
-499.927067
 10
-50.323465
 20
-499.816619
 10
-50.044083
 20
-499.716861
 10
-49.765047
 20
-499.627208
 10
-49.487298
 20
-499.547077
 10
-49.211772
 20
-499.475885
 10
-48.93941
 20
-499.413046
 10
-48.67115
 20
-499.357978
 10
-48.40793
 20
-499.310096
 10
-48.15069
 20
-499.268817
 10
-47.900367
 20
-499.233557
 10
-47.657901
 20
-499.203732
 10
-47.42423
 20
-499.178758
 10
-47.200293
 20
-499.158052
 10
-46.987028
 20
-499.141029
 10
-46.785375
 20
-499.127107
 10
-46.596272
 20
-499.1157
 10
-46.420658
 20
-499.106226
 10
-45.235068
 20
-499.047125
 10
-45.234399
 20
-499.047092
 10
-45.229714
 20
-499.046859
 10
-45.216999
 20
-499.046226
 10
-45.192238
 20
-499.044993
 10
-45.151416
 20
-499.04296
 10
-45.090518
 20
-499.039928
 10
-45.005528
 20
-499.035697
 10
-44.892431
 20
-499.030066
 10
-44.747212
 20
-499.022836
 10
-44.565855
 20
-499.013806
 10
-44.344345
 20
-499.002778
 10
-44.078668
 20
-498.98955
 10
-43.764807
 20
-498.973924
 10
-43.398747
 20
-498.955698
 10
-42.976474
 20
-498.934674
 10
-42.493971
 20
-498.910651
 10
-41.947224
 20
-498.883429
 10
-41.332217
 20
-498.852809
 10
-40.644935
 20
-498.818591
 10
-39.881363
 20
-498.780574
 10
-39.039493
 20
-498.738658
 10
-38.125348
 20
-498.693145
 10
-37.146959
 20
-498.644432
 10
-36.112355
 20
-498.592921
 10
-35.029568
 20
-498.539011
 10
-33.906629
 20
-498.483102
 10
-32.751567
 20
-498.425593
 10
-31.572413
 20
-498.366885
 10
-30.377199
 20
-498.307378
 10
-29.173954
 20
-498.24747
 10
-27.970708
 20
-498.187563
 10
-26.775494
 20
-498.128055
 10
-25.59634
 20
-498.069347
 10
-24.441279
 20
-498.011839
 10
-23.318339
 20
-497.955929
 10
-22.235552
 20
-497.902019
 10
-21.200949
 20
-497.850508
 10
-20.222559
 20
-497.801796
 10
-19.308414
 20
-497.756282
 10
-18.466544
 20
-497.714367
 10
-17.702972
 20
-497.67635
 10
-17.01569
 20
-497.642131
 10
-16.400683
 20
-497.611511
 10
-15.853936
 20
-497.58429
 10
-15.371433
 20
-497.560267
 10
-14.94916
 20
-497.539242
 10
-14.5831
 20
-497.521017
 10
-14.269239
 20
-497.50539
 10
-14.003562
 20
-497.492163
 10
-13.782052
 20
-497.481134
 10
-13.600696
 20
-497.472105
 10
-13.455476
 20
-497.464875
 10
-13.342379
 20
-497.459244
 10
-13.257389
 20
-497.455012
 10
-13.196491
 20
-497.45198
 10
-13.155669
 20
-497.449948
 10
-13.130908
 20
-497.448715
 10
-13.118193
 20
-497.448082
 10
-13.113508
 20
-497.447849
 10
-13.112839
 20
-497.447815
 10
-12.199852
 20
-497.40233
 10
-12.056185
 20
-497.395256
 10
-11.899593
 20
-497.38804
 10
-11.730847
 20
-497.381219
 10
-11.550718
 20
-497.375335
 10
-11.359974
 20
-497.370927
 10
-11.159388
 20
-497.368533
 10
-10.949728
 20
-497.368695
 10
-10.731766
 20
-497.37195
 10
-10.506271
 20
-497.378838
 10
-10.274014
 20
-497.389899
 10
-10.035765
 20
-497.405673
 10
-9.792295
 20
-497.426698
 10
-9.544374
 20
-497.453515
 10
-9.292771
 20
-497.486663
 10
-9.038258
 20
-497.52668
 10
-8.781605
 20
-497.574108
 10
-8.523582
 20
-497.629484
 10
-8.264959
 20
-497.693349
 10
-8.006507
 20
-497.766242
 10
-7.748995
 20
-497.848703
 10
-7.493127
 20
-497.941125
 10
-7.239335
 20
-498.043325
 10
-6.987982
 20
-498.154972
 10
-6.739434
 20
-498.275737
 10
-6.494054
 20
-498.405289
 10
-6.252207
 20
-498.5433
 10
-6.014256
 20
-498.689438
 10
-5.780568
 20
-498.843375
 10
-5.551504
 20
-499.004781
 10
-5.327431
 20
-499.173325
 10
-5.108712
 20
-499.348678
 10
-4.895712
 20
-499.530511
 10
-4.688795
 20
-499.718493
 10
-4.488324
 20
-499.912295
 10
-4.294666
 20
-500.111586
 10
-4.108183
 20
-500.316037
 10
-3.92924
 20
-500.525319
 10
-3.758202
 20
-500.739101
 10
-3.595432
 20
-500.957054
 10
-3.441296
 20
-501.178847
 10
-3.296046
 20
-501.404069
 10
-3.159493
 20
-501.631981
 10
-3.031336
 20
-501.861758
 10
-2.911275
 20
-502.09258
 10
-2.799009
 20
-502.323623
 10
-2.694238
 20
-502.554065
 10
-2.596661
 20
-502.783085
 10
-2.505977
 20
-503.009859
 10
-2.421886
 20
-503.233565
 10
-2.344087
 20
-503.453382
 10
-2.272281
 20
-503.668486
 10
-2.206165
 20
-503.878056
 10
-2.14544
 20
-504.081268
 10
-2.089806
 20
-504.277301
 10
-2.038961
 20
-504.465333
 10
-1.992605
 20
-504.64454
 10
-1.950437
 20
-504.814101
 10
-1.912157
 20
-504.973193
 10
-1.877465
 20
-505.120995
 10
-1.646977
 20
-506.119063
 10
-1.647289
 20
-506.119079
 10
-1.649475
 20
-506.119188
 10
-1.655408
 20
-506.119483
 10
-1.666962
 20
-506.120059
 10
-1.686011
 20
-506.121007
 10
-1.714427
 20
-506.122423
 10
-1.754085
 20
-506.124398
 10
-1.806859
 20
-506.127027
 10
-1.874621
 20
-506.130402
 10
-1.959246
 20
-506.134617
 10
-2.062607
 20
-506.139765
 10
-2.186578
 20
-506.145939
 10
-2.333033
 20
-506.153234
 10
-2.503844
 20
-506.161741
 10
-2.700886
 20
-506.171555
 10
-2.926032
 20
-506.182769
 10
-3.181156
 20
-506.195476
 10
-3.468131
 20
-506.209769
 10
-3.788832
 20
-506.225743
 10
-4.145131
 20
-506.243489
 10
-4.537966
 20
-506.263055
 10
-4.964525
 20
-506.2843
 10
-5.421063
 20
-506.307039
 10
-5.903831
 20
-506.331084
 10
-6.409083
 20
-506.356249
 10
-6.933071
 20
-506.382347
 10
-7.472047
 20
-506.409192
 10
-8.022266
 20
-506.436597
 10
-8.579979
 20
-506.464375
 10
-9.141439
 20
-506.492339
 10
-9.702899
 20
-506.520304
 10
-10.260612
 20
-506.548082
 10
-10.81083
 20
-506.575487
 10
-11.349807
 20
-506.602332
 10
-11.873795
 20
-506.62843
 10
-12.379046
 20
-506.653595
 10
-12.861814
 20
-506.67764
 10
-13.318352
 20
-506.700379
 10
-13.744912
 20
-506.721624
 10
-14.137747
 20
-506.74119
 10
-14.494046
 20
-506.758936
 10
-14.814746
 20
-506.774909
 10
-15.101722
 20
-506.789203
 10
-15.356846
 20
-506.80191
 10
-15.581992
 20
-506.813124
 10
-15.779034
 20
-506.822938
 10
-15.949845
 20
-506.831445
 10
-16.096299
 20
-506.83874
 10
-16.22027
 20
-506.844914
 10
-16.323631
 20
-506.850062
 10
-16.408256
 20
-506.854277
 10
-16.476019
 20
-506.857652
 10
-16.528792
 20
-506.860281
 10
-16.56845
 20
-506.862256
 10
-16.596867
 20
-506.863671
 10
-16.615915
 20
-506.86462
 10
-16.627469
 20
-506.865196
 10
-16.633402
 20
-506.865491
 10
-16.635588
 20
-506.8656
 10
-16.635901
 20
-506.865616
 10
-16.852683
 20
-506.876401
 10
-16.886793
 20
-506.87812
 10
-16.923956
 20
-506.880124
 10
-16.963976
 20
-506.882535
 10
-17.006652
 20
-506.885476
 10
-17.051788
 20
-506.889071
 10
-17.099185
 20
-506.893442
 10
-17.148645
 20
-506.898712
 10
-17.199969
 20
-506.905003
 10
-17.252961
 20
-506.912439
 10
-17.30742
 20
-506.921143
 10
-17.363151
 20
-506.931237
 10
-17.419953
 20
-506.942844
 10
-17.47763
 20
-506.956087
 10
-17.535983
 20
-506.971089
 10
-17.594813
 20
-506.987973
 10
-17.653924
 20
-507.006862
 10
-17.713116
 20
-507.027877
 10
-17.772192
 20
-507.051144
 10
-17.830953
 20
-507.076783
 10
-17.889201
 20
-507.104918
 10
-17.946755
 20
-507.135634
 10
-18.003498
 20
-507.168861
 10
-18.059331
 20
-507.20449
 10
-18.114155
 20
-507.242413
 10
-18.16787
 20
-507.282523
 10
-18.220376
 20
-507.32471
 10
-18.271573
 20
-507.368868
 10
-18.321363
 20
-507.414887
 10
-18.369646
 20
-507.462659
 10
-18.416321
 20
-507.512077
 10
-18.46129
 20
-507.563032
 10
-18.504453
 20
-507.615416
 10
-18.54571
 20
-507.669121
 10
-18.584962
 20
-507.724038
 10
-18.62211
 20
-507.78006
 10
-18.657053
 20
-507.837078
 10
-18.689692
 20
-507.894984
 10
-18.719927
 20
-507.95367
 10
-18.74766
 20
-508.013028
 10
-18.77279
 20
-508.07295
 10
-18.795258
 20
-508.133314
 10
-18.815167
 20
-508.193949
 10
-18.832661
 20
-508.25467
 10
-18.847881
 20
-508.315293
 10
-18.860973
 20
-508.375632
 10
-18.872078
 20
-508.435505
 10
-18.88134
 20
-508.494725
 10
-18.888902
 20
-508.553109
 10
-18.894907
 20
-508.610472
 10
-18.899499
 20
-508.666628
 10
-18.90282
 20
-508.721395
 10
-18.905014
 20
-508.774586
 10
-18.906224
 20
-508.826019
 10
-18.906593
 20
-508.875507
 10
-18.906264
 20
-508.922866
 10
-18.90538
 20
-508.967912
 10
-18.904086
 20
-509.010461
 10
-18.902523
 20
-509.050327
 10
-18.900835
 20
-509.087326
 10
-18.888411
 20
-509.337011
 10
-18.877686
 20
-509.55267
 10
-18.875976
 20
-509.586603
 10
-18.873982
 20
-509.623574
 10
-18.871579
 20
-509.663384
 10
-18.868644
 20
-509.705836
 10
-18.865053
 20
-509.750732
 10
-18.860682
 20
-509.797874
 10
-18.855408
 20
-509.847065
 10
-18.849106
 20
-509.898106
 10
-18.841653
 20
-509.950801
 10
-18.832926
 20
-510.004952
 10
-18.8228
 20
-510.06036
 10
-18.811152
 20
-510.116829
 10
-18.797857
 20
-510.17416
 10
-18.782793
 20
-510.232155
 10
-18.765835
 20
-510.290618
 10
-18.746859
 20
-510.34935
 10
-18.725742
 20
-510.408153
 10
-18.702361
 20
-510.46683
 10
-18.67659
 20
-510.525184
 10
-18.648307
 20
-510.583016
 10
-18.617427
 20
-510.640145
 10
-18.584019
 20
-510.696457
 10
-18.548192
 20
-510.751854
 10
-18.510055
 20
-510.806238
 10
-18.469717
 20
-510.85951
 10
-18.427285
 20
-510.911574
 10
-18.38287
 20
-510.96233
 10
-18.33658
 20
-511.011681
 10
-18.288523
 20
-511.059529
 10
-18.238808
 20
-511.105776
 10
-18.187544
 20
-511.150324
 10
-18.134839
 20
-511.193075
 10
-18.080803
 20
-511.233931
 10
-18.025544
 20
-511.272794
 10
-17.969171
 20
-511.309567
 10
-17.911792
 20
-511.34415
 10
-17.853516
 20
-511.376446
 10
-17.794452
 20
-511.406357
 10
-17.734709
 20
-511.433786
 10
-17.674395
 20
-511.458634
 10
-17.613632
 20
-511.480843
 10
-17.552593
 20
-511.500515
 10
-17.491464
 20
-511.517792
 10
-17.430431
 20
-511.532817
 10
-17.369681
 20
-511.545732
 10
-17.309399
 20
-511.556678
 10
-17.249771
 20
-511.565798
 10
-17.190984
 20
-511.573234
 10
-17.133223
 20
-511.579128
 10
-17.076675
 20
-511.583623
 10
-17.021525
 20
-511.586859
 10
-16.96796
 20
-511.588979
 10
-16.916165
 20
-511.590126
 10
-16.866328
 20
-511.590442
 10
-16.818633
 20
-511.590067
 10
-16.773267
 20
-511.589146
 10
-16.730416
 20
-511.58782
 10
-16.690266
 20
-511.58623
 10
-16.653002
 20
-511.584519
 10
-16.401536
 20
-511.571951
 10
-16.40122
 20
-511.571935
 10
-16.39901
 20
-511.571825
 10
-16.393009
 20
-511.571527
 10
-16.381324
 20
-511.570945
 10
-16.36206
 20
-511.569986
 10
-16.333321
 20
-511.568555
 10
-16.293212
 20
-511.566559
 10
-16.23984
 20
-511.563902
 10
-16.171308
 20
-511.560491
 10
-16.085723
 20
-511.556231
 10
-15.981189
 20
-511.551028
 10
-15.855811
 20
-511.544787
 10
-15.707695
 20
-511.537414
 10
-15.534945
 20
-511.528815
 10
-15.335667
 20
-511.518896
 10
-15.107965
 20
-511.507562
 10
-14.849946
 20
-511.494718
 10
-14.559713
 20
-511.480272
 10
-14.235373
 20
-511.464127
 10
-13.87503
 20
-511.446191
 10
-13.477737
 20
-511.426415
 10
-13.046336
 20
-511.404941
 10
-12.584617
 20
-511.381958
 10
-12.09637
 20
-511.357655
 10
-11.585384
 20
-511.33222
 10
-11.05545
 20
-511.305842
 10
-10.510356
 20
-511.278709
 10
-9.953893
 20
-511.25101
 10
-9.389851
 20
-511.222934
 10
-8.822019
 20
-511.19467
 10
-8.254186
 20
-511.166405
 10
-7.690144
 20
-511.138329
 10
-7.133681
 20
-511.11063
 10
-6.588587
 20
-511.083497
 10
-6.058653
 20
-511.057119
 10
-5.547667
 20
-511.031684
 10
-5.05942
 20
-511.007381
 10
-4.597701
 20
-510.984398
 10
-4.1663
 20
-510.962924
 10
-3.769007
 20
-510.943149
 10
-3.408664
 20
-510.925212
 10
-3.084324
 20
-510.909067
 10
-2.794091
 20
-510.894621
 10
-2.536072
 20
-510.881777
 10
-2.308371
 20
-510.870443
 10
-2.109092
 20
-510.860524
 10
-1.936343
 20
-510.851925
 10
-1.788226
 20
-510.844552
 10
-1.662848
 20
-510.838311
 10
-1.558314
 20
-510.833108
 10
-1.472729
 20
-510.828848
 10
-1.404197
 20
-510.825437
 10
-1.350825
 20
-510.82278
 10
-1.310717
 20
-510.820784
 10
-1.281978
 20
-510.819353
 10
-1.262713
 20
-510.818394
 10
-1.251028
 20
-510.817812
 10
-1.245027
 20
-510.817514
 10
-1.242817
 20
-510.817404
 10
-1.242501
 20
-510.817388
 10
-1.215852
 20
-511.823022
 10
-1.21176
 20
-511.981265
 10
-1.2079
 20
-512.153727
 10
-1.204902
 20
-512.339541
 10
-1.2034
 20
-512.537842
 10
-1.204022
 20
-512.747763
 10
-1.207402
 20
-512.96844
 10
-1.214171
 20
-513.199005
 10
-1.224959
 20
-513.438593
 10
-1.240399
 20
-513.686337
 10
-1.261121
 20
-513.941373
 10
-1.287757
 20
-514.202833
 10
-1.320939
 20
-514.469853
 10
-1.361298
 20
-514.741565
 10
-1.409464
 20
-515.017105
 10
-1.46607
 20
-515.295605
 10
-1.531747
 20
-515.576201
 10
-1.607126
 20
-515.858026
 10
-1.692839
 20
-516.140214
 10
-1.789517
 20
-516.421899
 10
-1.897791
 20
-516.702216
 10
-2.018114
 20
-516.98036
 10
-2.150219
 20
-517.255777
 10
-2.293662
 20
-517.527973
 10
-2.447998
 20
-517.796455
 10
-2.612781
 20
-518.060731
 10
-2.787566
 20
-518.320307
 10
-2.971909
 20
-518.574691
 10
-3.165364
 20
-518.82339
 10
-3.367487
 20
-519.06591
 10
-3.577832
 20
-519.301758
 10
-3.795954
 20
-519.530442
 10
-4.021408
 20
-519.751469
 10
-4.253749
 20
-519.964345
 10
-4.492532
 20
-520.168578
 10
-4.737313
 20
-520.363675
 10
-4.987645
 20
-520.549143
 10
-5.243084
 20
-520.724488
 10
-5.503184
 20
-520.889218
 10
-5.767502
 20
-521.04284
 10
-6.035591
 20
-521.184861
 10
-6.306927
 20
-521.314964
 10
-6.580666
 20
-521.43354
 10
-6.855883
 20
-521.541156
 10
-7.131654
 20
-521.638378
 10
-7.407056
 20
-521.725774
 10
-7.681164
 20
-521.80391
 10
-7.953055
 20
-521.873354
 10
-8.221803
 20
-521.934672
 10
-8.486486
 20
-521.988432
 10
-8.746178
 20
-522.035199
 10
-8.999957
 20
-522.075542
 10
-9.246898
 20
-522.110026
 10
-9.486076
 20
-522.13922
 10
-9.716569
 20
-522.163689
 10
-9.937451
 20
-522.184001
 10
-10.147798
 20
-522.200723
 10
-10.346688
 20
-522.214421
 10
-10.533195
 20
-522.225663
 10
-10.706395
 20
-522.235015
 10
-11.875674
 20
-522.293426
 10
-11.876344
 20
-522.29346
 10
-11.881028
 20
-522.293693
 10
-11.893743
 20
-522.294326
 10
-11.918504
 20
-522.295559
 10
-11.959326
 20
-522.297591
 10
-12.020224
 20
-522.300623
 10
-12.105215
 20
-522.304855
 10
-12.218312
 20
-522.310486
 10
-12.363531
 20
-522.317716
 10
-12.544888
 20
-522.326745
 10
-12.766397
 20
-522.337774
 10
-13.032075
 20
-522.351002
 10
-13.345936
 20
-522.366628
 10
-13.711995
 20
-522.384854
 10
-14.134269
 20
-522.405878
 10
-14.616771
 20
-522.429901
 10
-15.163518
 20
-522.457123
 10
-15.778525
 20
-522.487743
 10
-16.465807
 20
-522.521961
 10
-17.229379
 20
-522.559978
 10
-18.071249
 20
-522.601893
 10
-18.985394
 20
-522.647407
 10
-19.963784
 20
-522.696119
 10
-20.998387
 20
-522.747631
 10
-22.081174
 20
-522.801541
 10
-23.204114
 20
-522.85745
 10
-24.359176
 20
-522.914958
 10
-25.538329
 20
-522.973666
 10
-26.733544
 20
-523.033174
 10
-27.936789
 20
-523.093081
 10
-29.140034
 20
-523.152989
 10
-30.335249
 20
-523.212497
 10
-31.514402
 20
-523.271205
 10
-32.669464
 20
-523.328713
 10
-33.792404
 20
-523.384622
 10
-34.87519
 20
-523.438532
 10
-35.909794
 20
-523.490044
 10
-36.888183
 20
-523.538756
 10
-37.802328
 20
-523.58427
 10
-38.644199
 20
-523.626185
 10
-39.407771
 20
-523.664202
 10
-40.095053
 20
-523.69842
 10
-40.710059
 20
-523.72904
 10
-41.256806
 20
-523.756262
 10
-41.739309
 20
-523.780285
 10
-42.161583
 20
-523.801309
 10
-42.527642
 20
-523.819535
 10
-42.841503
 20
-523.835161
 10
-43.107181
 20
-523.848389
 10
-43.32869
 20
-523.859418
 10
-43.510047
 20
-523.868447
 10
-43.655266
 20
-523.875677
 10
-43.768363
 20
-523.881308
 10
-43.853353
 20
-523.88554
 10
-43.914252
 20
-523.888572
 10
-43.955074
 20
-523.890604
 10
-43.979835
 20
-523.891837
 10
-43.99255
 20
-523.89247
 10
-43.997234
 20
-523.892703
 10
-43.997903
 20
-523.892737
 10
-45.02279
 20
-523.943713
 10
-45.184064
 20
-523.951629
 10
-45.359833
 20
-523.959636
 10
-45.549222
 20
-523.96706
 10
-45.751352
 20
-523.973227
 10
-45.965347
 20
-523.977462
 10
-46.190329
 20
-523.979092
 10
-46.425422
 20
-523.977443
 10
-46.669748
 20
-523.971841
 10
-46.922429
 20
-523.961612
 10
-47.182589
 20
-523.946082
 10
-47.449351
 20
-523.924577
 10
-47.721837
 20
-523.896422
 10
-47.999171
 20
-523.860945
 10
-48.280474
 20
-523.817471
 10
-48.56487
 20
-523.765326
 10
-48.851482
 20
-523.703837
 10
-49.139433
 20
-523.632328
 10
-49.427845
 20
-523.550127
 10
-49.71584
 20
-523.456559
 10
-50.002543
 20
-523.35095
 10
-50.287137
 20
-523.232816
 10
-50.569046
 20
-523.102432
 10
-50.847759
 20
-522.960263
 10
-51.122762
 20
-522.806772
 10
-51.393541
 20
-522.642425
 10
-51.659583
 20
-522.467686
 10
-51.920375
 20
-522.283019
 10
-52.175404
 20
-522.08889
 10
-52.424155
 20
-521.885762
 10
-52.666117
 20
-521.6741
 10
-52.900775
 20
-521.454369
 10
-53.127616
 20
-521.227033
 10
-53.346127
 20
-520.992557
 10
-53.555794
 20
-520.751405
 10
-53.756104
 20
-520.504042
 10
-53.946545
 20
-520.250932
 10
-54.126601
 20
-519.99254
 10
-54.295761
 20
-519.729331
 10
-54.453511
 20
-519.461768
 10
-54.599337
 20
-519.190317
 10
-54.732909
 20
-518.915521
 10
-54.854628
 20
-518.638241
 10
-54.965077
 20
-518.359416
 10
-55.06484
 20
-518.079988
 10
-55.1545
 20
-517.800895
 10
-55.234641
 20
-517.523077
 10
-55.305846
 20
-517.247475
 10
-55.368699
 20
-516.975028
 10
-55.423783
 20
-516.706677
 10
-55.471682
 20
-516.44336
 10
-55.51298
 20
-516.186019
 10
-55.54826
 20
-515.935592
 10
-55.578105
 20
-515.69302
 10
-55.603099
 20
-515.459243
 10
-55.623826
 20
-515.235201
 10
-55.640869
 20
-515.021833
 10
-55.654812
 20
-514.82008
 10
-55.666238
 20
-514.63088
 10
-55.67573
 20
-514.455176
 10
-55.734955
 20
-513.268969
  0
LWPOLYLINE
  5
38
330
1F
100
AcDbEntity
  8
0
100
AcDbPolyline
 90
      667
 70
   128
 43
0.0
 10
-59.686096
 20
-370.437862
 10
-59.686099
 20
-370.43781
 10
-59.686117
 20
-370.437448
 10
-59.686166
 20
-370.436464
 10
-59.686261
 20
-370.434549
 10
-59.686418
 20
-370.431392
 10
-59.686652
 20
-370.426682
 10
-59.686979
 20
-370.420109
 10
-59.687413
 20
-370.411362
 10
-59.687972
 20
-370.40013
 10
-59.688669
 20
-370.386103
 10
-59.68952
 20
-370.368971
 10
-59.690541
 20
-370.348423
 10
-59.691748
 20
-370.324148
 10
-59.693155
 20
-370.295836
 10
-59.694778
 20
-370.263177
 10
-59.696633
 20
-370.225859
 10
-59.698735
 20
-370.183572
 10
-59.701099
 20
-370.136006
 10
-59.703741
 20
-370.08285
 10
-59.706676
 20
-370.023793
 10
-59.709912
 20
-369.958681
 10
-59.713426
 20
-369.887979
 10
-59.717187
 20
-369.812308
 10
-59.721164
 20
-369.732289
 10
-59.725326
 20
-369.648544
 10
-59.729642
 20
-369.561693
 10
-59.734082
 20
-369.472358
 10
-59.738615
 20
-369.381159
 10
-59.743209
 20
-369.288718
 10
-59.747835
 20
-369.195656
 10
-59.75246
 20
-369.102594
 10
-59.757054
 20
-369.010154
 10
-59.761587
 20
-368.918955
 10
-59.766027
 20
-368.82962
 10
-59.770343
 20
-368.742769
 10
-59.774506
 20
-368.659023
 10
-59.778483
 20
-368.579005
 10
-59.782243
 20
-368.503334
 10
-59.785757
 20
-368.432631
 10
-59.788993
 20
-368.367519
 10
-59.791929
 20
-368.308463
 10
-59.794571
 20
-368.255307
 10
-59.796935
 20
-368.20774
 10
-59.799036
 20
-368.165454
 10
-59.800891
 20
-368.128136
 10
-59.802514
 20
-368.095476
 10
-59.803921
 20
-368.067164
 10
-59.805128
 20
-368.042889
 10
-59.806149
 20
-368.022341
 10
-59.807
 20
-368.005209
 10
-59.807698
 20
-367.991183
 10
-59.808256
 20
-367.979951
 10
-59.808691
 20
-367.971204
 10
-59.809017
 20
-367.96463
 10
-59.809251
 20
-367.95992
 10
-59.809408
 20
-367.956763
 10
-59.809503
 20
-367.954848
 10
-59.809552
 20
-367.953865
 10
-59.80957
 20
-367.953502
 10
-59.809573
 20
-367.953451
 10
-59.860641
 20
-366.928553
 10
-59.868572
 20
-366.767278
 10
-59.876594
 20
-366.591507
 10
-59.884034
 20
-366.402116
 10
-59.890215
 20
-366.199983
 10
-59.894465
 20
-365.985985
 10
-59.896108
 20
-365.760998
 10
-59.89447
 20
-365.525901
 10
-59.888876
 20
-365.28157
 10
-59.878653
 20
-365.028881
 10
-59.863124
 20
-364.768713
 10
-59.841617
 20
-364.501943
 10
-59.813455
 20
-364.229446
 10
-59.777966
 20
-363.952101
 10
-59.734473
 20
-363.670784
 10
-59.682304
 20
-363.386373
 10
-59.620782
 20
-363.099745
 10
-59.549234
 20
-362.811776
 10
-59.466986
 20
-362.523344
 10
-59.373362
 20
-362.235326
 10
-59.267688
 20
-361.948598
 10
-59.14948
 20
-361.663978
 10
-59.019013
 20
-361.38204
 10
-58.876753
 20
-361.103297
 10
-58.723167
 20
-360.828263
 10
-58.558719
 20
-360.557451
 10
-58.383877
 20
-360.291375
 10
-58.199105
 20
-360.03055
 10
-58.004869
 20
-359.775487
 10
-57.801636
 20
-359.526702
 10
-57.58987
 20
-359.284708
 10
-57.370039
 20
-359.050018
 10
-57.142608
 20
-358.823146
 10
-56.908042
 20
-358.604606
 10
-56.666808
 20
-358.394911
 10
-56.419371
 20
-358.194576
 10
-56.166197
 20
-358.004113
 10
-55.907752
 20
-357.824036
 10
-55.644502
 20
-357.654859
 10
-55.376912
 20
-357.497095
 10
-55.10545
 20
-357.351259
 10
-54.830658
 20
-357.217681
 10
-54.553397
 20
-357.09596
 10
-54.274606
 20
-356.985512
 10
-53.995224
 20
-356.885754
 10
-53.716188
 20
-356.796101
 10
-53.438439
 20
-356.71597
 10
-53.162913
 20
-356.644778
 10
-52.890551
 20
-356.581939
 10
-52.622291
 20
-356.526871
 10
-52.359071
 20
-356.478989
 10
-52.101831
 20
-356.43771
 10
-51.851508
 20
-356.40245
 10
-51.609042
 20
-356.372625
 10
-51.375371
 20
-356.347651
 10
-51.151434
 20
-356.326945
 10
-50.938169
 20
-356.309922
 10
-50.736516
 20
-356.296
 10
-50.547413
 20
-356.284593
 10
-50.371799
 20
-356.275119
 10
-49.186209
 20
-356.216018
 10
-49.18554
 20
-356.215985
 10
-49.180855
 20
-356.215752
 10
-49.16814
 20
-356.215119
 10
-49.143379
 20
-356.213886
 10
-49.102557
 20
-356.211853
 10
-49.041659
 20
-356.208821
 10
-48.956669
 20
-356.20459
 10
-48.843572
 20
-356.198959
 10
-48.698353
 20
-356.191729
 10
-48.516996
 20
-356.182699
 10
-48.295486
 20
-356.171671
 10
-48.029809
 20
-356.158443
 10
-47.715948
 20
-356.142817
 10
-47.349888
 20
-356.124591
 10
-46.927615
 20
-356.103567
 10
-46.445112
 20
-356.079544
 10
-45.898365
 20
-356.052322
 10
-45.283358
 20
-356.021702
 10
-44.596076
 20
-355.987484
 10
-43.832504
 20
-355.949467
 10
-42.990634
 20
-355.907551
 10
-42.076489
 20
-355.862038
 10
-41.0981
 20
-355.813325
 10
-40.063496
 20
-355.761814
 10
-38.980709
 20
-355.707904
 10
-37.85777
 20
-355.651995
 10
-36.702708
 20
-355.594486
 10
-35.523554
 20
-355.535778
 10
-34.32834
 20
-355.476271
 10
-33.125095
 20
-355.416363
 10
-31.921849
 20
-355.356456
 10
-30.726635
 20
-355.296948
 10
-29.547481
 20
-355.23824
 10
-28.39242
 20
-355.180732
 10
-27.26948
 20
-355.124822
 10
-26.186693
 20
-355.070912
 10
-25.15209
 20
-355.019401
 10
-24.1737
 20
-354.970689
 10
-23.259555
 20
-354.925175
 10
-22.417685
 20
-354.88326
 10
-21.654113
 20
-354.845243
 10
-20.966831
 20
-354.811024
 10
-20.351824
 20
-354.780404
 10
-19.805077
 20
-354.753183
 10
-19.322574
 20
-354.72916
 10
-18.900301
 20
-354.708135
 10
-18.534241
 20
-354.68991
 10
-18.22038
 20
-354.674283
 10
-17.954703
 20
-354.661056
 10
-17.733193
 20
-354.650027
 10
-17.551837
 20
-354.640998
 10
-17.406617
 20
-354.633768
 10
-17.29352
 20
-354.628137
 10
-17.20853
 20
-354.623905
 10
-17.147632
 20
-354.620873
 10
-17.10681
 20
-354.618841
 10
-17.082049
 20
-354.617608
 10
-17.069334
 20
-354.616975
 10
-17.064649
 20
-354.616742
 10
-17.06398
 20
-354.616708
 10
-16.150993
 20
-354.571223
 10
-16.007326
 20
-354.564149
 10
-15.850734
 20
-354.556933
 10
-15.681988
 20
-354.550112
 10
-15.501859
 20
-354.544228
 10
-15.311115
 20
-354.53982
 10
-15.110529
 20
-354.537426
 10
-14.900869
 20
-354.537588
 10
-14.682907
 20
-354.540843
 10
-14.457412
 20
-354.547731
 10
-14.225155
 20
-354.558792
 10
-13.986906
 20
-354.574566
 10
-13.743436
 20
-354.595591
 10
-13.495515
 20
-354.622408
 10
-13.243912
 20
-354.655556
 10
-12.989399
 20
-354.695573
 10
-12.732746
 20
-354.743001
 10
-12.474723
 20
-354.798377
 10
-12.2161
 20
-354.862242
 10
-11.957648
 20
-354.935135
 10
-11.700136
 20
-355.017596
 10
-11.444268
 20
-355.110018
 10
-11.190476
 20
-355.212218
 10
-10.939123
 20
-355.323865
 10
-10.690575
 20
-355.44463
 10
-10.445195
 20
-355.574182
 10
-10.203348
 20
-355.712193
 10
-9.965397
 20
-355.858331
 10
-9.731709
 20
-356.012268
 10
-9.502645
 20
-356.173674
 10
-9.278572
 20
-356.342218
 10
-9.059853
 20
-356.517571
 10
-8.846853
 20
-356.699404
 10
-8.639936
 20
-356.887386
 10
-8.439465
 20
-357.081188
 10
-8.245807
 20
-357.280479
 10
-8.059324
 20
-357.48493
 10
-7.880381
 20
-357.694212
 10
-7.709343
 20
-357.907994
 10
-7.546573
 20
-358.125947
 10
-7.392437
 20
-358.34774
 10
-7.247187
 20
-358.572962
 10
-7.110634
 20
-358.800874
 10
-6.982477
 20
-359.030651
 10
-6.862416
 20
-359.261473
 10
-6.75015
 20
-359.492516
 10
-6.645379
 20
-359.722958
 10
-6.547802
 20
-359.951978
 10
-6.457118
 20
-360.178752
 10
-6.373027
 20
-360.402458
 10
-6.295228
 20
-360.622275
 10
-6.223422
 20
-360.837379
 10
-6.157306
 20
-361.046949
 10
-6.096581
 20
-361.250161
 10
-6.040947
 20
-361.446194
 10
-5.990102
 20
-361.634226
 10
-5.943746
 20
-361.813433
 10
-5.901578
 20
-361.982994
 10
-5.863298
 20
-362.142086
 10
-5.828606
 20
-362.289888
 10
-5.598118
 20
-363.287956
 10
-5.59843
 20
-363.287972
 10
-5.600616
 20
-363.288081
 10
-5.606549
 20
-363.288376
 10
-5.618103
 20
-363.288952
 10
-5.637152
 20
-363.2899
 10
-5.665568
 20
-363.291316
 10
-5.705226
 20
-363.293291
 10
-5.758
 20
-363.29592
 10
-5.825762
 20
-363.299295
 10
-5.910387
 20
-363.30351
 10
-6.013748
 20
-363.308658
 10
-6.137719
 20
-363.314832
 10
-6.284174
 20
-363.322127
 10
-6.454985
 20
-363.330634
 10
-6.652027
 20
-363.340448
 10
-6.877173
 20
-363.351662
 10
-7.132297
 20
-363.364369
 10
-7.419272
 20
-363.378662
 10
-7.739973
 20
-363.394636
 10
-8.096272
 20
-363.412382
 10
-8.489107
 20
-363.431948
 10
-8.915666
 20
-363.453193
 10
-9.372204
 20
-363.475932
 10
-9.854972
 20
-363.499977
 10
-10.360224
 20
-363.525142
 10
-10.884212
 20
-363.55124
 10
-11.423188
 20
-363.578085
 10
-11.973407
 20
-363.60549
 10
-12.53112
 20
-363.633268
 10
-13.09258
 20
-363.661232
 10
-13.65404
 20
-363.689197
 10
-14.211753
 20
-363.716975
 10
-14.761971
 20
-363.74438
 10
-15.300948
 20
-363.771225
 10
-15.824936
 20
-363.797323
 10
-16.330187
 20
-363.822488
 10
-16.812955
 20
-363.846533
 10
-17.269493
 20
-363.869272
 10
-17.696053
 20
-363.890517
 10
-18.088888
 20
-363.910083
 10
-18.445187
 20
-363.927829
 10
-18.765887
 20
-363.943802
 10
-19.052863
 20
-363.958096
 10
-19.307987
 20
-363.970803
 10
-19.533133
 20
-363.982017
 10
-19.730175
 20
-363.991831
 10
-19.900986
 20
-364.000338
 10
-20.04744
 20
-364.007633
 10
-20.171411
 20
-364.013807
 10
-20.274772
 20
-364.018955
 10
-20.359397
 20
-364.02317
 10
-20.42716
 20
-364.026545
 10
-20.479933
 20
-364.029174
 10
-20.519591
 20
-364.031149
 10
-20.548008
 20
-364.032564
 10
-20.567056
 20
-364.033513
 10
-20.57861
 20
-364.034089
 10
-20.584543
 20
-364.034384
 10
-20.586729
 20
-364.034493
 10
-20.587042
 20
-364.034509
 10
-20.803824
 20
-364.045294
 10
-20.837934
 20
-364.047013
 10
-20.875097
 20
-364.049017
 10
-20.915117
 20
-364.051428
 10
-20.957793
 20
-364.054369
 10
-21.002929
 20
-364.057964
 10
-21.050326
 20
-364.062335
 10
-21.099786
 20
-364.067605
 10
-21.15111
 20
-364.073896
 10
-21.204102
 20
-364.081332
 10
-21.258561
 20
-364.090036
 10
-21.314292
 20
-364.10013
 10
-21.371094
 20
-364.111737
 10
-21.428771
 20
-364.12498
 10
-21.487124
 20
-364.139982
 10
-21.545954
 20
-364.156866
 10
-21.605065
 20
-364.175755
 10
-21.664257
 20
-364.19677
 10
-21.723333
 20
-364.220037
 10
-21.782094
 20
-364.245676
 10
-21.840342
 20
-364.273811
 10
-21.897896
 20
-364.304527
 10
-21.954639
 20
-364.337754
 10
-22.010472
 20
-364.373383
 10
-22.065296
 20
-364.411306
 10
-22.119011
 20
-364.451416
 10
-22.171517
 20
-364.493603
 10
-22.222714
 20
-364.537761
 10
-22.272504
 20
-364.58378
 10
-22.320787
 20
-364.631552
 10
-22.367462
 20
-364.68097
 10
-22.412431
 20
-364.731925
 10
-22.455594
 20
-364.784309
 10
-22.496851
 20
-364.838014
 10
-22.536103
 20
-364.892931
 10
-22.573251
 20
-364.948953
 10
-22.608194
 20
-365.005971
 10
-22.640833
 20
-365.063877
 10
-22.671068
 20
-365.122563
 10
-22.698801
 20
-365.181921
 10
-22.723931
 20
-365.241843
 10
-22.746399
 20
-365.302207
 10
-22.766308
 20
-365.362842
 10
-22.783802
 20
-365.423563
 10
-22.799022
 20
-365.484186
 10
-22.812114
 20
-365.544525
 10
-22.823219
 20
-365.604398
 10
-22.832481
 20
-365.663618
 10
-22.840043
 20
-365.722002
 10
-22.846048
 20
-365.779365
 10
-22.85064
 20
-365.835521
 10
-22.853961
 20
-365.890288
 10
-22.856155
 20
-365.943479
 10
-22.857365
 20
-365.994912
 10
-22.857734
 20
-366.0444
 10
-22.857405
 20
-366.091759
 10
-22.856521
 20
-366.136805
 10
-22.855227
 20
-366.179354
 10
-22.853664
 20
-366.21922
 10
-22.851976
 20
-366.256219
 10
-22.839552
 20
-366.505904
 10
-22.828827
 20
-366.721563
 10
-22.827117
 20
-366.755496
 10
-22.825123
 20
-366.792467
 10
-22.82272
 20
-366.832277
 10
-22.819785
 20
-366.874729
 10
-22.816194
 20
-366.919625
 10
-22.811823
 20
-366.966767
 10
-22.806549
 20
-367.015958
 10
-22.800247
 20
-367.066999
 10
-22.792794
 20
-367.119694
 10
-22.784067
 20
-367.173845
 10
-22.773941
 20
-367.229253
 10
-22.762293
 20
-367.285722
 10
-22.748998
 20
-367.343053
 10
-22.733934
 20
-367.401048
 10
-22.716976
 20
-367.459511
 10
-22.698
 20
-367.518243
 10
-22.676883
 20
-367.577046
 10
-22.653502
 20
-367.635723
 10
-22.627731
 20
-367.694077
 10
-22.599448
 20
-367.751909
 10
-22.568568
 20
-367.809038
 10
-22.53516
 20
-367.86535
 10
-22.499333
 20
-367.920747
 10
-22.461196
 20
-367.975131
 10
-22.420858
 20
-368.028403
 10
-22.378426
 20
-368.080467
 10
-22.334011
 20
-368.131223
 10
-22.287721
 20
-368.180574
 10
-22.239664
 20
-368.228422
 10
-22.189949
 20
-368.274669
 10
-22.138685
 20
-368.319217
 10
-22.08598
 20
-368.361968
 10
-22.031944
 20
-368.402824
 10
-21.976685
 20
-368.441687
 10
-21.920312
 20
-368.47846
 10
-21.862933
 20
-368.513043
 10
-21.804657
 20
-368.545339
 10
-21.745593
 20
-368.57525
 10
-21.68585
 20
-368.602679
 10
-21.625536
 20
-368.627527
 10
-21.564773
 20
-368.649736
 10
-21.503734
 20
-368.669408
 10
-21.442605
 20
-368.686685
 10
-21.381572
 20
-368.70171
 10
-21.320822
 20
-368.714625
 10
-21.26054
 20
-368.725571
 10
-21.200912
 20
-368.734691
 10
-21.142125
 20
-368.742127
 10
-21.084364
 20
-368.748021
 10
-21.027816
 20
-368.752516
 10
-20.972666
 20
-368.755752
 10
-20.919101
 20
-368.757872
 10
-20.867306
 20
-368.759019
 10
-20.817469
 20
-368.759335
 10
-20.769774
 20
-368.75896
 10
-20.724408
 20
-368.758039
 10
-20.681557
 20
-368.756713
 10
-20.641407
 20
-368.755123
 10
-20.604143
 20
-368.753412
 10
-20.352677
 20
-368.740844
 10
-20.352361
 20
-368.740828
 10
-20.350151
 20
-368.740718
 10
-20.34415
 20
-368.74042
 10
-20.332465
 20
-368.739838
 10
-20.313201
 20
-368.738879
 10
-20.284462
 20
-368.737448
 10
-20.244353
 20
-368.735452
 10
-20.190981
 20
-368.732795
 10
-20.122449
 20
-368.729384
 10
-20.036864
 20
-368.725124
 10
-19.93233
 20
-368.719921
 10
-19.806952
 20
-368.71368
 10
-19.658836
 20
-368.706307
 10
-19.486086
 20
-368.697708
 10
-19.286808
 20
-368.687789
 10
-19.059106
 20
-368.676455
 10
-18.801087
 20
-368.663611
 10
-18.510854
 20
-368.649165
 10
-18.186514
 20
-368.63302
 10
-17.826171
 20
-368.615084
 10
-17.428878
 20
-368.595308
 10
-16.997477
 20
-368.573834
 10
-16.535758
 20
-368.550851
 10
-16.047511
 20
-368.526548
 10
-15.536525
 20
-368.501113
 10
-15.006591
 20
-368.474735
 10
-14.461497
 20
-368.447602
 10
-13.905034
 20
-368.419903
 10
-13.340992
 20
-368.391827
 10
-12.77316
 20
-368.363563
 10
-12.205327
 20
-368.335298
 10
-11.641285
 20
-368.307222
 10
-11.084822
 20
-368.279523
 10
-10.539728
 20
-368.25239
 10
-10.009794
 20
-368.226012
 10
-9.498808
 20
-368.200577
 10
-9.010561
 20
-368.176274
 10
-8.548842
 20
-368.153291
 10
-8.117441
 20
-368.131817
 10
-7.720148
 20
-368.112042
 10
-7.359805
 20
-368.094105
 10
-7.035465
 20
-368.07796
 10
-6.745232
 20
-368.063514
 10
-6.487213
 20
-368.05067
 10
-6.259512
 20
-368.039336
 10
-6.060233
 20
-368.029417
 10
-5.887484
 20
-368.020818
 10
-5.739367
 20
-368.013445
 10
-5.613989
 20
-368.007204
 10
-5.509455
 20
-368.002001
 10
-5.42387
 20
-367.997741
 10
-5.355338
 20
-367.99433
 10
-5.301966
 20
-367.991673
 10
-5.261858
 20
-367.989677
 10
-5.233119
 20
-367.988246
 10
-5.213854
 20
-367.987287
 10
-5.202169
 20
-367.986705
 10
-5.196168
 20
-367.986407
 10
-5.193958
 20
-367.986297
 10
-5.193642
 20
-367.986281
 10
-5.166993
 20
-368.991915
 10
-5.162901
 20
-369.150158
 10
-5.159041
 20
-369.32262
 10
-5.156043
 20
-369.508434
 10
-5.154541
 20
-369.706735
 10
-5.155163
 20
-369.916656
 10
-5.158543
 20
-370.137333
 10
-5.165312
 20
-370.367898
 10
-5.1761
 20
-370.607486
 10
-5.19154
 20
-370.85523
 10
-5.212262
 20
-371.110266
 10
-5.238898
 20
-371.371726
 10
-5.27208
 20
-371.638746
 10
-5.312439
 20
-371.910458
 10
-5.360605
 20
-372.185998
 10
-5.417211
 20
-372.464498
 10
-5.482888
 20
-372.745094
 10
-5.558267
 20
-373.026919
 10
-5.64398
 20
-373.309107
 10
-5.740658
 20
-373.590792
 10
-5.848932
 20
-373.871109
 10
-5.969255
 20
-374.149253
 10
-6.10136
 20
-374.42467
 10
-6.244803
 20
-374.696866
 10
-6.399139
 20
-374.965348
 10
-6.563922
 20
-375.229624
 10
-6.738707
 20
-375.4892
 10
-6.92305
 20
-375.743584
 10
-7.116505
 20
-375.992283
 10
-7.318628
 20
-376.234803
 10
-7.528973
 20
-376.470651
 10
-7.747095
 20
-376.699335
 10
-7.972549
 20
-376.920362
 10
-8.20489
 20
-377.133238
 10
-8.443673
 20
-377.337471
 10
-8.688454
 20
-377.532568
 10
-8.938786
 20
-377.718036
 10
-9.194225
 20
-377.893381
 10
-9.454325
 20
-378.058111
 10
-9.718643
 20
-378.211733
 10
-9.986732
 20
-378.353754
 10
-10.258068
 20
-378.483857
 10
-10.531807
 20
-378.602433
 10
-10.807024
 20
-378.710049
 10
-11.082795
 20
-378.807271
 10
-11.358197
 20
-378.894667
 10
-11.632305
 20
-378.972803
 10
-11.904196
 20
-379.042247
 10
-12.172944
 20
-379.103565
 10
-12.437627
 20
-379.157325
 10
-12.697319
 20
-379.204092
 10
-12.951098
 20
-379.244435
 10
-13.198039
 20
-379.278919
 10
-13.437217
 20
-379.308113
 10
-13.66771
 20
-379.332582
 10
-13.888592
 20
-379.352894
 10
-14.098939
 20
-379.369616
 10
-14.297829
 20
-379.383314
 10
-14.484336
 20
-379.394556
 10
-14.657536
 20
-379.403908
 10
-15.826815
 20
-379.462319
 10
-15.827485
 20
-379.462353
 10
-15.832169
 20
-379.462586
 10
-15.844884
 20
-379.463219
 10
-15.869645
 20
-379.464452
 10
-15.910467
 20
-379.466484
 10
-15.971365
 20
-379.469516
 10
-16.056356
 20
-379.473748
 10
-16.169453
 20
-379.479379
 10
-16.314672
 20
-379.486609
 10
-16.496029
 20
-379.495638
 10
-16.717538
 20
-379.506667
 10
-16.983216
 20
-379.519895
 10
-17.297077
 20
-379.535521
 10
-17.663136
 20
-379.553747
 10
-18.08541
 20
-379.574771
 10
-18.567912
 20
-379.598794
 10
-19.114659
 20
-379.626016
 10
-19.729666
 20
-379.656636
 10
-20.416948
 20
-379.690854
 10
-21.18052
 20
-379.728871
 10
-22.02239
 20
-379.770786
 10
-22.936535
 20
-379.8163
 10
-23.914925
 20
-379.865012
 10
-24.949528
 20
-379.916524
 10
-26.032315
 20
-379.970434
 10
-27.155255
 20
-380.026343
 10
-28.310317
 20
-380.083851
 10
-29.48947
 20
-380.142559
 10
-30.684685
 20
-380.202067
 10
-31.88793
 20
-380.261974
 10
-33.091175
 20
-380.321882
 10
-34.28639
 20
-380.38139
 10
-35.465543
 20
-380.440098
 10
-36.620605
 20
-380.497606
 10
-37.743545
 20
-380.553515
 10
-38.826331
 20
-380.607425
 10
-39.860935
 20
-380.658937
 10
-40.839324
 20
-380.707649
 10
-41.753469
 20
-380.753163
 10
-42.59534
 20
-380.795078
 10
-43.358912
 20
-380.833095
 10
-44.046194
 20
-380.867313
 10
-44.6612
 20
-380.897933
 10
-45.207947
 20
-380.925155
 10
-45.69045
 20
-380.949178
 10
-46.112724
 20
-380.970202
 10
-46.478783
 20
-380.988428
 10
-46.792644
 20
-381.004054
 10
-47.058322
 20
-381.017282
 10
-47.279831
 20
-381.028311
 10
-47.461188
 20
-381.03734
 10
-47.606407
 20
-381.04457
 10
-47.719504
 20
-381.050201
 10
-47.804494
 20
-381.054433
 10
-47.865393
 20
-381.057465
 10
-47.906215
 20
-381.059497
 10
-47.930976
 20
-381.06073
 10
-47.943691
 20
-381.061363
 10
-47.948375
 20
-381.061596
 10
-47.949044
 20
-381.06163
 10
-48.973931
 20
-381.112606
 10
-49.135205
 20
-381.120522
 10
-49.310974
 20
-381.128529
 10
-49.500363
 20
-381.135953
 10
-49.702493
 20
-381.14212
 10
-49.916488
 20
-381.146355
 10
-50.14147
 20
-381.147985
 10
-50.376563
 20
-381.146336
 10
-50.620889
 20
-381.140734
 10
-50.87357
 20
-381.130505
 10
-51.13373
 20
-381.114975
 10
-51.400492
 20
-381.09347
 10
-51.672978
 20
-381.065315
 10
-51.950312
 20
-381.029838
 10
-52.231615
 20
-380.986364
 10
-52.516011
 20
-380.934219
 10
-52.802623
 20
-380.87273
 10
-53.090574
 20
-380.801221
 10
-53.378986
 20
-380.71902
 10
-53.666981
 20
-380.625452
 10
-53.953684
 20
-380.519843
 10
-54.238278
 20
-380.401709
 10
-54.520187
 20
-380.271325
 10
-54.7989
 20
-380.129156
 10
-55.073903
 20
-379.975665
 10
-55.344682
 20
-379.811318
 10
-55.610724
 20
-379.636579
 10
-55.871516
 20
-379.451912
 10
-56.126545
 20
-379.257783
 10
-56.375296
 20
-379.054655
 10
-56.617258
 20
-378.842993
 10
-56.851916
 20
-378.623262
 10
-57.078757
 20
-378.395926
 10
-57.297268
 20
-378.16145
 10
-57.506935
 20
-377.920298
 10
-57.707245
 20
-377.672935
 10
-57.897686
 20
-377.419825
 10
-58.077742
 20
-377.161433
 10
-58.246902
 20
-376.898224
 10
-58.404652
 20
-376.630661
 10
-58.550478
 20
-376.35921
 10
-58.68405
 20
-376.084414
 10
-58.805769
 20
-375.807134
 10
-58.916218
 20
-375.528309
 10
-59.015981
 20
-375.248881
 10
-59.105641
 20
-374.969788
 10
-59.185782
 20
-374.69197
 10
-59.256987
 20
-374.416368
 10
-59.31984
 20
-374.143921
 10
-59.374924
 20
-373.87557
 10
-59.422823
 20
-373.612253
 10
-59.464121
 20
-373.354912
 10
-59.499401
 20
-373.104485
 10
-59.529246
 20
-372.861913
 10
-59.55424
 20
-372.628136
 10
-59.574967
 20
-372.404094
 10
-59.59201
 20
-372.190726
 10
-59.605953
 20
-371.988973
 10
-59.617379
 20
-371.799773
 10
-59.626871
 20
-371.624069
 10
-59.686096
 20
-370.437862
  0
LWPOLYLINE
  5
39
330
1F
100
AcDbEntity
  8
0
100
AcDbPolyline
 90
       13
 70
   128
 43
0.0
 10
112.104589
 20
-556.963529
 10
112.100338
 20
-557.039657
 10
112.095717
 20
-557.03962
 10
112.095056
 20
-557.039615
 10
112.095058
 20
-557.039406
 10
112.09507
 20
-557.037943
 10
112.095102
 20
-557.033973
 10
112.095165
 20
-557.026242
 10
112.095269
 20
-557.013497
 10
112.095424
 20
-556.994484
 10
112.095639
 20
-556.967948
 10
112.095927
 20
-556.932638
 10
112.104589
 20
-556.963529
  0
ENDSEC
  0
SECTION
  2
OBJECTS
  0
DICTIONARY
  5
C
330
0
100
AcDbDictionary
281
     1
  3
ACAD_GROUP
350
D
  3
ACAD_LAYOUT
350
1A
  3
ACAD_MLINESTYLE
350
17
  3
ACAD_PLOTSETTINGS
350
19
  3
ACAD_PLOTSTYLENAME
350
E
  0
DICTIONARY
  5
D
102
{ACAD_REACTORS
330
C
102
}
330
C
100
AcDbDictionary
281
     1
  0
DICTIONARY
  5
1A
102
{ACAD_REACTORS
330
C
102
}
330
C
100
AcDbDictionary
281
     1
  3
Layout1
350
1E
  3
Layout2
350
26
  3
Model
350
22
  0
DICTIONARY
  5
17
102
{ACAD_REACTORS
330
C
102
}
330
C
100
AcDbDictionary
281
     1
  3
Standard
350
18
  0
DICTIONARY
  5
19
102
{ACAD_REACTORS
330
C
102
}
330
C
100
AcDbDictionary
281
     1
  0
ACDBDICTIONARYWDFLT
  5
E
102
{ACAD_REACTORS
330
C
102
}
330
C
100
AcDbDictionary
281
     1
  3
Normal
350
F
100
AcDbDictionaryWithDefault
340
F
  0
LAYOUT
  5
1E
102
{ACAD_REACTORS
330
1A
102
}
330
1A
100
AcDbPlotSettings
  1

  2

  4

  6

 40
0.0
 41
0.0
 42
0.0
 43
0.0
 44
0.0
 45
0.0
 46
0.0
 47
0.0
 48
0.0
 49
0.0
140
0.0
141
0.0
142
1.0
143
1.0
 70
   688
 72
     0
 73
     0
 74
     5
  7

 75
    16
147
1.0
148
0.0
149
0.0
100
AcDbLayout
  1
Layout1
 70
     1
 71
     1
 10
0.0
 20
0.0
 11
420.0
 21
297.0
 12
0.0
 22
0.0
 32
0.0
 14
1.000000E+20
 24
1.000000E+20
 34
1.000000E+20
 15
-1.000000E+20
 25
-1.000000E+20
 35
-1.000000E+20
146
0.0
 13
0.0
 23
0.0
 33
0.0
 16
1.0
 26
0.0
 36
0.0
 17
0.0
 27
1.0
 37
0.0
 76
     0
330
1B
  0
LAYOUT
  5
26
102
{ACAD_REACTORS
330
1A
102
}
330
1A
100
AcDbPlotSettings
  1

  2

  4

  6

 40
0.0
 41
0.0
 42
0.0
 43
0.0
 44
0.0
 45
0.0
 46
0.0
 47
0.0
 48
0.0
 49
0.0
140
0.0
141
0.0
142
1.0
143
1.0
 70
   688
 72
     0
 73
     0
 74
     5
  7

 75
    16
147
1.0
148
0.0
149
0.0
100
AcDbLayout
  1
Layout2
 70
     1
 71
     2
 10
0.0
 20
0.0
 11
0.0
 21
0.0
 12
0.0
 22
0.0
 32
0.0
 14
0.0
 24
0.0
 34
0.0
 15
0.0
 25
0.0
 35
0.0
146
0.0
 13
0.0
 23
0.0
 33
0.0
 16
1.0
 26
0.0
 36
0.0
 17
0.0
 27
1.0
 37
0.0
 76
     0
330
23
  0
LAYOUT
  5
22
102
{ACAD_REACTORS
330
1A
102
}
330
1A
100
AcDbPlotSettings
  1

  2

  4

  6

 40
0.0
 41
0.0
 42
0.0
 43
0.0
 44
0.0
 45
0.0
 46
0.0
 47
0.0
 48
0.0
 49
0.0
140
0.0
141
0.0
142
1.0
143
1.0
 70
  1712
 72
     0
 73
     0
 74
     0
  7

 75
     0
147
1.0
148
0.0
149
0.0
100
AcDbLayout
  1
Model
 70
     1
 71
     0
 10
0.0
 20
0.0
 11
0.0
 21
0.0
 12
0.0
 22
0.0
 32
0.0
 14
0.0
 24
0.0
 34
0.0
 15
0.0
 25
0.0
 35
0.0
146
0.0
 13
0.0
 23
0.0
 33
0.0
 16
1.0
 26
0.0
 36
0.0
 17
0.0
 27
1.0
 37
0.0
 76
     0
330
1F
  0
MLINESTYLE
  5
18
102
{ACAD_REACTORS
330
17
102
}
330
17
100
AcDbMlineStyle
  2
Standard
 70
     0
  3

 62
   256
 51
90.0
 52
90.0
 71
     2
 49
1.0
 62
   256
  6
BYLAYER
 49
-1.0
 62
   256
  6
BYLAYER
  0
ACDBPLACEHOLDER
  5
F
102
{ACAD_REACTORS
330
E
102
}
330
E
  0
ENDSEC
  0
EOF
