  0
SECTION
  2
HEADER
  9
$ACADVER
  1
AC1015
  9
$ACADMAINTVER
 70
     6
  9
$DWGCODEPAGE
  3
ANSI_1252
  9
$INSBASE
 10
0.0
 20
0.0
 30
0.0
  9
$EXTMIN
 10
1.000000E+20
 20
1.000000E+20
 30
1.000000E+20
  9
$EXTMAX
 10
-1.000000E+20
 20
-1.000000E+20
 30
-1.000000E+20
  9
$LIMMIN
 10
0.0
 20
0.0
  9
$LIMMAX
 10
420.0
 20
297.0
  9
$ORTHOMODE
 70
     0
  9
$REGENMODE
 70
     1
  9
$FILLMODE
 70
     1
  9
$QTEXTMODE
 70
     0
  9
$MIRRTEXT
 70
     1
  9
$LTSCALE
 40
1.0
  9
$ATTMODE
 70
     1
  9
$TEXTSIZE
 40
2.5
  9
$TRACEWID
 40
1.0
  9
$TEXTSTYLE
  7
Standard
  9
$CLAYER
  8
0
  9
$CELTYPE
  6
ByLayer
  9
$CECOLOR
 62
   256
  9
$CELTSCALE
 40
1.0
  9
$DISPSILH
 70
     0
  9
$DIMSCALE
 40
1.0
  9
$DIMASZ
 40
2.5
  9
$DIMEXO
 40
0.625
  9
$DIMDLI
 40
3.75
  9
$DIMRND
 40
0.0
  9
$DIMDLE
 40
0.0
  9
$DIMEXE
 40
1.25
  9
$DIMTP
 40
0.0
  9
$DIMTM
 40
0.0
  9
$DIMTXT
 40
2.5
  9
$DIMCEN
 40
2.5
  9
$DIMTSZ
 40
0.0
  9
$DIMTOL
 70
     0
  9
$DIMLIM
 70
     0
  9
$DIMTIH
 70
     0
  9
$DIMTOH
 70
     0
  9
$DIMSE1
 70
     0
  9
$DIMSE2
 70
     0
  9
$DIMTAD
 70
     1
  9
$DIMZIN
 70
     8
  9
$DIMBLK
  1

  9
$DIMASO
 70
     1
  9
$DIMSHO
 70
     1
  9
$DIMPOST
  1

  9
$DIMAPOST
  1

  9
$DIMALT
 70
     0
  9
$DIMALTD
 70
     3
  9
$DIMALTF
 40
0.03937
  9
$DIMLFAC
 40
1.0
  9
$DIMTOFL
 70
     1
  9
$DIMTVP
 40
0.0
  9
$DIMTIX
 70
     0
  9
$DIMSOXD
 70
     0
  9
$DIMSAH
 70
     0
  9
$DIMBLK1
  1

  9
$DIMBLK2
  1

  9
$DIMSTYLE
  2
ISO-25
  9
$DIMCLRD
 70
     0
  9
$DIMCLRE
 70
     0
  9
$DIMCLRT
 70
     0
  9
$DIMTFAC
 40
1.0
  9
$DIMGAP
 40
0.625
  9
$DIMJUST
 70
     0
  9
$DIMSD1
 70
     0
  9
$DIMSD2
 70
     0
  9
$DIMTOLJ
 70
     0
  9
$DIMTZIN
 70
     8
  9
$DIMALTZ
 70
     0
  9
$DIMALTTZ
 70
     0
  9
$DIMUPT
 70
     0
  9
$DIMDEC
 70
     2
  9
$DIMTDEC
 70
     2
  9
$DIMALTU
 70
     2
  9
$DIMALTTD
 70
     3
  9
$DIMTXSTY
  7
Standard
  9
$DIMAUNIT
 70
     0
  9
$DIMADEC
 70
     0
  9
$DIMALTRND
 40
0.0
  9
$DIMAZIN
 70
     0
  9
$DIMDSEP
 70
    44
  9
$DIMATFIT
 70
     3
  9
$DIMFRAC
 70
     0
  9
$DIMLDRBLK
  1

  9
$DIMLUNIT
 70
     2
  9
$DIMLWD
 70
    -2
  9
$DIMLWE
 70
    -2
  9
$DIMTMOVE
 70
     0
  9
$LUNITS
 70
     2
  9
$LUPREC
 70
     4
  9
$SKETCHINC
 40
1.0
  9
$FILLETRAD
 40
10.0
  9
$AUNITS
 70
     0
  9
$AUPREC
 70
     0
  9
$MENU
  1
.
  9
$ELEVATION
 40
0.0
  9
$PELEVATION
 40
0.0
  9
$THICKNESS
 40
0.0
  9
$LIMCHECK
 70
     0
  9
$CHAMFERA
 40
10.0
  9
$CHAMFERB
 40
10.0
  9
$CHAMFERC
 40
20.0
  9
$CHAMFERD
 40
0.0
  9
$SKPOLY
 70
     0
  9
$TDCREATE
 40
2455270.093658669
  9
$TDUCREATE
 40
2455269.551992002
  9
$TDUPDATE
 40
2455270.093658681
  9
$TDUUPDATE
 40
2455269.551992014
  9
$TDINDWG
 40
0.0000000116
  9
$TDUSRTIMER
 40
0.0000000116
  9
$USRTIMER
 70
     1
  9
$ANGBASE
 50
0.0
  9
$ANGDIR
 70
     0
  9
$PDMODE
 70
     3
  9
$PDSIZE
 40
-0.7
  9
$PLINEWID
 40
0.0
  9
$SPLFRAME
 70
     0
  9
$SPLINETYPE
 70
     6
  9
$SPLINESEGS
 70
     8
  9
$HANDSEED
  5
4E
  9
$SURFTAB1
 70
     6
  9
$SURFTAB2
 70
     6
  9
$SURFTYPE
 70
     6
  9
$SURFU
 70
     6
  9
$SURFV
 70
     6
  9
$UCSBASE
  2

  9
$UCSNAME
  2

  9
$UCSORG
 10
0.0
 20
0.0
 30
0.0
  9
$UCSXDIR
 10
1.0
 20
0.0
 30
0.0
  9
$UCSYDIR
 10
0.0
 20
1.0
 30
0.0
  9
$UCSORTHOREF
  2

  9
$UCSORTHOVIEW
 70
     0
  9
$UCSORGTOP
 10
0.0
 20
0.0
 30
0.0
  9
$UCSORGBOTTOM
 10
0.0
 20
0.0
 30
0.0
  9
$UCSORGLEFT
 10
0.0
 20
0.0
 30
0.0
  9
$UCSORGRIGHT
 10
0.0
 20
0.0
 30
0.0
  9
$UCSORGFRONT
 10
0.0
 20
0.0
 30
0.0
  9
$UCSORGBACK
 10
0.0
 20
0.0
 30
0.0
  9
$PUCSBASE
  2

  9
$PUCSNAME
  2

  9
$PUCSORG
 10
0.0
 20
0.0
 30
0.0
  9
$PUCSXDIR
 10
1.0
 20
0.0
 30
0.0
  9
$PUCSYDIR
 10
0.0
 20
1.0
 30
0.0
  9
$PUCSORTHOREF
  2

  9
$PUCSORTHOVIEW
 70
     0
  9
$PUCSORGTOP
 10
0.0
 20
0.0
 30
0.0
  9
$PUCSORGBOTTOM
 10
0.0
 20
0.0
 30
0.0
  9
$PUCSORGLEFT
 10
0.0
 20
0.0
 30
0.0
  9
$PUCSORGRIGHT
 10
0.0
 20
0.0
 30
0.0
  9
$PUCSORGFRONT
 10
0.0
 20
0.0
 30
0.0
  9
$PUCSORGBACK
 10
0.0
 20
0.0
 30
0.0
  9
$USERI1
 70
     0
  9
$USERI2
 70
     0
  9
$USERI3
 70
     0
  9
$USERI4
 70
     0
  9
$USERI5
 70
     0
  9
$USERR1
 40
0.0
  9
$USERR2
 40
0.0
  9
$USERR3
 40
0.0
  9
$USERR4
 40
0.0
  9
$USERR5
 40
0.0
  9
$WORLDVIEW
 70
     1
  9
$SHADEDGE
 70
     3
  9
$SHADEDIF
 70
    70
  9
$TILEMODE
 70
     1
  9
$MAXACTVP
 70
    64
  9
$PINSBASE
 10
0.0
 20
0.0
 30
0.0
  9
$PLIMCHECK
 70
     0
  9
$PEXTMIN
 10
1.000000E+20
 20
1.000000E+20
 30
1.000000E+20
  9
$PEXTMAX
 10
-1.000000E+20
 20
-1.000000E+20
 30
-1.000000E+20
  9
$PLIMMIN
 10
0.0
 20
0.0
  9
$PLIMMAX
 10
420.0
 20
297.0
  9
$UNITMODE
 70
     0
  9
$VISRETAIN
 70
     1
  9
$PLINEGEN
 70
     0
  9
$PSLTSCALE
 70
     1
  9
$TREEDEPTH
 70
  3020
  9
$CMLSTYLE
  2
Standard
  9
$CMLJUST
 70
     1
  9
$CMLSCALE
 40
1.0
  9
$PROXYGRAPHICS
 70
     1
  9
$MEASUREMENT
 70
     1
  9
$CELWEIGHT
370
    -1
  9
$ENDCAPS
280
     0
  9
$JOINSTYLE
280
     0
  9
$LWDISPLAY
290
     0
  9
$INSUNITS
 70
     4
  9
$HYPERLINKBASE
  1

  9
$STYLESHEET
  1

  9
$XEDIT
290
     1
  9
$CEPSNTYPE
380
     0
  9
$PSTYLEMODE
290
     1
  9
$FINGERPRINTGUID
  2
{FAEB1C30-E019-11D5-929B-00C0DF256EC4}
  9
$VERSIONGUID
  2
{FAEB1C32-E019-11D5-929B-00C0DF256EC4}
  9
$EXTNAMES
290
     1
  9
$PSVPSCALE
 40
0.0
  9
$OLESTARTUP
290
     0
  0
ENDSEC
  0
SECTION
  2
CLASSES
  0
CLASS
  1
ACDBDICTIONARYWDFLT
  2
AcDbDictionaryWithDefault
  3
ObjectDBX Classes
 90
        0
280
     0
281
     0
  0
CLASS
  1
ACDBPLACEHOLDER
  2
AcDbPlaceHolder
  3
ObjectDBX Classes
 90
        0
280
     0
281
     0
  0
CLASS
  1
LAYOUT
  2
AcDbLayout
  3
ObjectDBX Classes
 90
        0
280
     0
281
     0
  0
ENDSEC
  0
SECTION
  2
TABLES
  0
TABLE
  2
VPORT
  5
8
330
0
100
AcDbSymbolTable
 70
     2
  0
VPORT
  5
29
330
8
100
AcDbSymbolTableRecord
100
AcDbViewportTableRecord
  2
*Active
 70
     0
 10
0.0
 20
0.0
 11
1.0
 21
1.0
 12
50.0
 22
50.0
 13
0.0
 23
0.0
 14
10.0
 24
10.0
 15
10.0
 25
10.0
 16
0.0
 26
0.0
 36
1.0
 17
0.0
 27
0.0
 37
0.0
 40
103.921569
 41
1.0
 42
50.0
 43
0.0
 44
0.0
 50
0.0
 51
0.0
 71
     0
 72
   100
 73
     1
 74
     3
 75
     0
 76
     0
 77
     0
 78
     0
281
     0
 65
     1
110
0.0
120
0.0
130
0.0
111
1.0
121
0.0
131
0.0
112
0.0
122
1.0
132
0.0
 79
     0
146
0.0
  0
ENDTAB
  0
TABLE
  2
LTYPE
  5
5
330
0
100
AcDbSymbolTable
 70
     1
  0
LTYPE
  5
14
330
5
100
AcDbSymbolTableRecord
100
AcDbLinetypeTableRecord
  2
ByBlock
 70
     0
  3

 72
    65
 73
     0
 40
0.0
  0
LTYPE
  5
15
330
5
100
AcDbSymbolTableRecord
100
AcDbLinetypeTableRecord
  2
ByLayer
 70
     0
  3

 72
    65
 73
     0
 40
0.0
  0
LTYPE
  5
16
330
5
100
AcDbSymbolTableRecord
100
AcDbLinetypeTableRecord
  2
Continuous
 70
     0
  3

 72
    65
 73
     0
 40
0.0
  0
ENDTAB
  0
TABLE
  2
LAYER
  5
2
330
0
100
AcDbSymbolTable
 70
     1
  0
LAYER
  5
10
330
2
100
AcDbSymbolTableRecord
100
AcDbLayerTableRecord
  2
0
 70
     0
 62
     7
  6
Continuous
370
    -3
390
F
  0
ENDTAB
  0
TABLE
  2
STYLE
  5
3
330
0
100
AcDbSymbolTable
 70
     1
  0
STYLE
  5
11
330
3
100
AcDbSymbolTableRecord
100
AcDbTextStyleTableRecord
  2
Standard
 70
     0
 40
1.0
 41
1.0
 50
0.0
 71
     0
 42
2.5
  3
RomanS
  4

  0
ENDTAB
  0
TABLE
  2
VIEW
  5
6
330
0
100
AcDbSymbolTable
 70
     0
  0
ENDTAB
  0
TABLE
  2
UCS
  5
7
330
0
100
AcDbSymbolTable
 70
     0
  0
ENDTAB
  0
TABLE
  2
APPID
  5
9
330
0
100
AcDbSymbolTable
 70
     1
  0
APPID
  5
12
330
9
100
AcDbSymbolTableRecord
100
AcDbRegAppTableRecord
  2
ACAD
 70
     0
  0
ENDTAB
  0
TABLE
  2
DIMSTYLE
  5
A
330
0
100
AcDbSymbolTable
 70
     1
100
AcDbDimStyleTable
  0
DIMSTYLE
105
27
330
A
100
AcDbSymbolTableRecord
100
AcDbDimStyleTableRecord
  2
ISO-25
 70
     0
 41
2.5
 42
0.625
 44
1.25
 73
     0
 74
     0
 77
     1
 78
     8
 79
     2
140
2.5
141
2.5
146
0.0
147
0.625
271
     2
272
     0
273
     0
274
     0
278
    44
283
     0
289
     0
340
11
  0
ENDTAB
  0
TABLE
  2
BLOCK_RECORD
  5
1
330
0
100
AcDbSymbolTable
 70
     1
  0
BLOCK_RECORD
  5
1F
330
1
100
AcDbSymbolTableRecord
100
AcDbBlockTableRecord
  2
*Model_Space
340
22
  0
BLOCK_RECORD
  5
1B
330
1
100
AcDbSymbolTableRecord
100
AcDbBlockTableRecord
  2
*Paper_Space
340
1E
  0
BLOCK_RECORD
  5
23
330
1
100
AcDbSymbolTableRecord
100
AcDbBlockTableRecord
  2
*Paper_Space0
340
26
  0
ENDTAB
  0
ENDSEC
  0
SECTION
  2
BLOCKS
  0
BLOCK
  5
20
330
1F
100
AcDbEntity
  8
0
100
AcDbBlockBegin
  2
*Model_Space
 70
     0
 71
     0
 10
0.0
 20
0.0
 30
0.0
  3
*Model_Space
  1

  0
ENDBLK
  5
21
330
1F
100
AcDbEntity
  8
0
100
AcDbBlockEnd
  0
BLOCK
  5
1C
330
1B
100
AcDbEntity
 67
     1
  8
0
100
AcDbBlockBegin
  2
*Paper_Space
 70
     0
 71
     0
 10
0.0
 20
0.0
 30
0.0
  3
*Paper_Space
  1

  0
ENDBLK
  5
1D
330
1B
100
AcDbEntity
 67
     1
  8
0
100
AcDbBlockEnd
  0
BLOCK
  5
24
330
23
100
AcDbEntity
  8
0
100
AcDbBlockBegin
  2
*Paper_Space0
 70
     0
 71
     0
 10
0.0
 20
0.0
 30
0.0
  3
*Paper_Space0
  1

  0
ENDBLK
  5
25
330
23
100
AcDbEntity
  8
0
100
AcDbBlockEnd
  0
ENDSEC
  0
SECTION
  2
ENTITIES
  0
LWPOLYLINE
  5
2A
330
1F
100
AcDbEntity
  8
0
100
AcDbPolyline
 90
      264
 70
   128
 43
0.0
 10
551.053708
 20
-1178.10138
 10
550.844668
 20
-1177.897082
 10
550.811796
 20
-1177.864914
 10
550.776099
 20
-1177.829737
 10
550.737888
 20
-1177.791605
 10
550.697474
 20
-1177.750574
 10
550.655167
 20
-1177.706698
 10
550.611279
 20
-1177.660034
 10
550.566119
 20
-1177.610635
 10
550.52
 20
-1177.558556
 10
550.473231
 20
-1177.503854
 10
550.426124
 20
-1177.446582
 10
550.378988
 20
-1177.386796
 10
550.332136
 20
-1177.32455
 10
550.285878
 20
-1177.259901
 10
550.240524
 20
-1177.192902
 10
550.196385
 20
-1177.12361
 10
550.153773
 20
-1177.052078
 10
550.112997
 20
-1176.978362
 10
550.074369
 20
-1176.902517
 10
550.038199
 20
-1176.824598
 10
550.004799
 20
-1176.744661
 10
549.974427
 20
-1176.662782
 10
549.947137
 20
-1176.579132
 10
549.922932
 20
-1176.493904
 10
549.901812
 20
-1176.407292
 10
549.88378
 20
-1176.319487
 10
549.868838
 20
-1176.230683
 10
549.856989
 20
-1176.141073
 10
549.848233
 20
-1176.050849
 10
549.842574
 20
-1175.960206
 10
549.840013
 20
-1175.869335
 10
549.840552
 20
-1175.77843
 10
549.844192
 20
-1175.687684
 10
549.850938
 20
-1175.597289
 10
549.860789
 20
-1175.50744
 10
549.873748
 20
-1175.418327
 10
549.889818
 20
-1175.330146
 10
549.909
 20
-1175.243088
 10
549.931296
 20
-1175.157346
 10
549.956708
 20
-1175.073114
 10
549.985239
 20
-1174.990584
 10
550.016838
 20
-1174.909928
 10
550.051247
 20
-1174.83123
 10
550.088159
 20
-1174.75455
 10
550.127263
 20
-1174.679952
 10
550.168251
 20
-1174.607496
 10
550.210812
 20
-1174.537246
 10
550.254639
 20
-1174.469262
 10
550.29942
 20
-1174.403607
 10
550.344849
 20
-1174.340342
 10
550.390614
 20
-1174.279529
 10
550.436407
 20
-1174.221231
 10
550.481918
 20
-1174.165509
 10
550.526839
 20
-1174.112424
 10
550.57086
 20
-1174.06204
 10
550.613672
 20
-1174.014417
 10
550.654965
 20
-1173.969618
 10
550.694431
 20
-1173.927704
 10
550.73176
 20
-1173.888738
 10
550.766642
 20
-1173.852781
 10
551.003079
 20
-1173.61103
 10
551.207439
 20
-1173.402044
 10
551.239617
 20
-1173.369181
 10
551.274805
 20
-1173.333493
 10
551.312947
 20
-1173.295292
 10
551.35399
 20
-1173.254888
 10
551.397878
 20
-1173.212592
 10
551.444555
 20
-1173.168714
 10
551.493966
 20
-1173.123566
 10
551.546057
 20
-1173.077457
 10
551.600772
 20
-1173.030699
 10
551.658056
 20
-1172.983602
 10
551.717853
 20
-1172.936477
 10
551.780109
 20
-1172.889634
 10
551.844769
 20
-1172.843385
 10
551.911776
 20
-1172.798039
 10
551.981077
 20
-1172.753907
 10
552.052616
 20
-1172.711301
 10
552.126337
 20
-1172.67053
 10
552.202186
 20
-1172.631906
 10
552.280108
 20
-1172.595739
 10
552.360047
 20
-1172.562339
 10
552.441924
 20
-1172.531967
 10
552.525572
 20
-1172.504674
 10
552.610795
 20
-1172.480465
 10
552.697403
 20
-1172.45934
 10
552.785202
 20
-1172.441303
 10
552.873998
 20
-1172.426354
 10
552.963601
 20
-1172.414497
 10
553.053816
 20
-1172.405733
 10
553.144451
 20
-1172.400065
 10
553.235313
 20
-1172.397494
 10
553.32621
 20
-1172.398024
 10
553.416949
 20
-1172.401655
 10
553.507336
 20
-1172.408391
 10
553.59718
 20
-1172.418233
 10
553.686286
 20
-1172.431183
 10
553.774464
 20
-1172.447244
 10
553.86152
 20
-1172.466418
 10
553.94726
 20
-1172.488707
 10
554.031493
 20
-1172.514113
 10
554.114026
 20
-1172.542639
 10
554.194687
 20
-1172.574233
 10
554.273393
 20
-1172.60864
 10
554.350082
 20
-1172.64555
 10
554.424691
 20
-1172.684653
 10
554.497159
 20
-1172.725641
 10
554.567423
 20
-1172.768203
 10
554.635422
 20
-1172.81203
 10
554.701094
 20
-1172.856814
 10
554.764375
 20
-1172.902245
 10
554.825205
 20
-1172.948013
 10
554.883522
 20
-1172.993809
 10
554.939262
 20
-1173.039325
 10
554.992365
 20
-1173.08425
 10
555.042768
 20
-1173.128275
 10
555.090408
 20
-1173.171091
 10
555.135225
 20
-1173.212388
 10
555.177156
 20
-1173.251858
 10
555.216138
 20
-1173.289191
 10
555.252111
 20
-1173.324078
 10
555.285011
 20
-1173.356209
 10
555.314839
 20
-1173.385377
 10
555.341846
 20
-1173.411787
 10
555.366346
 20
-1173.435745
 10
555.388652
 20
-1173.457558
 10
555.409077
 20
-1173.477532
 10
555.427936
 20
-1173.495973
 10
555.44554
 20
-1173.513188
 10
555.462204
 20
-1173.529483
 10
555.478241
 20
-1173.545166
 10
555.493965
 20
-1173.560542
 10
555.509689
 20
-1173.575918
 10
555.525726
 20
-1173.5916
 10
555.542391
 20
-1173.607896
 10
555.559995
 20
-1173.625111
 10
555.578853
 20
-1173.643552
 10
555.599278
 20
-1173.663526
 10
555.621584
 20
-1173.685338
 10
555.646084
 20
-1173.709296
 10
555.673092
 20
-1173.735706
 10
555.70292
 20
-1173.764875
 10
555.735779
 20
-1173.797048
 10
555.771461
 20
-1173.832231
 10
555.809656
 20
-1173.870369
 10
555.850054
 20
-1173.911407
 10
555.892344
 20
-1173.955289
 10
555.936215
 20
-1174.00196
 10
555.981357
 20
-1174.051366
 10
556.027458
 20
-1174.10345
 10
556.07421
 20
-1174.158159
 10
556.1213
 20
-1174.215437
 10
556.168418
 20
-1174.275228
 10
556.215254
 20
-1174.337478
 10
556.261496
 20
-1174.402131
 10
556.306836
 20
-1174.469133
 10
556.350961
 20
-1174.538428
 10
556.393561
 20
-1174.609962
 10
556.434325
 20
-1174.683678
 10
556.472944
 20
-1174.759522
 10
556.509106
 20
-1174.837439
 10
556.542501
 20
-1174.917373
 10
556.572869
 20
-1174.999247
 10
556.600157
 20
-1175.082891
 10
556.624363
 20
-1175.168111
 10
556.645484
 20
-1175.254716
 10
556.663519
 20
-1175.342513
 10
556.678464
 20
-1175.431308
 10
556.690319
 20
-1175.520909
 10
556.699081
 20
-1175.611123
 10
556.704747
 20
-1175.701758
 10
556.707315
 20
-1175.79262
 10
556.706783
 20
-1175.883517
 10
556.70315
 20
-1175.974256
 10
556.696412
 20
-1176.064645
 10
556.686567
 20
-1176.15449
 10
556.673614
 20
-1176.243599
 10
556.657551
 20
-1176.331779
 10
556.638374
 20
-1176.418838
 10
556.616082
 20
-1176.504582
 10
556.590672
 20
-1176.588819
 10
556.562143
 20
-1176.671356
 10
556.530544
 20
-1176.752022
 10
556.496132
 20
-1176.830733
 10
556.459217
 20
-1176.907428
 10
556.420109
 20
-1176.982043
 10
556.379116
 20
-1177.054517
 10
556.336548
 20
-1177.124788
 10
556.292715
 20
-1177.192794
 10
556.247925
 20
-1177.258472
 10
556.202488
 20
-1177.321761
 10
556.156714
 20
-1177.382598
 10
556.110911
 20
-1177.440921
 10
556.06539
 20
-1177.496669
 10
556.020459
 20
-1177.549778
 10
555.976428
 20
-1177.600188
 10
555.933606
 20
-1177.647835
 10
555.892303
 20
-1177.692658
 10
555.852828
 20
-1177.734594
 10
555.81549
 20
-1177.773583
 10
555.780599
 20
-1177.80956
 10
555.544103
 20
-1178.051451
 10
555.339825
 20
-1178.260343
 10
555.30766
 20
-1178.293192
 10
555.272486
 20
-1178.328864
 10
555.234358
 20
-1178.367048
 10
555.193331
 20
-1178.407434
 10
555.14946
 20
-1178.449711
 10
555.1028
 20
-1178.493568
 10
555.053405
 20
-1178.538696
 10
555.001332
 20
-1178.584784
 10
554.946635
 20
-1178.63152
 10
554.889368
 20
-1178.678595
 10
554.829588
 20
-1178.725698
 10
554.767348
 20
-1178.772519
 10
554.702705
 20
-1178.818747
 10
554.635713
 20
-1178.864071
 10
554.566427
 20
-1178.90818
 10
554.494902
 20
-1178.950765
 10
554.421193
 20
-1178.991515
 10
554.345356
 20
-1179.030119
 10
554.267444
 20
-1179.066267
 10
554.187514
 20
-1179.099648
 10
554.105643
 20
-1179.130003
 10
554.022001
 20
-1179.157279
 10
553.936781
 20
-1179.181473
 10
553.850176
 20
-1179.202583
 10
553.762378
 20
-1179.220607
 10
553.673582
 20
-1179.235542
 10
553.583979
 20
-1179.247388
 10
553.493762
 20
-1179.256141
 10
553.403125
 20
-1179.261799
 10
553.31226
 20
-1179.26436
 10
553.221361
 20
-1179.263823
 10
553.130619
 20
-1179.260184
 10
553.040228
 20
-1179.253442
 10
552.950382
 20
-1179.243595
 10
552.861271
 20
-1179.23064
 10
552.773091
 20
-1179.214575
 10
552.686033
 20
-1179.195398
 10
552.60029
 20
-1179.173107
 10
552.516056
 20
-1179.1477
 10
552.433523
 20
-1179.119174
 10
552.352862
 20
-1179.087579
 10
552.274158
 20
-1179.053174
 10
552.197471
 20
-1179.016266
 10
552.122865
 20
-1178.977165
 10
552.0504
 20
-1178.936181
 10
551.98014
 20
-1178.893622
 10
551.912146
 20
-1178.849799
 10
551.846479
 20
-1178.805019
 10
551.783203
 20
-1178.759593
 10
551.722378
 20
-1178.71383
 10
551.664068
 20
-1178.668039
 10
551.608334
 20
-1178.622529
 10
551.555237
 20
-1178.57761
 10
551.504841
 20
-1178.53359
 10
551.457206
 20
-1178.490779
 10
551.412395
 20
-1178.449487
 10
551.370471
 20
-1178.410022
 10
551.331494
 20
-1178.372694
 10
551.295527
 20
-1178.337812
 10
551.053708
 20
-1178.10138
  0
LWPOLYLINE
  5
2B
330
1F
100
AcDbEntity
  8
0
100
AcDbPolyline
 90
      283
 70
   128
 43
0.0
 10
420.384142
 20
-1140.637422
 10
420.175187
 20
-1140.433089
 10
420.142328
 20
-1140.400916
 10
420.106646
 20
-1140.365733
 10
420.068451
 20
-1140.327595
 10
420.028053
 20
-1140.286558
 10
419.985763
 20
-1140.242676
 10
419.941892
 20
-1140.196004
 10
419.89675
 20
-1140.146599
 10
419.850648
 20
-1140.094514
 10
419.803897
 20
-1140.039805
 10
419.756807
 20
-1139.982528
 10
419.709689
 20
-1139.922736
 10
419.662853
 20
-1139.860486
 10
419.61661
 20
-1139.795833
 10
419.571271
 20
-1139.728831
 10
419.527146
 20
-1139.659536
 10
419.484546
 20
-1139.588003
 10
419.443781
 20
-1139.514286
 10
419.405163
 20
-1139.438442
 10
419.369001
 20
-1139.360526
 10
419.335606
 20
-1139.280591
 10
419.305238
 20
-1139.198717
 10
419.27795
 20
-1139.115074
 10
419.253744
 20
-1139.029853
 10
419.232623
 20
-1138.943248
 10
419.214588
 20
-1138.855452
 10
419.199642
 20
-1138.766657
 10
419.187786
 20
-1138.677057
 10
419.179024
 20
-1138.586843
 10
419.173358
 20
-1138.49621
 10
419.170789
 20
-1138.405348
 10
419.171319
 20
-1138.314452
 10
419.174951
 20
-1138.223715
 10
419.181688
 20
-1138.133328
 10
419.19153
 20
-1138.043485
 10
419.204481
 20
-1137.954378
 10
419.220542
 20
-1137.866201
 10
419.239716
 20
-1137.779145
 10
419.262005
 20
-1137.693405
 10
419.287411
 20
-1137.609172
 10
419.315937
 20
-1137.526639
 10
419.347531
 20
-1137.445978
 10
419.381938
 20
-1137.367272
 10
419.418848
 20
-1137.290583
 10
419.457951
 20
-1137.215974
 10
419.498939
 20
-1137.143506
 10
419.541501
 20
-1137.073242
 10
419.585328
 20
-1137.005243
 10
419.630112
 20
-1136.939571
 10
419.675543
 20
-1136.87629
 10
419.721311
 20
-1136.81546
 10
419.767107
 20
-1136.757143
 10
419.812623
 20
-1136.701403
 10
419.857548
 20
-1136.6483
 10
419.901573
 20
-1136.597897
 10
419.944389
 20
-1136.550257
 10
419.985686
 20
-1136.50544
 10
420.025156
 20
-1136.463509
 10
420.062489
 20
-1136.424527
 10
420.097376
 20
-1136.388554
 10
420.129507
 20
-1136.355654
 10
420.158675
 20
-1136.325826
 10
420.185085
 20
-1136.298819
 10
420.209043
 20
-1136.274319
 10
420.230856
 20
-1136.252013
 10
420.25083
 20
-1136.231588
 10
420.269271
 20
-1136.212729
 10
420.286486
 20
-1136.195125
 10
420.302781
 20
-1136.178461
 10
420.318464
 20
-1136.162424
 10
420.33384
 20
-1136.1467
 10
420.349216
 20
-1136.130976
 10
420.364898
 20
-1136.114939
 10
420.381194
 20
-1136.098274
 10
420.398409
 20
-1136.08067
 10
420.41685
 20
-1136.061812
 10
420.436824
 20
-1136.041387
 10
420.458636
 20
-1136.019081
 10
420.482594
 20
-1135.994581
 10
420.509004
 20
-1135.967573
 10
420.538173
 20
-1135.937745
 10
420.570346
 20
-1135.904886
 10
420.605529
 20
-1135.869204
 10
420.643667
 20
-1135.831009
 10
420.684705
 20
-1135.790611
 10
420.728588
 20
-1135.748322
 10
420.77526
 20
-1135.704452
 10
420.824666
 20
-1135.659311
 10
420.876752
 20
-1135.61321
 10
420.931463
 20
-1135.56646
 10
420.988742
 20
-1135.519372
 10
421.048536
 20
-1135.472256
 10
421.110789
 20
-1135.425423
 10
421.175447
 20
-1135.379184
 10
421.242453
 20
-1135.333848
 10
421.311753
 20
-1135.289727
 10
421.383291
 20
-1135.247132
 10
421.457014
 20
-1135.206373
 10
421.532865
 20
-1135.167761
 10
421.61079
 20
-1135.131606
 10
421.690733
 20
-1135.098219
 10
421.772617
 20
-1135.067859
 10
421.856271
 20
-1135.04058
 10
421.941503
 20
-1135.016384
 10
422.02812
 20
-1134.995273
 10
422.115928
 20
-1134.977249
 10
422.204735
 20
-1134.962314
 10
422.294348
 20
-1134.95047
 10
422.384574
 20
-1134.941718
 10
422.475219
 20
-1134.936062
 10
422.566093
 20
-1134.933504
 10
422.657
 20
-1134.934044
 10
422.747748
 20
-1134.937686
 10
422.838145
 20
-1134.944431
 10
422.927997
 20
-1134.954281
 10
423.017112
 20
-1134.967239
 10
423.105297
 20
-1134.983307
 10
423.192358
 20
-1135.002486
 10
423.278102
 20
-1135.024779
 10
423.362338
 20
-1135.050187
 10
423.444872
 20
-1135.078713
 10
423.525532
 20
-1135.110307
 10
423.604235
 20
-1135.144712
 10
423.68092
 20
-1135.181618
 10
423.755523
 20
-1135.220716
 10
423.827984
 20
-1135.261697
 10
423.898241
 20
-1135.304252
 10
423.96623
 20
-1135.348072
 10
424.031892
 20
-1135.392847
 10
424.095163
 20
-1135.438268
 10
424.155981
 20
-1135.484026
 10
424.214286
 20
-1135.529812
 10
424.270014
 20
-1135.575317
 10
424.323104
 20
-1135.620231
 10
424.373495
 20
-1135.664245
 10
424.421123
 20
-1135.70705
 10
424.465928
 20
-1135.748337
 10
424.507847
 20
-1135.787797
 10
424.546818
 20
-1135.82512
 10
424.58278
 20
-1135.859997
 10
424.824563
 20
-1136.096398
 10
425.033548
 20
-1136.300758
 10
425.066412
 20
-1136.332936
 10
425.102099
 20
-1136.368124
 10
425.1403
 20
-1136.406267
 10
425.180704
 20
-1136.447309
 10
425.223
 20
-1136.491197
 10
425.266878
 20
-1136.537874
 10
425.312026
 20
-1136.587286
 10
425.358135
 20
-1136.639376
 10
425.404893
 20
-1136.694091
 10
425.45199
 20
-1136.751375
 10
425.499115
 20
-1136.811172
 10
425.545958
 20
-1136.873428
 10
425.592208
 20
-1136.938088
 10
425.637553
 20
-1137.005096
 10
425.681685
 20
-1137.074396
 10
425.724291
 20
-1137.145935
 10
425.765062
 20
-1137.219657
 10
425.803686
 20
-1137.295506
 10
425.839854
 20
-1137.373427
 10
425.873253
 20
-1137.453366
 10
425.903626
 20
-1137.535244
 10
425.930918
 20
-1137.618891
 10
425.955127
 20
-1137.704115
 10
425.976252
 20
-1137.790722
 10
425.99429
 20
-1137.878521
 10
426.009238
 20
-1137.967318
 10
426.021095
 20
-1138.05692
 10
426.029859
 20
-1138.147135
 10
426.035527
 20
-1138.23777
 10
426.038098
 20
-1138.328632
 10
426.037569
 20
-1138.419529
 10
426.033937
 20
-1138.510268
 10
426.027202
 20
-1138.600655
 10
426.01736
 20
-1138.690499
 10
426.004409
 20
-1138.779606
 10
425.988348
 20
-1138.867783
 10
425.969174
 20
-1138.954839
 10
425.946885
 20
-1139.040579
 10
425.921479
 20
-1139.124812
 10
425.892954
 20
-1139.207345
 10
425.861359
 20
-1139.288006
 10
425.826952
 20
-1139.366712
 10
425.790042
 20
-1139.443401
 10
425.750939
 20
-1139.51801
 10
425.709952
 20
-1139.590478
 10
425.66739
 20
-1139.660743
 10
425.623562
 20
-1139.728741
 10
425.578778
 20
-1139.794413
 10
425.533348
 20
-1139.857695
 10
425.487579
 20
-1139.918525
 10
425.441783
 20
-1139.976841
 10
425.396268
 20
-1140.032582
 10
425.351343
 20
-1140.085684
 10
425.307318
 20
-1140.136087
 10
425.264502
 20
-1140.183728
 10
425.223204
 20
-1140.228544
 10
425.183734
 20
-1140.270475
 10
425.146401
 20
-1140.309457
 10
425.111514
 20
-1140.34543
 10
425.079384
 20
-1140.37833
 10
425.050215
 20
-1140.408158
 10
425.023805
 20
-1140.435165
 10
424.999847
 20
-1140.459665
 10
424.978034
 20
-1140.481971
 10
424.958061
 20
-1140.502397
 10
424.93962
 20
-1140.521255
 10
424.922405
 20
-1140.538859
 10
424.906109
 20
-1140.555523
 10
424.890427
 20
-1140.571561
 10
424.875051
 20
-1140.587284
 10
424.859674
 20
-1140.603008
 10
424.843992
 20
-1140.619046
 10
424.827696
 20
-1140.63571
 10
424.810481
 20
-1140.653314
 10
424.79204
 20
-1140.672172
 10
424.772067
 20
-1140.692598
 10
424.750254
 20
-1140.714904
 10
424.726296
 20
-1140.739403
 10
424.699886
 20
-1140.766411
 10
424.670717
 20
-1140.796239
 10
424.638544
 20
-1140.829098
 10
424.603361
 20
-1140.86478
 10
424.565223
 20
-1140.902975
 10
424.524186
 20
-1140.943373
 10
424.480304
 20
-1140.985663
 10
424.433632
 20
-1141.029534
 10
424.384227
 20
-1141.074676
 10
424.332142
 20
-1141.120778
 10
424.277433
 20
-1141.167529
 10
424.220156
 20
-1141.214619
 10
424.160364
 20
-1141.261737
 10
424.098114
 20
-1141.308573
 10
424.033461
 20
-1141.354816
 10
423.966459
 20
-1141.400155
 10
423.897164
 20
-1141.44428
 10
423.825631
 20
-1141.48688
 10
423.751915
 20
-1141.527645
 10
423.676071
 20
-1141.566263
 10
423.598154
 20
-1141.602425
 10
423.518219
 20
-1141.63582
 10
423.436345
 20
-1141.666188
 10
423.352702
 20
-1141.693476
 10
423.267481
 20
-1141.717682
 10
423.180876
 20
-1141.738803
 10
423.09308
 20
-1141.756838
 10
423.004285
 20
-1141.771784
 10
422.914684
 20
-1141.783638
 10
422.824469
 20
-1141.7924
 10
422.733835
 20
-1141.798066
 10
422.642973
 20
-1141.800634
 10
422.552075
 20
-1141.800102
 10
422.461336
 20
-1141.796469
 10
422.370947
 20
-1141.789731
 10
422.281102
 20
-1141.779887
 10
422.191993
 20
-1141.766934
 10
422.103813
 20
-1141.75087
 10
422.016754
 20
-1141.731693
 10
421.93101
 20
-1141.709401
 10
421.846773
 20
-1141.683991
 10
421.764236
 20
-1141.655462
 10
421.68357
 20
-1141.623863
 10
421.604859
 20
-1141.589451
 10
421.528165
 20
-1141.552537
 10
421.453549
 20
-1141.513428
 10
421.381075
 20
-1141.472435
 10
421.310804
 20
-1141.429868
 10
421.242798
 20
-1141.386034
 10
421.17712
 20
-1141.341244
 10
421.113832
 20
-1141.295807
 10
421.052994
 20
-1141.250033
 10
420.994671
 20
-1141.204231
 10
420.938924
 20
-1141.158709
 10
420.885814
 20
-1141.113778
 10
420.835405
 20
-1141.069747
 10
420.787758
 20
-1141.026925
 10
420.742935
 20
-1140.985622
 10
420.700998
 20
-1140.946147
 10
420.66201
 20
-1140.908809
 10
420.626032
 20
-1140.873918
 10
420.384142
 20
-1140.637422
  0
LWPOLYLINE
  5
2C
330
1F
100
AcDbEntity
  8
0
100
AcDbPolyline
 90
      245
 70
   128
 43
0.0
 10
432.293748
 20
-1034.208216
 10
432.084793
 20
-1034.003883
 10
432.051934
 20
-1033.97171
 10
432.016252
 20
-1033.936527
 10
431.978057
 20
-1033.898389
 10
431.937659
 20
-1033.857351
 10
431.89537
 20
-1033.813468
 10
431.851499
 20
-1033.766796
 10
431.806359
 20
-1033.71739
 10
431.760258
 20
-1033.665304
 10
431.713508
 20
-1033.610593
 10
431.66642
 20
-1033.553313
 10
431.619304
 20
-1033.49352
 10
431.572471
 20
-1033.431266
 10
431.526231
 20
-1033.366609
 10
431.480896
 20
-1033.299603
 10
431.436775
 20
-1033.230303
 10
431.39418
 20
-1033.158765
 10
431.353421
 20
-1033.085042
 10
431.314809
 20
-1033.009191
 10
431.278654
 20
-1032.931266
 10
431.245267
 20
-1032.851323
 10
431.214907
 20
-1032.769439
 10
431.187628
 20
-1032.685785
 10
431.163432
 20
-1032.600553
 10
431.142321
 20
-1032.513936
 10
431.124297
 20
-1032.426128
 10
431.109362
 20
-1032.33732
 10
431.097519
 20
-1032.247707
 10
431.088768
 20
-1032.15748
 10
431.083113
 20
-1032.066834
 10
431.080555
 20
-1031.975959
 10
431.081096
 20
-1031.885051
 10
431.08474
 20
-1031.794301
 10
431.091486
 20
-1031.703902
 10
431.101339
 20
-1031.614048
 10
431.114299
 20
-1031.524931
 10
431.130369
 20
-1031.436743
 10
431.149551
 20
-1031.349679
 10
431.171846
 20
-1031.263931
 10
431.197258
 20
-1031.179691
 10
431.225788
 20
-1031.097153
 10
431.257387
 20
-1031.016488
 10
431.291796
 20
-1030.93778
 10
431.328707
 20
-1030.861089
 10
431.36781
 20
-1030.78648
 10
431.408797
 20
-1030.714013
 10
431.451358
 20
-1030.64375
 10
431.495183
 20
-1030.575753
 10
431.539964
 20
-1030.510085
 10
431.585391
 20
-1030.446807
 10
431.631156
 20
-1030.385981
 10
431.676948
 20
-1030.32767
 10
431.722459
 20
-1030.271935
 10
431.767379
 20
-1030.218838
 10
431.811399
 20
-1030.168441
 10
431.85421
 20
-1030.120806
 10
431.895502
 20
-1030.075995
 10
431.934967
 20
-1030.03407
 10
431.972295
 20
-1029.995093
 10
432.007177
 20
-1029.959126
 10
432.24361
 20
-1029.717307
 10
432.447943
 20
-1029.508352
 10
432.480116
 20
-1029.475494
 10
432.515299
 20
-1029.439811
 10
432.553437
 20
-1029.401616
 10
432.594474
 20
-1029.361218
 10
432.638356
 20
-1029.318928
 10
432.685028
 20
-1029.275057
 10
432.734433
 20
-1029.229916
 10
432.786518
 20
-1029.183814
 10
432.841227
 20
-1029.137063
 10
432.898504
 20
-1029.089973
 10
432.958296
 20
-1029.042855
 10
433.020546
 20
-1028.996019
 10
433.085199
 20
-1028.949776
 10
433.152201
 20
-1028.904437
 10
433.221496
 20
-1028.860312
 10
433.293029
 20
-1028.817712
 10
433.366746
 20
-1028.776947
 10
433.44259
 20
-1028.738328
 10
433.520506
 20
-1028.702166
 10
433.600441
 20
-1028.668772
 10
433.682315
 20
-1028.638404
 10
433.765958
 20
-1028.611115
 10
433.851179
 20
-1028.58691
 10
433.937784
 20
-1028.565788
 10
434.02558
 20
-1028.547753
 10
434.114375
 20
-1028.532807
 10
434.203975
 20
-1028.520952
 10
434.294189
 20
-1028.51219
 10
434.384823
 20
-1028.506523
 10
434.475684
 20
-1028.503954
 10
434.56658
 20
-1028.504484
 10
434.657317
 20
-1028.508117
 10
434.747704
 20
-1028.514853
 10
434.837547
 20
-1028.524696
 10
434.926654
 20
-1028.537646
 10
435.014831
 20
-1028.553708
 10
435.101887
 20
-1028.572882
 10
435.187627
 20
-1028.595171
 10
435.27186
 20
-1028.620577
 10
435.354393
 20
-1028.649102
 10
435.435054
 20
-1028.680697
 10
435.51376
 20
-1028.715104
 10
435.590449
 20
-1028.752014
 10
435.665058
 20
-1028.791117
 10
435.737526
 20
-1028.832104
 10
435.80779
 20
-1028.874666
 10
435.875789
 20
-1028.918494
 10
435.941461
 20
-1028.963278
 10
436.004742
 20
-1029.008708
 10
436.065572
 20
-1029.054477
 10
436.123889
 20
-1029.100273
 10
436.179629
 20
-1029.145788
 10
436.232732
 20
-1029.190713
 10
436.283135
 20
-1029.234738
 10
436.330775
 20
-1029.277554
 10
436.375592
 20
-1029.318852
 10
436.417523
 20
-1029.358322
 10
436.456505
 20
-1029.395655
 10
436.492478
 20
-1029.430541
 10
436.734332
 20
-1029.667005
 10
436.943318
 20
-1029.871366
 10
436.976181
 20
-1029.903543
 10
437.011869
 20
-1029.938731
 10
437.05007
 20
-1029.976874
 10
437.090474
 20
-1030.017917
 10
437.132769
 20
-1030.061805
 10
437.176646
 20
-1030.108483
 10
437.221794
 20
-1030.157895
 10
437.267901
 20
-1030.209988
 10
437.314658
 20
-1030.264704
 10
437.361753
 20
-1030.32199
 10
437.408876
 20
-1030.38179
 10
437.455716
 20
-1030.444049
 10
437.501962
 20
-1030.508712
 10
437.547304
 20
-1030.575724
 10
437.591432
 20
-1030.64503
 10
437.634033
 20
-1030.716574
 10
437.674798
 20
-1030.790302
 10
437.713416
 20
-1030.866158
 10
437.749577
 20
-1030.944088
 10
437.782968
 20
-1031.024035
 10
437.813332
 20
-1031.105923
 10
437.840615
 20
-1031.189581
 10
437.864815
 20
-1031.274815
 10
437.885929
 20
-1031.361435
 10
437.903956
 20
-1031.449245
 10
437.918894
 20
-1031.538055
 10
437.93074
 20
-1031.627669
 10
437.939493
 20
-1031.717897
 10
437.945151
 20
-1031.808544
 10
437.947711
 20
-1031.899418
 10
437.947171
 20
-1031.990327
 10
437.943531
 20
-1032.081076
 10
437.936786
 20
-1032.171473
 10
437.926936
 20
-1032.261326
 10
437.913978
 20
-1032.350441
 10
437.897911
 20
-1032.438626
 10
437.878732
 20
-1032.525687
 10
437.85644
 20
-1032.611432
 10
437.831031
 20
-1032.695667
 10
437.802505
 20
-1032.778201
 10
437.770911
 20
-1032.858861
 10
437.736507
 20
-1032.937564
 10
437.699601
 20
-1033.014249
 10
437.660502
 20
-1033.088852
 10
437.619521
 20
-1033.161313
 10
437.576966
 20
-1033.23157
 10
437.533147
 20
-1033.29956
 10
437.488372
 20
-1033.365221
 10
437.44295
 20
-1033.428492
 10
437.397192
 20
-1033.489311
 10
437.351406
 20
-1033.547615
 10
437.305902
 20
-1033.603343
 10
437.260988
 20
-1033.656434
 10
437.216973
 20
-1033.706824
 10
437.174168
 20
-1033.754452
 10
437.132881
 20
-1033.799257
 10
437.093421
 20
-1033.841176
 10
437.056098
 20
-1033.880147
 10
437.021221
 20
-1033.916109
 10
436.78482
 20
-1034.157892
 10
436.580429
 20
-1034.36685
 10
436.548246
 20
-1034.399709
 10
436.513053
 20
-1034.435392
 10
436.474905
 20
-1034.473589
 10
436.433856
 20
-1034.513987
 10
436.389963
 20
-1034.556278
 10
436.343279
 20
-1034.60015
 10
436.293862
 20
-1034.645293
 10
436.241765
 20
-1034.691396
 10
436.187044
 20
-1034.738149
 10
436.129754
 20
-1034.785241
 10
436.069951
 20
-1034.832361
 10
436.00769
 20
-1034.879199
 10
435.943025
 20
-1034.925444
 10
435.876013
 20
-1034.970786
 10
435.806708
 20
-1035.014914
 10
435.735166
 20
-1035.057517
 10
435.661441
 20
-1035.098286
 10
435.58559
 20
-1035.136908
 10
435.507668
 20
-1035.173074
 10
435.427728
 20
-1035.206473
 10
435.345851
 20
-1035.236846
 10
435.262205
 20
-1035.26414
 10
435.176983
 20
-1035.288351
 10
435.090378
 20
-1035.309478
 10
435.002583
 20
-1035.327518
 10
434.91379
 20
-1035.34247
 10
434.824192
 20
-1035.354331
 10
434.733981
 20
-1035.363099
 10
434.64335
 20
-1035.368771
 10
434.552493
 20
-1035.371345
 10
434.461601
 20
-1035.37082
 10
434.370867
 20
-1035.367193
 10
434.280484
 20
-1035.360461
 10
434.190644
 20
-1035.350622
 10
434.101541
 20
-1035.337675
 10
434.013366
 20
-1035.321617
 10
433.926314
 20
-1035.302445
 10
433.840575
 20
-1035.280158
 10
433.756343
 20
-1035.254753
 10
433.673811
 20
-1035.226228
 10
433.59315
 20
-1035.194633
 10
433.514442
 20
-1035.160225
 10
433.437752
 20
-1035.123314
 10
433.363139
 20
-1035.084208
 10
433.290668
 20
-1035.043217
 10
433.220399
 20
-1035.000652
 10
433.152396
 20
-1034.95682
 10
433.086719
 20
-1034.912032
 10
433.023432
 20
-1034.866597
 10
432.962597
 20
-1034.820823
 10
432.904274
 20
-1034.775022
 10
432.848528
 20
-1034.729501
 10
432.795419
 20
-1034.684571
 10
432.74501
 20
-1034.64054
 10
432.697363
 20
-1034.597719
 10
432.65254
 20
-1034.556416
 10
432.610604
 20
-1034.516941
 10
432.571616
 20
-1034.479603
 10
432.535638
 20
-1034.444712
 10
432.293748
 20
-1034.208216
  0
LWPOLYLINE
  5
2D
330
1F
100
AcDbEntity
  8
0
100
AcDbPolyline
 90
      366
 70
   128
 43
0.0
 10
408.190652
 20
-1137.967417
 10
410.900473
 20
-1131.702892
 10
411.326687
 20
-1130.716998
 10
411.790047
 20
-1129.641748
 10
412.287055
 20
-1128.481756
 10
412.814208
 20
-1127.241634
 10
413.368008
 20
-1125.925995
 10
413.944954
 20
-1124.53945
 10
414.541546
 20
-1123.086613
 10
415.154283
 20
-1121.572096
 10
415.779664
 20
-1120.000513
 10
416.414191
 20
-1118.376474
 10
417.054362
 20
-1116.704594
 10
417.696677
 20
-1114.989484
 10
418.337637
 20
-1113.235757
 10
418.973739
 20
-1111.448026
 10
419.601485
 20
-1109.630903
 10
420.217375
 20
-1107.789001
 10
420.817907
 20
-1105.926933
 10
421.399581
 20
-1104.049311
 10
421.958898
 20
-1102.160747
 10
422.492356
 20
-1100.265855
 10
422.997082
 20
-1098.36848
 10
423.472701
 20
-1096.469403
 10
423.919464
 20
-1094.56864
 10
424.337625
 20
-1092.666204
 10
424.727433
 20
-1090.76211
 10
425.089141
 20
-1088.856372
 10
425.423001
 20
-1086.949006
 10
425.729264
 20
-1085.040025
 10
426.008182
 20
-1083.129444
 10
426.260006
 20
-1081.217278
 10
426.484988
 20
-1079.303541
 10
426.683379
 20
-1077.388248
 10
426.855432
 20
-1075.471414
 10
427.001398
 20
-1073.553052
 10
427.121529
 20
-1071.633177
 10
427.216076
 20
-1069.711804
 10
427.28529
 20
-1067.788948
 10
427.329424
 20
-1065.864623
 10
427.34873
 20
-1063.938844
 10
427.343458
 20
-1062.011624
 10
427.31413
 20
-1060.083798
 10
427.262344
 20
-1058.159473
 10
427.189969
 20
-1056.243576
 10
427.098873
 20
-1054.341034
 10
426.990924
 20
-1052.456773
 10
426.867989
 20
-1050.595721
 10
426.731938
 20
-1048.762804
 10
426.584638
 20
-1046.962949
 10
426.427957
 20
-1045.201082
 10
426.263764
 20
-1043.482131
 10
426.093926
 20
-1041.811021
 10
425.920312
 20
-1040.192681
 10
425.744789
 20
-1038.632035
 10
425.569227
 20
-1037.134013
 10
425.395492
 20
-1035.703539
 10
425.225454
 20
-1034.34554
 10
425.060979
 20
-1033.064945
 10
424.903937
 20
-1031.866678
 10
424.756195
 20
-1030.755667
 10
423.750514
 20
-1023.262877
 10
423.564615
 20
-1022.142537
 10
423.535554
 20
-1021.966259
 10
423.505011
 20
-1021.774235
 10
423.474293
 20
-1021.567522
 10
423.444707
 20
-1021.347178
 10
423.41756
 20
-1021.114262
 10
423.394159
 20
-1020.869832
 10
423.37581
 20
-1020.614946
 10
423.363821
 20
-1020.350662
 10
423.359498
 20
-1020.078038
 10
423.364147
 20
-1019.798133
 10
423.379077
 20
-1019.512004
 10
423.405593
 20
-1019.22071
 10
423.445003
 20
-1018.92531
 10
423.498613
 20
-1018.62686
 10
423.567731
 20
-1018.32642
 10
423.653662
 20
-1018.025048
 10
423.757714
 20
-1017.723801
 10
423.881194
 20
-1017.423738
 10
424.025408
 20
-1017.125917
 10
424.191664
 20
-1016.831397
 10
424.380832
 20
-1016.54132
 10
424.592038
 20
-1016.257167
 10
424.823974
 20
-1015.980506
 10
425.07533
 20
-1015.712903
 10
425.344795
 20
-1015.455924
 10
425.631062
 20
-1015.211136
 10
425.93282
 20
-1014.980104
 10
426.24876
 20
-1014.764397
 10
426.577573
 20
-1014.565579
 10
426.917949
 20
-1014.385217
 10
427.268578
 20
-1014.224878
 10
427.628151
 20
-1014.086129
 10
427.995359
 20
-1013.970535
 10
428.368893
 20
-1013.879663
 10
428.747442
 20
-1013.81508
 10
429.129697
 20
-1013.778352
 10
429.514349
 20
-1013.771045
 10
429.900088
 20
-1013.794726
 10
430.285606
 20
-1013.850962
 10
430.669592
 20
-1013.941318
 10
431.050831
 20
-1014.066609
 10
431.428485
 20
-1014.22464
 10
431.80181
 20
-1014.412466
 10
432.170063
 20
-1014.627141
 10
432.5325
 20
-1014.865716
 10
432.888375
 20
-1015.125247
 10
433.236947
 20
-1015.402787
 10
433.57747
 20
-1015.695389
 10
433.909201
 20
-1016.000108
 10
434.231397
 20
-1016.313996
 10
434.543312
 20
-1016.634107
 10
434.844204
 20
-1016.957496
 10
435.133328
 20
-1017.281214
 10
435.409941
 20
-1017.602317
 10
435.673298
 20
-1017.917858
 10
435.922656
 20
-1018.224891
 10
436.157271
 20
-1018.520468
 10
436.376399
 20
-1018.801644
 10
436.579296
 20
-1019.065472
 10
437.946463
 20
-1020.858372
 10
445.709484
 20
-1029.865165
 10
446.931155
 20
-1031.282587
 10
448.263242
 20
-1032.828221
 10
449.699717
 20
-1034.495177
 10
451.23455
 20
-1036.276567
 10
452.861712
 20
-1038.165501
 10
454.575176
 20
-1040.155088
 10
456.36891
 20
-1042.238441
 10
458.236888
 20
-1044.408668
 10
460.173079
 20
-1046.65888
 10
462.171455
 20
-1048.982189
 10
464.225986
 20
-1051.371703
 10
466.330645
 20
-1053.820534
 10
468.479401
 20
-1056.321793
 10
470.666226
 20
-1058.868589
 10
472.885091
 20
-1061.454033
 10
475.129967
 20
-1064.071236
 10
477.394826
 20
-1066.713307
 10
479.673637
 20
-1069.373358
 10
481.960372
 20
-1072.044499
 10
484.249003
 20
-1074.719839
 10
486.534321
 20
-1077.39352
 10
488.814406
 20
-1080.063795
 10
491.088157
 20
-1082.72995
 10
493.354475
 20
-1085.391268
 10
495.61226
 20
-1088.047034
 10
497.860412
 20
-1090.696532
 10
500.097831
 20
-1093.339046
 10
502.323416
 20
-1095.973861
 10
504.53607
 20
-1098.600261
 10
506.734691
 20
-1101.217531
 10
508.918179
 20
-1103.824953
 10
511.085435
 20
-1106.421814
 10
513.235359
 20
-1109.007396
 10
515.366851
 20
-1111.580985
 10
517.478811
 20
-1114.141865
 10
519.57014
 20
-1116.68932
 10
521.639737
 20
-1119.222634
 10
523.686502
 20
-1121.741091
 10
525.709336
 20
-1124.243976
 10
527.70714
 20
-1126.730573
 10
529.678494
 20
-1129.199466
 10
531.620716
 20
-1131.646435
 10
533.530801
 20
-1134.06656
 10
535.405749
 20
-1136.45492
 10
537.242555
 20
-1138.806596
 10
539.038217
 20
-1141.116667
 10
540.789734
 20
-1143.380212
 10
542.494103
 20
-1145.592312
 10
544.148321
 20
-1147.748047
 10
545.749385
 20
-1149.842495
 10
547.294294
 20
-1151.870737
 10
548.780044
 20
-1153.827853
 10
550.203634
 20
-1155.708921
 10
551.56206
 20
-1157.509023
 10
552.852321
 20
-1159.223237
 10
554.071414
 20
-1160.846644
 10
555.216336
 20
-1162.374323
 10
556.284084
 20
-1163.801353
 10
557.271658
 20
-1165.122816
 10
563.921422
 20
-1174.027717
 10
564.637876
 20
-1175.033077
 10
564.750416
 20
-1175.191308
 10
564.871896
 20
-1175.363936
 10
565.00051
 20
-1175.550279
 10
565.134451
 20
-1175.749655
 10
565.271913
 20
-1175.96138
 10
565.411088
 20
-1176.184772
 10
565.55017
 20
-1176.419149
 10
565.687353
 20
-1176.663827
 10
565.820829
 20
-1176.918124
 10
565.948793
 20
-1177.181358
 10
566.069437
 20
-1177.452845
 10
566.180956
 20
-1177.731903
 10
566.281542
 20
-1178.01785
 10
566.369388
 20
-1178.310002
 10
566.442689
 20
-1178.607677
 10
566.499637
 20
-1178.910193
 10
566.538427
 20
-1179.216866
 10
566.55725
 20
-1179.527014
 10
566.554301
 20
-1179.839954
 10
566.527774
 20
-1180.155003
 10
566.476359
 20
-1180.471409
 10
566.40074
 20
-1180.788134
 10
566.302099
 20
-1181.10407
 10
566.181618
 20
-1181.418109
 10
566.040479
 20
-1181.729143
 10
565.879863
 20
-1182.036064
 10
565.700952
 20
-1182.337765
 10
565.504929
 20
-1182.633137
 10
565.292974
 20
-1182.921073
 10
565.06627
 20
-1183.200464
 10
564.825998
 20
-1183.470203
 10
564.573341
 20
-1183.729181
 10
564.30948
 20
-1183.976292
 10
564.035596
 20
-1184.210426
 10
563.752872
 20
-1184.430476
 10
563.462489
 20
-1184.635334
 10
563.16563
 20
-1184.823893
 10
562.863476
 20
-1184.995043
 10
562.557208
 20
-1185.147678
 10
562.248009
 20
-1185.280689
 10
561.937015
 20
-1185.393361
 10
561.625177
 20
-1185.486549
 10
561.313404
 20
-1185.561502
 10
561.002602
 20
-1185.619466
 10
560.693679
 20
-1185.661689
 10
560.38754
 20
-1185.68942
 10
560.085092
 20
-1185.703906
 10
559.787244
 20
-1185.706396
 10
559.494901
 20
-1185.698135
 10
559.20897
 20
-1185.680374
 10
558.930359
 20
-1185.654359
 10
558.659974
 20
-1185.621338
 10
558.398722
 20
-1185.582559
 10
558.14751
 20
-1185.539269
 10
557.907246
 20
-1185.492717
 10
557.678835
 20
-1185.444151
 10
557.463185
 20
-1185.394817
 10
557.261202
 20
-1185.345965
 10
557.073794
 20
-1185.298841
 10
555.809311
 20
-1184.973074
 10
555.806374
 20
-1184.972276
 10
555.785816
 20
-1184.966693
 10
555.730015
 20
-1184.951539
 10
555.62135
 20
-1184.922028
 10
555.442199
 20
-1184.873374
 10
555.174941
 20
-1184.800793
 10
554.801955
 20
-1184.699499
 10
554.305619
 20
-1184.564705
 10
553.668312
 20
-1184.391627
 10
552.872412
 20
-1184.175479
 10
551.900299
 20
-1183.911475
 10
550.73435
 20
-1183.59483
 10
549.356944
 20
-1183.220758
 10
547.75046
 20
-1182.784474
 10
545.897277
 20
-1182.281192
 10
543.779773
 20
-1181.706126
 10
541.380326
 20
-1181.054492
 10
538.681316
 20
-1180.321502
 10
535.66512
 20
-1179.502373
 10
532.314118
 20
-1178.592318
 10
528.619499
 20
-1177.588944
 10
524.607695
 20
-1176.49943
 10
520.313949
 20
-1175.333346
 10
515.773503
 20
-1174.100265
 10
511.0216
 20
-1172.809757
 10
506.093483
 20
-1171.471394
 10
501.024395
 20
-1170.094746
 10
495.849579
 20
-1168.689384
 10
490.604277
 20
-1167.26488
 10
485.323733
 20
-1165.830805
 10
480.043188
 20
-1164.39673
 10
474.797886
 20
-1162.972227
 10
469.62307
 20
-1161.566865
 10
464.553982
 20
-1160.190217
 10
459.625865
 20
-1158.851853
 10
454.873963
 20
-1157.561345
 10
450.333517
 20
-1156.328264
 10
446.03977
 20
-1155.162181
 10
442.027966
 20
-1154.072667
 10
438.333347
 20
-1153.069293
 10
434.982345
 20
-1152.159238
 10
431.966149
 20
-1151.340108
 10
429.267139
 20
-1150.607119
 10
426.867693
 20
-1149.955484
 10
424.750188
 20
-1149.380419
 10
422.897005
 20
-1148.877136
 10
421.290521
 20
-1148.440852
 10
419.913116
 20
-1148.06678
 10
418.747167
 20
-1147.750135
 10
417.775053
 20
-1147.486132
 10
416.979153
 20
-1147.269983
 10
416.341846
 20
-1147.096905
 10
415.84551
 20
-1146.962112
 10
415.472524
 20
-1146.860817
 10
415.205266
 20
-1146.788236
 10
415.026115
 20
-1146.739583
 10
414.91745
 20
-1146.710072
 10
414.861649
 20
-1146.694918
 10
414.841091
 20
-1146.689335
 10
414.838154
 20
-1146.688537
 10
413.826184
 20
-1146.444649
 10
413.667008
 20
-1146.406237
 10
413.493908
 20
-1146.364162
 10
413.30814
 20
-1146.318424
 10
413.11096
 20
-1146.269017
 10
412.903624
 20
-1146.21594
 10
412.687387
 20
-1146.15919
 10
412.463505
 20
-1146.098762
 10
412.233234
 20
-1146.034654
 10
411.99783
 20
-1145.966863
 10
411.758548
 20
-1145.895386
 10
411.516644
 20
-1145.82022
 10
411.273375
 20
-1145.741361
 10
411.029995
 20
-1145.658807
 10
410.787761
 20
-1145.572555
 10
410.547929
 20
-1145.4826
 10
410.311753
 20
-1145.388941
 10
410.080491
 20
-1145.291574
 10
409.855397
 20
-1145.190496
 10
409.637728
 20
-1145.085704
 10
409.428739
 20
-1144.977195
 10
409.22947
 20
-1144.864969
 10
409.040092
 20
-1144.749039
 10
408.860562
 20
-1144.629422
 10
408.690834
 20
-1144.506135
 10
408.530865
 20
-1144.379195
 10
408.38061
 20
-1144.248617
 10
408.240024
 20
-1144.114419
 10
408.109064
 20
-1143.976617
 10
407.987684
 20
-1143.835228
 10
407.875841
 20
-1143.690269
 10
407.77349
 20
-1143.541756
 10
407.680586
 20
-1143.389705
 10
407.597085
 20
-1143.234134
 10
407.522942
 20
-1143.07506
 10
407.458114
 20
-1142.912498
 10
407.402556
 20
-1142.746465
 10
407.356223
 20
-1142.576979
 10
407.319071
 20
-1142.404055
 10
407.291056
 20
-1142.227711
 10
407.272133
 20
-1142.047962
 10
407.262157
 20
-1141.864942
 10
407.260587
 20
-1141.679241
 10
407.26678
 20
-1141.491569
 10
407.280092
 20
-1141.302632
 10
407.299881
 20
-1141.113139
 10
407.325506
 20
-1140.923796
 10
407.356322
 20
-1140.735313
 10
407.391688
 20
-1140.548395
 10
407.430961
 20
-1140.363751
 10
407.473498
 20
-1140.18209
 10
407.518657
 20
-1140.004117
 10
407.565795
 20
-1139.830541
 10
407.614269
 20
-1139.66207
 10
407.663438
 20
-1139.499411
 10
407.712657
 20
-1139.343272
 10
407.761286
 20
-1139.194361
 10
407.808681
 20
-1139.053385
 10
407.854199
 20
-1138.921052
 10
407.897198
 20
-1138.798069
 10
408.190652
 20
-1137.967417
  0
LWPOLYLINE
  5
2E
330
1F
100
AcDbEntity
  8
0
100
AcDbPolyline
 90
      245
 70
   128
 43
0.0
 10
818.943144
 20
-699.662908
 10
818.614579
 20
-699.675361
 10
818.56288
 20
-699.677354
 10
818.506553
 20
-699.679722
 10
818.445899
 20
-699.682655
 10
818.381218
 20
-699.68634
 10
818.312811
 20
-699.690967
 10
818.240978
 20
-699.696725
 10
818.16602
 20
-699.703801
 10
818.088238
 20
-699.712386
 10
818.007931
 20
-699.722667
 10
817.925401
 20
-699.734833
 10
817.840948
 20
-699.749073
 10
817.754873
 20
-699.765576
 10
817.667476
 20
-699.78453
 10
817.579057
 20
-699.806125
 10
817.489918
 20
-699.830548
 10
817.400359
 20
-699.857988
 10
817.31068
 20
-699.888635
 10
817.221182
 20
-699.922677
 10
817.132166
 20
-699.960303
 10
817.043932
 20
-700.001701
 10
816.956755
 20
-700.047002
 10
816.870808
 20
-700.096106
 10
816.786238
 20
-700.148852
 10
816.703194
 20
-700.205082
 10
816.621822
 20
-700.264637
 10
816.54227
 20
-700.327359
 10
816.464686
 20
-700.393087
 10
816.389217
 20
-700.461662
 10
816.31601
 20
-700.532927
 10
816.245213
 20
-700.606721
 10
816.176974
 20
-700.682886
 10
816.111439
 20
-700.761262
 10
816.048757
 20
-700.841691
 10
815.989075
 20
-700.924013
 10
815.932539
 20
-701.00807
 10
815.879299
 20
-701.093703
 10
815.829501
 20
-701.180751
 10
815.783293
 20
-701.269057
 10
815.740822
 20
-701.358461
 10
815.702235
 20
-701.448804
 10
815.667621
 20
-701.539907
 10
815.636828
 20
-701.631504
 10
815.609646
 20
-701.72331
 10
815.585863
 20
-701.81504
 10
815.565268
 20
-701.906409
 10
815.547651
 20
-701.997131
 10
815.5328
 20
-702.08692
 10
815.520506
 20
-702.175492
 10
815.510556
 20
-702.262561
 10
815.502739
 20
-702.347841
 10
815.496846
 20
-702.431047
 10
815.492665
 20
-702.511894
 10
815.489984
 20
-702.590096
 10
815.488594
 20
-702.665368
 10
815.488283
 20
-702.737424
 10
815.488841
 20
-702.805979
 10
815.490056
 20
-702.870748
 10
815.491717
 20
-702.931445
 10
815.493614
 20
-702.987784
 10
815.507957
 20
-703.368018
 10
815.520382
 20
-703.696614
 10
815.522371
 20
-703.748318
 10
815.524734
 20
-703.80465
 10
815.527662
 20
-703.86531
 10
815.531342
 20
-703.929996
 10
815.535964
 20
-703.99841
 10
815.541715
 20
-704.070249
 10
815.548786
 20
-704.145214
 10
815.557364
 20
-704.223003
 10
815.567639
 20
-704.303317
 10
815.579799
 20
-704.385854
 10
815.594033
 20
-704.470314
 10
815.61053
 20
-704.556396
 10
815.629478
 20
-704.6438
 10
815.651066
 20
-704.732225
 10
815.675484
 20
-704.82137
 10
815.702919
 20
-704.910936
 10
815.73356
 20
-705.000621
 10
815.767597
 20
-705.090124
 10
815.805218
 20
-705.179146
 10
815.846612
 20
-705.267385
 10
815.891909
 20
-705.354566
 10
815.941009
 20
-705.440517
 10
815.993752
 20
-705.52509
 10
816.04998
 20
-705.608137
 10
816.109534
 20
-705.689511
 10
816.172254
 20
-705.769065
 10
816.237981
 20
-705.846651
 10
816.306557
 20
-705.922121
 10
816.377823
 20
-705.995329
 10
816.451619
 20
-706.066126
 10
816.527786
 20
-706.134365
 10
816.606166
 20
-706.199899
 10
816.686599
 20
-706.26258
 10
816.768927
 20
-706.32226
 10
816.85299
 20
-706.378793
 10
816.93863
 20
-706.43203
 10
817.025687
 20
-706.481825
 10
817.114003
 20
-706.52803
 10
817.203418
 20
-706.570496
 10
817.293773
 20
-706.609078
 10
817.384889
 20
-706.643687
 10
817.476501
 20
-706.674474
 10
817.568323
 20
-706.70165
 10
817.66007
 20
-706.725426
 10
817.751456
 20
-706.746014
 10
817.842196
 20
-706.763624
 10
817.932004
 20
-706.778467
 10
818.020595
 20
-706.790755
 10
818.107683
 20
-706.800697
 10
818.192982
 20
-706.808506
 10
818.276207
 20
-706.814391
 10
818.357073
 20
-706.818565
 10
818.435294
 20
-706.821238
 10
818.510585
 20
-706.82262
 10
818.582659
 20
-706.822924
 10
818.651231
 20
-706.82236
 10
818.716017
 20
-706.821139
 10
818.776729
 20
-706.819471
 10
818.833084
 20
-706.817569
 10
819.213417
 20
-706.803186
 10
819.541982
 20
-706.790733
 10
819.593681
 20
-706.78874
 10
819.650008
 20
-706.786372
 10
819.710661
 20
-706.783439
 10
819.775342
 20
-706.779754
 10
819.843748
 20
-706.775127
 10
819.91558
 20
-706.769369
 10
819.990536
 20
-706.762293
 10
820.068316
 20
-706.753709
 10
820.148619
 20
-706.743428
 10
820.231146
 20
-706.731262
 10
820.315594
 20
-706.717022
 10
820.401663
 20
-706.70052
 10
820.489054
 20
-706.681566
 10
820.577464
 20
-706.659972
 10
820.666594
 20
-706.635549
 10
820.756143
 20
-706.608109
 10
820.84581
 20
-706.577463
 10
820.935294
 20
-706.543422
 10
821.024295
 20
-706.505797
 10
821.112513
 20
-706.4644
 10
821.199672
 20
-706.419099
 10
821.285599
 20
-706.369997
 10
821.370147
 20
-706.317252
 10
821.453169
 20
-706.261023
 10
821.534518
 20
-706.201469
 10
821.614046
 20
-706.138748
 10
821.691606
 20
-706.073021
 10
821.767052
 20
-706.004446
 10
821.840235
 20
-705.933182
 10
821.911008
 20
-705.859388
 10
821.979225
 20
-705.783224
 10
822.044738
 20
-705.704847
 10
822.1074
 20
-705.624418
 10
822.167063
 20
-705.542094
 10
822.22358
 20
-705.458036
 10
822.276805
 20
-705.372402
 10
822.326589
 20
-705.285351
 10
822.372786
 20
-705.197043
 10
822.415248
 20
-705.107635
 10
822.453828
 20
-705.017288
 10
822.488439
 20
-704.926182
 10
822.519232
 20
-704.83458
 10
822.546416
 20
-704.742768
 10
822.570204
 20
-704.651032
 10
822.590806
 20
-704.559657
 10
822.608432
 20
-704.468928
 10
822.623293
 20
-704.379132
 10
822.6356
 20
-704.290553
 10
822.645563
 20
-704.203477
 10
822.653394
 20
-704.118189
 10
822.659302
 20
-704.034976
 10
822.6635
 20
-703.954122
 10
822.666196
 20
-703.875912
 10
822.667603
 20
-703.800633
 10
822.667931
 20
-703.72857
 10
822.66739
 20
-703.660008
 10
822.666191
 20
-703.595233
 10
822.664545
 20
-703.534529
 10
822.662663
 20
-703.478184
 10
822.648419
 20
-703.09791
 10
822.635997
 20
-702.769373
 10
822.634009
 20
-702.717679
 10
822.631646
 20
-702.661356
 10
822.628719
 20
-702.600707
 10
822.62504
 20
-702.536031
 10
822.620419
 20
-702.467629
 10
822.614668
 20
-702.395802
 10
822.607598
 20
-702.320849
 10
822.59902
 20
-702.243071
 10
822.588746
 20
-702.162769
 10
822.576587
 20
-702.080243
 10
822.562353
 20
-701.995794
 10
822.545857
 20
-701.909722
 10
822.52691
 20
-701.822327
 10
822.505322
 20
-701.733911
 10
822.480905
 20
-701.644773
 10
822.45347
 20
-701.555214
 10
822.422829
 20
-701.465534
 10
822.388792
 20
-701.376035
 10
822.351171
 20
-701.287016
 10
822.309777
 20
-701.198777
 10
822.26448
 20
-701.111595
 10
822.21538
 20
-701.025642
 10
822.162637
 20
-700.941065
 10
822.106409
 20
-700.858013
 10
822.046855
 20
-700.776632
 10
821.984135
 20
-700.697071
 10
821.918408
 20
-700.619477
 10
821.849832
 20
-700.543998
 10
821.778566
 20
-700.470781
 10
821.704771
 20
-700.399974
 10
821.628604
 20
-700.331725
 10
821.550225
 20
-700.266181
 10
821.469793
 20
-700.20349
 10
821.387467
 20
-700.1438
 10
821.303405
 20
-700.087258
 10
821.217768
 20
-700.034011
 10
821.130713
 20
-699.984209
 10
821.0424
 20
-699.937997
 10
820.952989
 20
-699.895524
 10
820.862637
 20
-699.856937
 10
820.771525
 20
-699.822324
 10
820.679919
 20
-699.791534
 10
820.588102
 20
-699.764356
 10
820.496361
 20
-699.740579
 10
820.40498
 20
-699.719992
 10
820.314247
 20
-699.702383
 10
820.224445
 20
-699.687542
 10
820.135861
 20
-699.675257
 10
820.04878
 20
-699.665318
 10
819.963487
 20
-699.657513
 10
819.880269
 20
-699.651632
 10
819.799409
 20
-699.647463
 10
819.721195
 20
-699.644795
 10
819.645912
 20
-699.643417
 10
819.573844
 20
-699.643118
 10
819.505277
 20
-699.643688
 10
819.440498
 20
-699.644914
 10
819.379791
 20
-699.646586
 10
819.323442
 20
-699.648494
 10
818.943144
 20
-699.662908
  0
LWPOLYLINE
  5
2F
330
1F
100
AcDbEntity
  8
0
100
AcDbPolyline
 90
      245
 70
   128
 43
0.0
 10
1000.573247
 20
-764.096555
 10
1000.244655
 20
-764.109039
 10
1000.192952
 20
-764.111036
 10
1000.136621
 20
-764.11341
 10
1000.075962
 20
-764.116348
 10
1000.011276
 20
-764.120039
 10
999.942863
 20
-764.124673
 10
999.871025
 20
-764.130437
 10
999.796062
 20
-764.13752
 10
999.718275
 20
-764.146111
 10
999.637964
 20
-764.156399
 10
999.555429
 20
-764.168572
 10
999.470973
 20
-764.182819
 10
999.384894
 20
-764.199328
 10
999.297494
 20
-764.218289
 10
999.209074
 20
-764.23989
 10
999.119933
 20
-764.264319
 10
999.030374
 20
-764.291766
 10
998.940696
 20
-764.322418
 10
998.8512
 20
-764.356466
 10
998.762186
 20
-764.394096
 10
998.673956
 20
-764.435499
 10
998.586784
 20
-764.480804
 10
998.500843
 20
-764.52991
 10
998.416282
 20
-764.58266
 10
998.333246
 20
-764.638892
 10
998.251883
 20
-764.698449
 10
998.172341
 20
-764.761172
 10
998.094767
 20
-764.826901
 10
998.019308
 20
-764.895477
 10
997.946112
 20
-764.966742
 10
997.875326
 20
-765.040536
 10
997.807098
 20
-765.1167
 10
997.741574
 20
-765.195075
 10
997.678902
 20
-765.275502
 10
997.61923
 20
-765.357822
 10
997.562704
 20
-765.441876
 10
997.509473
 20
-765.527506
 10
997.459683
 20
-765.614551
 10
997.413481
 20
-765.702853
 10
997.371016
 20
-765.792253
 10
997.332434
 20
-765.882592
 10
997.297824
 20
-765.973689
 10
997.267033
 20
-766.065281
 10
997.239852
 20
-766.157082
 10
997.216069
 20
-766.248807
 10
997.195473
 20
-766.34017
 10
997.177854
 20
-766.430886
 10
997.163001
 20
-766.520669
 10
997.150703
 20
-766.609235
 10
997.140749
 20
-766.696297
 10
997.132928
 20
-766.781571
 10
997.12703
 20
-766.86477
 10
997.122843
 20
-766.945611
 10
997.120157
 20
-767.023807
 10
997.118762
 20
-767.099073
 10
997.118445
 20
-767.171123
 10
997.118997
 20
-767.239673
 10
997.120206
 20
-767.304436
 10
997.121861
 20
-767.365128
 10
997.123753
 20
-767.421463
 10
997.138061
 20
-767.801665
 10
997.150517
 20
-768.130288
 10
997.15251
 20
-768.181996
 10
997.154879
 20
-768.238333
 10
997.157812
 20
-768.298998
 10
997.161498
 20
-768.36369
 10
997.166125
 20
-768.432109
 10
997.171883
 20
-768.503953
 10
997.17896
 20
-768.578924
 10
997.187545
 20
-768.656718
 10
997.197825
 20
-768.737037
 10
997.209991
 20
-768.81958
 10
997.224231
 20
-768.904045
 10
997.240733
 20
-768.990132
 10
997.259686
 20
-769.07754
 10
997.281279
 20
-769.165969
 10
997.3057
 20
-769.255118
 10
997.333139
 20
-769.344687
 10
997.363783
 20
-769.434374
 10
997.397822
 20
-769.52388
 10
997.435445
 20
-769.612902
 10
997.476839
 20
-769.701142
 10
997.522136
 20
-769.788323
 10
997.571234
 20
-769.874272
 10
997.623975
 20
-769.958843
 10
997.6802
 20
-770.041888
 10
997.73975
 20
-770.123259
 10
997.802466
 20
-770.202809
 10
997.868188
 20
-770.28039
 10
997.936758
 20
-770.355855
 10
998.008018
 20
-770.429057
 10
998.081807
 20
-770.499848
 10
998.157967
 20
-770.568081
 10
998.236339
 20
-770.633608
 10
998.316765
 20
-770.696282
 10
998.399084
 20
-770.755955
 10
998.483139
 20
-770.81248
 10
998.56877
 20
-770.86571
 10
998.655818
 20
-770.915496
 10
998.744125
 20
-770.961693
 10
998.833531
 20
-771.004151
 10
998.923877
 20
-771.042725
 10
999.014984
 20
-771.077325
 10
999.106586
 20
-771.108104
 10
999.198399
 20
-771.135272
 10
999.290137
 20
-771.15904
 10
999.381514
 20
-771.17962
 10
999.472245
 20
-771.197222
 10
999.562044
 20
-771.212057
 10
999.650626
 20
-771.224337
 10
999.737706
 20
-771.234272
 10
999.822997
 20
-771.242073
 10
999.906214
 20
-771.247952
 10
999.987073
 20
-771.252118
 10
1000.065286
 20
-771.254785
 10
1000.140569
 20
-771.256161
 10
1000.212637
 20
-771.256459
 10
1000.281203
 20
-771.255889
 10
1000.345982
 20
-771.254662
 10
1000.406689
 20
-771.252989
 10
1000.463038
 20
-771.251082
 10
1000.843336
 20
-771.236667
 10
1001.171846
 20
-771.224276
 10
1001.223536
 20
-771.222293
 10
1001.279853
 20
-771.219935
 10
1001.340497
 20
-771.217014
 10
1001.405168
 20
-771.21334
 10
1001.473564
 20
-771.208726
 10
1001.545386
 20
-771.202982
 10
1001.620332
 20
-771.195919
 10
1001.698104
 20
-771.187349
 10
1001.778399
 20
-771.177082
 10
1001.860917
 20
-771.164931
 10
1001.945359
 20
-771.150706
 10
1002.031424
 20
-771.134218
 10
1002.118811
 20
-771.115279
 10
1002.207219
 20
-771.0937
 10
1002.296349
 20
-771.069292
 10
1002.3859
 20
-771.041866
 10
1002.475572
 20
-771.011234
 10
1002.565063
 20
-770.977206
 10
1002.654074
 20
-770.939595
 10
1002.742304
 20
-770.89821
 10
1002.829478
 20
-770.852922
 10
1002.915423
 20
-770.803831
 10
1002.999992
 20
-770.751097
 10
1003.083036
 20
-770.694878
 10
1003.164409
 20
-770.635333
 10
1003.243964
 20
-770.572621
 10
1003.321551
 20
-770.506902
 10
1003.397024
 20
-770.438334
 10
1003.470236
 20
-770.367077
 10
1003.541038
 20
-770.293288
 10
1003.609284
 20
-770.217128
 10
1003.674825
 20
-770.138755
 10
1003.737514
 20
-770.058328
 10
1003.797204
 20
-769.976007
 10
1003.853747
 20
-769.891949
 10
1003.906995
 20
-769.806315
 10
1003.956802
 20
-769.719263
 10
1004.003018
 20
-769.630952
 10
1004.045498
 20
-769.541541
 10
1004.084093
 20
-769.45119
 10
1004.118715
 20
-769.360077
 10
1004.149516
 20
-769.268468
 10
1004.176706
 20
-769.176649
 10
1004.200497
 20
-769.084904
 10
1004.221099
 20
-768.99352
 10
1004.238724
 20
-768.902782
 10
1004.253582
 20
-768.812975
 10
1004.265884
 20
-768.724385
 10
1004.275841
 20
-768.637298
 10
1004.283664
 20
-768.551999
 10
1004.289564
 20
-768.468774
 10
1004.293751
 20
-768.387908
 10
1004.296438
 20
-768.309687
 10
1004.297833
 20
-768.234396
 10
1004.29815
 20
-768.162321
 10
1004.297597
 20
-768.093748
 10
1004.296387
 20
-768.028963
 10
1004.294731
 20
-767.968249
 10
1004.292838
 20
-767.911894
 10
1004.278523
 20
-767.531557
 10
1004.26607
 20
-767.202992
 10
1004.264077
 20
-767.151293
 10
1004.261709
 20
-767.094967
 10
1004.258777
 20
-767.034313
 10
1004.255091
 20
-766.969632
 10
1004.250464
 20
-766.901225
 10
1004.244707
 20
-766.829393
 10
1004.23763
 20
-766.754436
 10
1004.229046
 20
-766.676655
 10
1004.218765
 20
-766.59635
 10
1004.206599
 20
-766.513822
 10
1004.192359
 20
-766.429371
 10
1004.175856
 20
-766.343298
 10
1004.156902
 20
-766.255905
 10
1004.135308
 20
-766.16749
 10
1004.110885
 20
-766.078356
 10
1004.083445
 20
-765.988802
 10
1004.052798
 20
-765.899129
 10
1004.018756
 20
-765.809638
 10
1003.981131
 20
-765.720629
 10
1003.939734
 20
-765.632403
 10
1003.894433
 20
-765.545235
 10
1003.84533
 20
-765.459298
 10
1003.792584
 20
-765.374739
 10
1003.736354
 20
-765.291706
 10
1003.6768
 20
-765.210346
 10
1003.614079
 20
-765.130806
 10
1003.548351
 20
-765.053234
 10
1003.479775
 20
-764.977777
 10
1003.408511
 20
-764.904583
 10
1003.334716
 20
-764.833798
 10
1003.258551
 20
-764.765571
 10
1003.180174
 20
-764.700048
 10
1003.099744
 20
-764.637377
 10
1003.01742
 20
-764.577705
 10
1002.933361
 20
-764.52118
 10
1002.847727
 20
-764.467949
 10
1002.760676
 20
-764.418159
 10
1002.672367
 20
-764.371958
 10
1002.58296
 20
-764.329494
 10
1002.492613
 20
-764.290913
 10
1002.401506
 20
-764.256303
 10
1002.309904
 20
-764.225513
 10
1002.218092
 20
-764.198332
 10
1002.126356
 20
-764.174549
 10
1002.034982
 20
-764.153954
 10
1001.944254
 20
-764.136336
 10
1001.854458
 20
-764.121484
 10
1001.765879
 20
-764.109186
 10
1001.678804
 20
-764.099233
 10
1001.593517
 20
-764.091413
 10
1001.510304
 20
-764.085515
 10
1001.429451
 20
-764.081329
 10
1001.351242
 20
-764.078644
 10
1001.275964
 20
-764.077249
 10
1001.203901
 20
-764.076933
 10
1001.13534
 20
-764.077485
 10
1001.070565
 20
-764.078695
 10
1001.009862
 20
-764.080351
 10
1000.953517
 20
-764.082244
 10
1000.573247
 20
-764.096555
  0
LWPOLYLINE
  5
30
330
1F
100
AcDbEntity
  8
0
100
AcDbPolyline
 90
      245
 70
   128
 43
0.0
 10
1071.777618
 20
-686.190163
 10
1071.449023
 20
-686.202588
 10
1071.397319
 20
-686.204577
 10
1071.340987
 20
-686.20694
 10
1071.280327
 20
-686.209868
 10
1071.21564
 20
-686.213548
 10
1071.147227
 20
-686.218169
 10
1071.075388
 20
-686.223921
 10
1071.000423
 20
-686.230992
 10
1070.922634
 20
-686.23957
 10
1070.84232
 20
-686.249845
 10
1070.759783
 20
-686.262005
 10
1070.675323
 20
-686.276239
 10
1070.589241
 20
-686.292735
 10
1070.501837
 20
-686.311684
 10
1070.413412
 20
-686.333272
 10
1070.324266
 20
-686.357689
 10
1070.234701
 20
-686.385125
 10
1070.145016
 20
-686.415766
 10
1070.055513
 20
-686.449803
 10
1069.966491
 20
-686.487424
 10
1069.878252
 20
-686.528818
 10
1069.791071
 20
-686.574115
 10
1069.70512
 20
-686.623215
 10
1069.620547
 20
-686.675958
 10
1069.5375
 20
-686.732186
 10
1069.456126
 20
-686.791739
 10
1069.376572
 20
-686.854459
 10
1069.298987
 20
-686.920186
 10
1069.223517
 20
-686.988761
 10
1069.150311
 20
-687.060026
 10
1069.079514
 20
-687.133821
 10
1069.011277
 20
-687.209987
 10
1068.945744
 20
-687.288365
 10
1068.883065
 20
-687.368797
 10
1068.823386
 20
-687.451122
 10
1068.766856
 20
-687.535183
 10
1068.713621
 20
-687.62082
 10
1068.663829
 20
-687.707874
 10
1068.617627
 20
-687.796186
 10
1068.575164
 20
-687.885597
 10
1068.536586
 20
-687.975949
 10
1068.501982
 20
-688.067059
 10
1068.4712
 20
-688.158666
 10
1068.444028
 20
-688.250482
 10
1068.420257
 20
-688.342223
 10
1068.399675
 20
-688.433603
 10
1068.382071
 20
-688.524337
 10
1068.367234
 20
-688.614138
 10
1068.354952
 20
-688.702722
 10
1068.345016
 20
-688.789803
 10
1068.337214
 20
-688.875095
 10
1068.331334
 20
-688.958314
 10
1068.327167
 20
-689.039173
 10
1068.3245
 20
-689.117387
 10
1068.323123
 20
-689.192671
 10
1068.322825
 20
-689.264738
 10
1068.323395
 20
-689.333305
 10
1068.324622
 20
-689.398084
 10
1068.326294
 20
-689.458791
 10
1068.328202
 20
-689.51514
 10
1068.342616
 20
-689.895438
 10
1068.355014
 20
-690.224065
 10
1068.356998
 20
-690.275773
 10
1068.359357
 20
-690.332111
 10
1068.36228
 20
-690.392776
 10
1068.365955
 20
-690.457469
 10
1068.370571
 20
-690.525888
 10
1068.376317
 20
-690.597733
 10
1068.383382
 20
-690.672704
 10
1068.391955
 20
-690.7505
 10
1068.402224
 20
-690.830819
 10
1068.414379
 20
-690.913362
 10
1068.428608
 20
-690.997828
 10
1068.4451
 20
-691.083915
 10
1068.464044
 20
-691.171324
 10
1068.485628
 20
-691.259754
 10
1068.510042
 20
-691.348903
 10
1068.537474
 20
-691.438472
 10
1068.568113
 20
-691.52816
 10
1068.602148
 20
-691.617665
 10
1068.639768
 20
-691.706688
 10
1068.681161
 20
-691.794928
 10
1068.726459
 20
-691.882109
 10
1068.77556
 20
-691.968058
 10
1068.828305
 20
-692.052629
 10
1068.884535
 20
-692.135673
 10
1068.944092
 20
-692.217044
 10
1069.006815
 20
-692.296593
 10
1069.072547
 20
-692.374173
 10
1069.141127
 20
-692.449637
 10
1069.212397
 20
-692.522838
 10
1069.286198
 20
-692.593627
 10
1069.362371
 20
-692.661858
 10
1069.440756
 20
-692.727383
 10
1069.521195
 20
-692.790054
 10
1069.603528
 20
-692.849724
 10
1069.687596
 20
-692.906246
 10
1069.773241
 20
-692.959473
 10
1069.860303
 20
-693.009256
 10
1069.948623
 20
-693.055448
 10
1070.038043
 20
-693.097902
 10
1070.128402
 20
-693.13647
 10
1070.219521
 20
-693.171065
 10
1070.311136
 20
-693.201838
 10
1070.402961
 20
-693.229001
 10
1070.49471
 20
-693.252763
 10
1070.586098
 20
-693.273336
 10
1070.676839
 20
-693.290931
 10
1070.766648
 20
-693.30576
 10
1070.85524
 20
-693.318032
 10
1070.942328
 20
-693.32796
 10
1071.027628
 20
-693.335754
 10
1071.110854
 20
-693.341626
 10
1071.19172
 20
-693.345786
 10
1071.26994
 20
-693.348445
 10
1071.345231
 20
-693.349814
 10
1071.417304
 20
-693.350106
 10
1071.485876
 20
-693.349529
 10
1071.550661
 20
-693.348297
 10
1071.611373
 20
-693.346618
 10
1071.667727
 20
-693.344706
 10
1072.048057
 20
-693.330255
 10
1072.376567
 20
-693.317864
 10
1072.428257
 20
-693.315881
 10
1072.484574
 20
-693.313523
 10
1072.545219
 20
-693.310602
 10
1072.609889
 20
-693.306929
 10
1072.678285
 20
-693.302314
 10
1072.750107
 20
-693.29657
 10
1072.825054
 20
-693.289507
 10
1072.902825
 20
-693.280937
 10
1072.98312
 20
-693.27067
 10
1073.065639
 20
-693.258519
 10
1073.15008
 20
-693.244294
 10
1073.236145
 20
-693.227806
 10
1073.323532
 20
-693.208867
 10
1073.41194
 20
-693.187288
 10
1073.50107
 20
-693.16288
 10
1073.590621
 20
-693.135454
 10
1073.680293
 20
-693.104822
 10
1073.769784
 20
-693.070794
 10
1073.858795
 20
-693.033183
 10
1073.947025
 20
-692.991798
 10
1074.034199
 20
-692.94651
 10
1074.120144
 20
-692.89742
 10
1074.204712
 20
-692.844685
 10
1074.287756
 20
-692.788466
 10
1074.369129
 20
-692.728921
 10
1074.448682
 20
-692.66621
 10
1074.526267
 20
-692.600491
 10
1074.601738
 20
-692.531923
 10
1074.674946
 20
-692.460665
 10
1074.745745
 20
-692.386877
 10
1074.813986
 20
-692.310717
 10
1074.879521
 20
-692.232345
 10
1074.942203
 20
-692.151918
 10
1075.001885
 20
-692.069597
 10
1075.058419
 20
-691.98554
 10
1075.111657
 20
-691.899907
 10
1075.161451
 20
-691.812855
 10
1075.207654
 20
-691.724545
 10
1075.250119
 20
-691.635135
 10
1075.288697
 20
-691.544784
 10
1075.323301
 20
-691.453673
 10
1075.354082
 20
-691.362065
 10
1075.381251
 20
-691.270247
 10
1075.405019
 20
-691.178504
 10
1075.425598
 20
-691.087121
 10
1075.443198
 20
-690.996384
 10
1075.458031
 20
-690.906578
 10
1075.470307
 20
-690.81799
 10
1075.480238
 20
-690.730904
 10
1075.488035
 20
-690.645607
 10
1075.493908
 20
-690.562383
 10
1075.49807
 20
-690.481518
 10
1075.50073
 20
-690.403299
 10
1075.502101
 20
-690.32801
 10
1075.502393
 20
-690.255936
 10
1075.501817
 20
-690.187365
 10
1075.500584
 20
-690.12258
 10
1075.498906
 20
-690.061868
 10
1075.496994
 20
-690.005514
 10
1075.482544
 20
-689.625184
 10
1075.470177
 20
-689.296586
 10
1075.468197
 20
-689.244881
 10
1075.465844
 20
-689.188549
 10
1075.462927
 20
-689.127889
 10
1075.459258
 20
-689.063202
 10
1075.454648
 20
-688.994789
 10
1075.448909
 20
-688.92295
 10
1075.441851
 20
-688.847986
 10
1075.433286
 20
-688.770199
 10
1075.423024
 20
-688.689888
 10
1075.410878
 20
-688.607354
 10
1075.396657
 20
-688.522898
 10
1075.380174
 20
-688.436821
 10
1075.361239
 20
-688.349423
 10
1075.339663
 20
-688.261005
 10
1075.315259
 20
-688.171868
 10
1075.287836
 20
-688.082313
 10
1075.257206
 20
-687.992639
 10
1075.223181
 20
-687.903149
 10
1075.185571
 20
-687.814141
 10
1075.144187
 20
-687.725919
 10
1075.098899
 20
-687.638755
 10
1075.049808
 20
-687.552823
 10
1074.997072
 20
-687.468271
 10
1074.940852
 20
-687.385246
 10
1074.881305
 20
-687.303894
 10
1074.818592
 20
-687.224364
 10
1074.75287
 20
-687.146802
 10
1074.684299
 20
-687.071355
 10
1074.613039
 20
-686.998171
 10
1074.539248
 20
-686.927397
 10
1074.463085
 20
-686.85918
 10
1074.384709
 20
-686.793668
 10
1074.30428
 20
-686.731008
 10
1074.221956
 20
-686.671346
 10
1074.137896
 20
-686.614831
 10
1074.052261
 20
-686.561609
 10
1073.965208
 20
-686.511827
 10
1073.876896
 20
-686.465634
 10
1073.787485
 20
-686.423176
 10
1073.697134
 20
-686.3846
 10
1073.606023
 20
-686.349994
 10
1073.514416
 20
-686.319206
 10
1073.4226
 20
-686.292027
 10
1073.330858
 20
-686.268245
 10
1073.239477
 20
-686.24765
 10
1073.148743
 20
-686.230031
 10
1073.058941
 20
-686.215176
 10
1072.970356
 20
-686.202876
 10
1072.883274
 20
-686.19292
 10
1072.79798
 20
-686.185096
 10
1072.71476
 20
-686.179194
 10
1072.6339
 20
-686.175004
 10
1072.555685
 20
-686.172314
 10
1072.4804
 20
-686.170914
 10
1072.40833
 20
-686.170593
 10
1072.339763
 20
-686.17114
 10
1072.274982
 20
-686.172344
 10
1072.214274
 20
-686.173996
 10
1072.157924
 20
-686.175883
 10
1071.777618
 20
-686.190163
  0
LWPOLYLINE
  5
31
330
1F
100
AcDbEntity
  8
0
100
AcDbPolyline
 90
      488
 70
   128
 43
0.0
 10
219.017066
 20
-728.766244
 10
222.952581
 20
-711.267566
 10
223.571457
 20
-708.513756
 10
224.243554
 20
-705.510862
 10
224.963064
 20
-702.272277
 10
225.724175
 20
-698.811398
 10
226.521078
 20
-695.141617
 10
227.347962
 20
-691.276332
 10
228.199016
 20
-687.228936
 10
229.068431
 20
-683.012825
 10
229.950397
 20
-678.641394
 10
230.839102
 20
-674.128037
 10
231.728737
 20
-669.486151
 10
232.613491
 20
-664.729128
 10
233.487553
 20
-659.870366
 10
234.345115
 20
-654.923258
 10
235.180364
 20
-649.901199
 10
235.987491
 20
-644.817586
 10
236.760685
 20
-639.685812
 10
237.494138
 20
-634.519273
 10
238.182037
 20
-629.331363
 10
238.818573
 20
-624.135477
 10
239.398855
 20
-618.942784
 10
239.921684
 20
-613.755537
 10
240.386777
 20
-608.573762
 10
240.793852
 20
-603.397489
 10
241.14263
 20
-598.226742
 10
241.432828
 20
-593.061549
 10
241.664167
 20
-587.901936
 10
241.836363
 20
-582.747931
 10
241.949138
 20
-577.59956
 10
242.002209
 20
-572.45685
 10
241.995296
 20
-567.319828
 10
241.928117
 20
-562.188521
 10
241.800391
 20
-557.062956
 10
241.611838
 20
-551.94316
 10
241.362176
 20
-546.829158
 10
241.051122
 20
-541.720979
 10
240.6784
 20
-536.618648
 10
240.243724
 20
-531.522194
 10
239.746815
 20
-526.431643
 10
239.187393
 20
-521.347021
 10
238.566253
 20
-516.270394
 10
237.888504
 20
-511.21198
 10
237.160333
 20
-506.184038
 10
236.387926
 20
-501.198825
 10
235.577471
 20
-496.268596
 10
234.735153
 20
-491.405613
 10
233.86716
 20
-486.622129
 10
232.979677
 20
-481.930403
 10
232.078891
 20
-477.342694
 10
231.170989
 20
-472.871257
 10
230.262158
 20
-468.52835
 10
229.358584
 20
-464.326232
 10
228.466454
 20
-460.277158
 10
227.591954
 20
-456.393386
 10
226.741269
 20
-452.687175
 10
225.92059
 20
-449.17078
 10
225.1361
 20
-445.856461
 10
224.393987
 20
-442.756474
 10
223.700437
 20
-439.883075
 10
218.999214
 20
-420.508244
 10
218.632911
 20
-418.99882
 10
218.575451
 20
-418.761246
 10
218.513893
 20
-418.501991
 10
218.449633
 20
-418.222016
 10
218.384066
 20
-417.922279
 10
218.318591
 20
-417.603743
 10
218.254603
 20
-417.267366
 10
218.193498
 20
-416.91411
 10
218.136672
 20
-416.544933
 10
218.085523
 20
-416.160798
 10
218.041445
 20
-415.762664
 10
218.005836
 20
-415.351492
 10
217.980091
 20
-414.928241
 10
217.965607
 20
-414.493872
 10
217.963781
 20
-414.049344
 10
217.976008
 20
-413.59562
 10
218.003686
 20
-413.133657
 10
218.048208
 20
-412.664418
 10
218.110974
 20
-412.188862
 10
218.193378
 20
-411.70795
 10
218.296818
 20
-411.22264
 10
218.422253
 20
-410.734019
 10
218.568902
 20
-410.243662
 10
218.735549
 20
-409.753271
 10
218.920976
 20
-409.264545
 10
219.123967
 20
-408.779186
 10
219.343304
 20
-408.298894
 10
219.577771
 20
-407.825369
 10
219.826149
 20
-407.360314
 10
220.087223
 20
-406.905426
 10
220.359776
 20
-406.462409
 10
220.64259
 20
-406.032962
 10
220.934448
 20
-405.618785
 10
221.234135
 20
-405.22158
 10
221.540431
 20
-404.843047
 10
221.852121
 20
-404.484887
 10
222.167988
 20
-404.148799
 10
222.486815
 20
-403.836486
 10
222.807383
 20
-403.549647
 10
223.128477
 20
-403.289984
 10
223.44888
 20
-403.059196
 10
223.767468
 20
-402.85841
 10
224.083492
 20
-402.686445
 10
224.396295
 20
-402.541549
 10
224.705223
 20
-402.421969
 10
225.009617
 20
-402.32595
 10
225.308822
 20
-402.251738
 10
225.602185
 20
-402.197581
 10
225.889045
 20
-402.161722
 10
226.16875
 20
-402.142411
 10
226.440643
 20
-402.137892
 10
226.704067
 20
-402.146412
 10
226.958367
 20
-402.166216
 10
227.202886
 20
-402.195551
 10
227.436969
 20
-402.232665
 10
227.659959
 20
-402.275801
 10
227.871202
 20
-402.323207
 10
228.070039
 20
-402.373129
 10
228.255817
 20
-402.423814
 10
228.427878
 20
-402.473507
 10
229.587459
 20
-402.820392
 10
233.293815
 20
-403.930021
 10
233.877113
 20
-404.10465
 10
234.513295
 20
-404.29509
 10
235.199642
 20
-404.500511
 10
235.933446
 20
-404.720079
 10
236.71199
 20
-404.952964
 10
237.53256
 20
-405.198332
 10
238.392445
 20
-405.455351
 10
239.28893
 20
-405.723189
 10
240.219299
 20
-406.001016
 10
241.180843
 20
-406.287997
 10
242.170845
 20
-406.583302
 10
243.186592
 20
-406.886097
 10
244.225372
 20
-407.19555
 10
245.284469
 20
-407.510831
 10
246.36117
 20
-407.831106
 10
247.452762
 20
-408.155542
 10
248.556531
 20
-408.48331
 10
249.669764
 20
-408.813574
 10
250.789747
 20
-409.145505
 10
251.913766
 20
-409.47827
 10
253.039537
 20
-409.811174
 10
254.1665
 20
-410.144079
 10
255.29452
 20
-410.476986
 10
256.423465
 20
-410.809895
 10
257.553205
 20
-411.142803
 10
258.683606
 20
-411.475713
 10
259.814536
 20
-411.808621
 10
260.945862
 20
-412.141531
 10
262.077453
 20
-412.474441
 10
263.209177
 20
-412.807351
 10
264.340901
 20
-413.140261
 10
265.472492
 20
-413.473169
 10
266.60382
 20
-413.806077
 10
267.73475
 20
-414.138985
 10
268.865152
 20
-414.471891
 10
269.994892
 20
-414.804796
 10
271.123839
 20
-415.137699
 10
272.251861
 20
-415.470601
 10
273.378825
 20
-415.803501
 10
274.504598
 20
-416.136399
 10
275.628619
 20
-416.469156
 10
276.748604
 20
-416.80108
 10
277.861839
 20
-417.131336
 10
278.965611
 20
-417.459095
 10
280.057206
 20
-417.783523
 10
281.13391
 20
-418.103788
 10
282.19301
 20
-418.41906
 10
283.231792
 20
-418.728504
 10
284.247543
 20
-419.031289
 10
285.237547
 20
-419.326582
 10
286.199093
 20
-419.613554
 10
287.129467
 20
-419.891371
 10
288.025954
 20
-420.1592
 10
288.885841
 20
-420.41621
 10
289.706415
 20
-420.661568
 10
290.484962
 20
-420.894443
 10
291.218767
 20
-421.114004
 10
291.905118
 20
-421.319416
 10
292.541301
 20
-421.509849
 10
296.830972
 20
-422.794055
 10
297.83255
 20
-423.093872
 10
297.990166
 20
-423.141148
 10
298.162007
 20
-423.193246
 10
298.347277
 20
-423.250493
 10
298.545178
 20
-423.313213
 10
298.754912
 20
-423.381733
 10
298.975682
 20
-423.456379
 10
299.206689
 20
-423.537474
 10
299.447135
 20
-423.625346
 10
299.696225
 20
-423.72032
 10
299.95316
 20
-423.822722
 10
300.217141
 20
-423.932875
 10
300.487372
 20
-424.051108
 10
300.763054
 20
-424.177744
 10
301.043391
 20
-424.31311
 10
301.327584
 20
-424.457531
 10
301.614836
 20
-424.611333
 10
301.90435
 20
-424.77484
 10
302.195327
 20
-424.948379
 10
302.48697
 20
-425.132277
 10
302.778481
 20
-425.326856
 10
303.069075
 20
-425.532372
 10
303.358015
 20
-425.74878
 10
303.644578
 20
-425.975967
 10
303.928038
 20
-426.213816
 10
304.207673
 20
-426.462214
 10
304.482759
 20
-426.721046
 10
304.752569
 20
-426.990195
 10
305.016382
 20
-427.269547
 10
305.273472
 20
-427.558987
 10
305.523116
 20
-427.8584
 10
305.764588
 20
-428.167671
 10
305.997166
 20
-428.486684
 10
306.220126
 20
-428.815325
 10
306.432742
 20
-429.153478
 10
306.634291
 20
-429.501028
 10
306.824049
 20
-429.857862
 10
307.001291
 20
-430.223862
 10
307.165294
 20
-430.598914
 10
307.315333
 20
-430.982904
 10
307.450685
 20
-431.375716
 10
307.570885
 20
-431.776979
 10
307.676509
 20
-432.185304
 10
307.768395
 20
-432.599043
 10
307.847378
 20
-433.016552
 10
307.914295
 20
-433.436183
 10
307.969983
 20
-433.856291
 10
308.015277
 20
-434.275232
 10
308.051014
 20
-434.691356
 10
308.078033
 20
-435.10302
 10
308.097166
 20
-435.508576
 10
308.109254
 20
-435.906381
 10
308.115131
 20
-436.294787
 10
308.115633
 20
-436.672147
 10
308.111597
 20
-437.036816
 10
308.103861
 20
-437.38715
 10
308.09326
 20
-437.721499
 10
308.08063
 20
-438.038221
 10
308.066809
 20
-438.335667
 10
308.052632
 20
-438.612193
 10
307.951095
 20
-440.480331
 10
307.128576
 20
-455.575455
 10
306.999235
 20
-457.951025
 10
306.85879
 20
-460.541561
 10
306.708476
 20
-463.335595
 10
306.549529
 20
-466.321665
 10
306.38318
 20
-469.48831
 10
306.210666
 20
-472.824062
 10
306.033221
 20
-476.317462
 10
305.852078
 20
-479.957043
 10
305.668474
 20
-483.731343
 10
305.483641
 20
-487.6289
 10
305.298814
 20
-491.638247
 10
305.115228
 20
-495.747924
 10
304.934117
 20
-499.946465
 10
304.756716
 20
-504.222408
 10
304.584258
 20
-508.564289
 10
304.417979
 20
-512.960644
 10
304.259112
 20
-517.400011
 10
304.108893
 20
-521.870926
 10
303.968555
 20
-526.361924
 10
303.839333
 20
-530.861542
 10
303.722256
 20
-535.360229
 10
303.617528
 20
-539.856072
 10
303.525151
 20
-544.349073
 10
303.445125
 20
-548.83923
 10
303.377449
 20
-553.326546
 10
303.322123
 20
-557.811017
 10
303.279148
 20
-562.292647
 10
303.248522
 20
-566.771432
 10
303.230248
 20
-571.247376
 10
303.224322
 20
-575.720476
 10
303.230748
 20
-580.190733
 10
303.249524
 20
-584.658148
 10
303.280651
 20
-589.122719
 10
303.324128
 20
-593.584448
 10
303.379955
 20
-598.043333
 10
303.448132
 20
-602.499376
 10
303.52866
 20
-606.952577
 10
303.621538
 20
-611.402933
 10
303.726767
 20
-615.850448
 10
303.844345
 20
-620.295119
 10
303.974069
 20
-624.735132
 10
304.114907
 20
-629.161407
 10
304.265623
 20
-633.563049
 10
304.424984
 20
-637.929163
 10
304.591752
 20
-642.248855
 10
304.764692
 20
-646.51123
 10
304.942568
 20
-650.705392
 10
305.124145
 20
-654.820446
 10
305.308187
 20
-658.8455
 10
305.493458
 20
-662.769655
 10
305.678723
 20
-666.582019
 10
305.862747
 20
-670.271695
 10
306.044293
 20
-673.82779
 10
306.222125
 20
-677.23941
 10
306.395008
 20
-680.495656
 10
306.561707
 20
-683.585636
 10
306.720986
 20
-686.498455
 10
306.871609
 20
-689.223217
 10
307.01234
 20
-691.749028
 10
307.966135
 20
-708.781064
 10
308.056531
 20
-710.39493
 10
308.070617
 20
-710.648839
 10
308.085152
 20
-710.925312
 10
308.099228
 20
-711.222702
 10
308.111936
 20
-711.539363
 10
308.122369
 20
-711.873651
 10
308.12962
 20
-712.223921
 10
308.132781
 20
-712.588527
 10
308.130944
 20
-712.965823
 10
308.123203
 20
-713.354164
 10
308.108647
 20
-713.751906
 10
308.086371
 20
-714.157402
 10
308.055467
 20
-714.569007
 10
308.015027
 20
-714.985077
 10
307.964143
 20
-715.403965
 10
307.901909
 20
-715.824026
 10
307.827415
 20
-716.243616
 10
307.739754
 20
-716.661088
 10
307.638019
 20
-717.074797
 10
307.521302
 20
-717.483098
 10
307.388696
 20
-717.884346
 10
307.239587
 20
-718.277151
 10
307.07454
 20
-718.661141
 10
306.894418
 20
-719.036201
 10
306.700078
 20
-719.402217
 10
306.492383
 20
-719.759072
 10
306.272192
 20
-720.106652
 10
306.040366
 20
-720.44484
 10
305.797765
 20
-720.773522
 10
305.545248
 20
-721.092582
 10
305.283677
 20
-721.401904
 10
305.013912
 20
-721.701373
 10
304.736813
 20
-721.990874
 10
304.45324
 20
-722.270292
 10
304.164054
 20
-722.53951
 10
303.870115
 20
-722.798413
 10
303.572284
 20
-723.046888
 10
303.27142
 20
-723.284816
 10
302.968383
 20
-723.512084
 10
302.664035
 20
-723.728575
 10
302.359236
 20
-723.934175
 10
302.054823
 20
-724.128841
 10
301.751551
 20
-724.312826
 10
301.450151
 20
-724.486454
 10
301.151352
 20
-724.650051
 10
300.855887
 20
-724.80394
 10
300.564486
 20
-724.94845
 10
300.277883
 20
-725.083904
 10
299.996805
 20
-725.210628
 10
299.721987
 20
-725.328947
 10
299.454158
 20
-725.439186
 10
299.194049
 20
-725.541669
 10
298.942392
 20
-725.636724
 10
298.699918
 20
-725.724674
 10
298.467358
 20
-725.805846
 10
298.245444
 20
-725.880564
 10
298.034906
 20
-725.949153
 10
297.836477
 20
-726.011939
 10
297.650885
 20
-726.069247
 10
297.478865
 20
-726.121403
 10
296.318978
 20
-726.468882
 10
296.317588
 20
-726.469298
 10
296.30786
 20
-726.472212
 10
296.281453
 20
-726.480123
 10
296.230029
 20
-726.495527
 10
296.145251
 20
-726.520923
 10
296.018777
 20
-726.55881
 10
295.84227
 20
-726.611684
 10
295.607391
 20
-726.682045
 10
295.305799
 20
-726.772389
 10
294.929158
 20
-726.885216
 10
294.469128
 20
-727.023022
 10
293.917369
 20
-727.188307
 10
293.265544
 20
-727.383567
 10
292.505312
 20
-727.611302
 10
291.628336
 20
-727.874008
 10
290.626276
 20
-728.174185
 10
289.490792
 20
-728.51433
 10
288.213548
 20
-728.896941
 10
286.786203
 20
-729.324515
 10
285.200418
 20
-729.799552
 10
283.452025
 20
-730.3233
 10
281.55353
 20
-730.892012
 10
279.521613
 20
-731.500692
 10
277.372951
 20
-732.144345
 10
275.124223
 20
-732.817972
 10
272.792104
 20
-733.51658
 10
270.393275
 20
-734.235172
 10
267.944412
 20
-734.968752
 10
265.462193
 20
-735.712324
 10
262.963296
 20
-736.460892
 10
260.4644
 20
-737.209462
 10
257.982182
 20
-737.953033
 10
255.533319
 20
-738.686614
 10
253.13449
 20
-739.405206
 10
250.802371
 20
-740.103814
 10
248.553643
 20
-740.777441
 10
246.40498
 20
-741.421094
 10
244.373064
 20
-742.029774
 10
242.474569
 20
-742.598486
 10
240.726176
 20
-743.122234
 10
239.140391
 20
-743.597271
 10
237.713046
 20
-744.024845
 10
236.435801
 20
-744.407456
 10
235.300318
 20
-744.747601
 10
234.298258
 20
-745.047778
 10
233.421282
 20
-745.310484
 10
232.66105
 20
-745.538219
 10
232.009225
 20
-745.733479
 10
231.457466
 20
-745.898764
 10
230.997436
 20
-746.03657
 10
230.620794
 20
-746.149397
 10
230.319203
 20
-746.239741
 10
230.084323
 20
-746.310101
 10
229.907817
 20
-746.362976
 10
229.781343
 20
-746.400863
 10
229.696563
 20
-746.426259
 10
229.645141
 20
-746.441663
 10
229.618734
 20
-746.449573
 10
229.609005
 20
-746.452488
 10
229.607615
 20
-746.452904
 10
228.605488
 20
-746.75307
 10
228.447765
 20
-746.800056
 10
228.275684
 20
-746.8498
 10
228.089919
 20
-746.900561
 10
227.891144
 20
-746.950594
 10
227.680033
 20
-746.998156
 10
227.457261
 20
-747.041504
 10
227.2235
 20
-747.078896
 10
226.979424
 20
-747.108587
 10
226.725709
 20
-747.128834
 10
226.463027
 20
-747.137892
 10
226.192053
 20
-747.134022
 10
225.913461
 20
-747.115477
 10
225.627925
 20
-747.080515
 10
225.336117
 20
-747.027392
 10
225.038714
 20
-746.954367
 10
224.736388
 20
-746.859693
 10
224.429814
 20
-746.74163
 10
224.119665
 20
-746.598433
 10
223.806616
 20
-746.428359
 10
223.491339
 20
-746.229665
 10
223.174592
 20
-746.001176
 10
222.857456
 20
-745.743992
 10
222.541096
 20
-745.459781
 10
222.226674
 20
-745.150212
 10
221.915356
 20
-744.816952
 10
221.608303
 20
-744.46167
 10
221.306682
 20
-744.086036
 10
221.011654
 20
-743.691715
 10
220.724385
 20
-743.280377
 10
220.446038
 20
-742.853691
 10
220.177778
 20
-742.413325
 10
219.920767
 20
-741.960947
 10
219.67617
 20
-741.498224
 10
219.44515
 20
-741.026827
 10
219.228872
 20
-740.548423
 10
219.028499
 20
-740.06468
 10
218.845196
 20
-739.577266
 10
218.680125
 20
-739.087851
 10
218.534451
 20
-738.598101
 10
218.409338
 20
-738.109686
 10
218.305532
 20
-737.624162
 10
218.222107
 20
-737.142633
 10
218.157722
 20
-736.666092
 10
218.11103
 20
-736.195533
 10
218.08069
 20
-735.731948
 10
218.065358
 20
-735.27633
 10
218.063692
 20
-734.829671
 10
218.074347
 20
-734.392963
 10
218.095982
 20
-733.967202
 10
218.127252
 20
-733.553378
 10
218.166815
 20
-733.152484
 10
218.213326
 20
-732.765513
 10
218.265443
 20
-732.393459
 10
218.321823
 20
-732.037313
 10
218.381121
 20
-731.698069
 10
218.441997
 20
-731.376719
 10
218.503105
 20
-731.074257
 10
218.563102
 20
-730.791674
 10
218.620647
 20
-730.529964
 10
219.017066
 20
-728.766244
  0
LWPOLYLINE
  5
32
330
1F
100
AcDbEntity
  8
0
100
AcDbPolyline
 90
      264
 70
   128
 43
0.0
 10
224.628835
 20
-414.436852
 10
224.628845
 20
-414.10796
 10
224.628881
 20
-414.056208
 10
224.629115
 20
-413.999816
 10
224.62975
 20
-413.939078
 10
224.630985
 20
-413.874286
 10
224.63302
 20
-413.805735
 10
224.636055
 20
-413.733717
 10
224.640289
 20
-413.658526
 10
224.645923
 20
-413.580455
 10
224.653157
 20
-413.499798
 10
224.662188
 20
-413.416848
 10
224.673221
 20
-413.331898
 10
224.686452
 20
-413.245242
 10
224.702082
 20
-413.157173
 10
224.720311
 20
-413.067986
 10
224.741339
 20
-412.977971
 10
224.765367
 20
-412.887424
 10
224.792592
 20
-412.796638
 10
224.823217
 20
-412.705906
 10
224.857439
 20
-412.615521
 10
224.895461
 20
-412.525777
 10
224.937422
 20
-412.436944
 10
224.983229
 20
-412.349199
 10
225.032727
 20
-412.262695
 10
225.085764
 20
-412.177584
 10
225.142187
 20
-412.09402
 10
225.201841
 20
-412.012157
 10
225.264575
 20
-411.932147
 10
225.330234
 20
-411.854144
 10
225.398666
 20
-411.778302
 10
225.469717
 20
-411.704773
 10
225.543235
 20
-411.63371
 10
225.619065
 20
-411.565267
 10
225.697054
 20
-411.499597
 10
225.777049
 20
-411.436854
 10
225.858899
 20
-411.37719
 10
225.942448
 20
-411.320759
 10
226.027543
 20
-411.267713
 10
226.114031
 20
-411.218208
 10
226.201761
 20
-411.172394
 10
226.290576
 20
-411.130426
 10
226.380302
 20
-411.092398
 10
226.470668
 20
-411.058169
 10
226.561382
 20
-411.02754
 10
226.652149
 20
-411.000309
 10
226.742676
 20
-410.976278
 10
226.832671
 20
-410.955245
 10
226.92184
 20
-410.937012
 10
227.009889
 20
-410.921379
 10
227.096525
 20
-410.908145
 10
227.181456
 20
-410.89711
 10
227.264387
 20
-410.888076
 10
227.345026
 20
-410.880841
 10
227.423078
 20
-410.875205
 10
227.498252
 20
-410.870969
 10
227.570253
 20
-410.867933
 10
227.638788
 20
-410.865897
 10
227.703565
 20
-410.864661
 10
227.764288
 20
-410.864025
 10
227.820667
 20
-410.863789
 10
227.872406
 20
-410.863753
 10
227.919345
 20
-410.863751
 10
227.961844
 20
-410.863749
 10
228.000397
 20
-410.863747
 10
228.035499
 20
-410.863746
 10
228.06764
 20
-410.863744
 10
228.097315
 20
-410.863743
 10
228.125018
 20
-410.863742
 10
228.151241
 20
-410.86374
 10
228.176477
 20
-410.863739
 10
228.201221
 20
-410.863739
 10
228.225964
 20
-410.863737
 10
228.2512
 20
-410.863736
 10
228.277424
 20
-410.863735
 10
228.305126
 20
-410.863733
 10
228.334802
 20
-410.863732
 10
228.366943
 20
-410.863731
 10
228.402045
 20
-410.863729
 10
228.440598
 20
-410.863727
 10
228.483098
 20
-410.863725
 10
228.530035
 20
-410.863723
 10
228.581775
 20
-410.863754
 10
228.638153
 20
-410.863984
 10
228.698877
 20
-410.864615
 10
228.763654
 20
-410.865845
 10
228.832189
 20
-410.867874
 10
228.904191
 20
-410.870903
 10
228.979365
 20
-410.875131
 10
229.057419
 20
-410.88076
 10
229.138059
 20
-410.887987
 10
229.220991
 20
-410.897013
 10
229.305923
 20
-410.908039
 10
229.392561
 20
-410.921264
 10
229.480612
 20
-410.936889
 10
229.569784
 20
-410.955112
 10
229.659782
 20
-410.976135
 10
229.750313
 20
-411.000156
 10
229.841084
 20
-411.027377
 10
229.931802
 20
-411.057997
 10
230.022173
 20
-411.092216
 10
230.111904
 20
-411.130233
 10
230.200726
 20
-411.17219
 10
230.288461
 20
-411.217994
 10
230.374958
 20
-411.267489
 10
230.460061
 20
-411.320524
 10
230.543617
 20
-411.376944
 10
230.625475
 20
-411.436597
 10
230.705479
 20
-411.49933
 10
230.783478
 20
-411.564989
 10
230.859317
 20
-411.633421
 10
230.932844
 20
-411.704472
 10
231.003905
 20
-411.777991
 10
231.072347
 20
-411.853823
 10
231.138016
 20
-411.931815
 10
231.20076
 20
-412.011814
 10
231.260426
 20
-412.093666
 10
231.316859
 20
-412.17722
 10
231.369906
 20
-412.262321
 10
231.419415
 20
-412.348816
 10
231.465232
 20
-412.436551
 10
231.507203
 20
-412.525374
 10
231.545236
 20
-412.615108
 10
231.579468
 20
-412.705483
 10
231.610103
 20
-412.796206
 10
231.637339
 20
-412.886984
 10
231.661376
 20
-412.977521
 10
231.682414
 20
-413.067527
 10
231.700652
 20
-413.156707
 10
231.716291
 20
-413.244768
 10
231.729531
 20
-413.331416
 10
231.740571
 20
-413.416359
 10
231.749611
 20
-413.499301
 10
231.756853
 20
-413.579952
 10
231.762494
 20
-413.658016
 10
231.766735
 20
-413.733201
 10
231.769776
 20
-413.805213
 10
231.771818
 20
-413.873759
 10
231.773059
 20
-413.938546
 10
231.773699
 20
-413.999279
 10
231.773941
 20
-414.055667
 10
231.774022
 20
-414.43628
 10
231.774103
 20
-414.765031
 10
231.774082
 20
-414.816759
 10
231.773862
 20
-414.873126
 10
231.773244
 20
-414.933839
 10
231.772026
 20
-414.998603
 10
231.77001
 20
-415.067126
 10
231.766993
 20
-415.139115
 10
231.762778
 20
-415.214276
 10
231.757163
 20
-415.292316
 10
231.749949
 20
-415.372943
 10
231.740935
 20
-415.455864
 10
231.729921
 20
-415.540783
 10
231.716706
 20
-415.627411
 10
231.701093
 20
-415.715452
 10
231.682879
 20
-415.804613
 10
231.661865
 20
-415.894603
 10
231.63785
 20
-415.985126
 10
231.610636
 20
-416.075891
 10
231.580021
 20
-416.166605
 10
231.545804
 20
-416.256973
 10
231.507789
 20
-416.346704
 10
231.46583
 20
-416.435527
 10
231.420024
 20
-416.523265
 10
231.370524
 20
-416.609765
 10
231.317484
 20
-416.694874
 10
231.261057
 20
-416.778437
 10
231.201396
 20
-416.860304
 10
231.138654
 20
-416.940319
 10
231.072985
 20
-417.018327
 10
231.004543
 20
-417.094179
 10
230.93348
 20
-417.167718
 10
230.859951
 20
-417.238792
 10
230.784108
 20
-417.307248
 10
230.706105
 20
-417.372931
 10
230.626096
 20
-417.435689
 10
230.544233
 20
-417.495368
 10
230.46067
 20
-417.551815
 10
230.375562
 20
-417.604876
 10
230.28906
 20
-417.654398
 10
230.201318
 20
-417.700228
 10
230.11249
 20
-417.742211
 10
230.022752
 20
-417.780255
 10
229.932375
 20
-417.814499
 10
229.841653
 20
-417.845143
 10
229.750876
 20
-417.872388
 10
229.66034
 20
-417.896433
 10
229.570338
 20
-417.917479
 10
229.481161
 20
-417.935724
 10
229.393106
 20
-417.95137
 10
229.306463
 20
-417.964616
 10
229.221527
 20
-417.975662
 10
229.13859
 20
-417.984708
 10
229.057947
 20
-417.991953
 10
228.97989
 20
-417.997599
 10
228.904712
 20
-418.001845
 10
228.832708
 20
-418.00489
 10
228.764169
 20
-418.006934
 10
228.69939
 20
-418.008178
 10
228.638663
 20
-418.008821
 10
228.582283
 20
-418.009064
 10
228.201714
 20
-418.00916
 10
227.8729
 20
-418.009176
 10
227.82116
 20
-418.009144
 10
227.764782
 20
-418.008915
 10
227.704058
 20
-418.008284
 10
227.63928
 20
-418.007054
 10
227.570745
 20
-418.005024
 10
227.498743
 20
-418.001995
 10
227.423569
 20
-417.997765
 10
227.345514
 20
-417.992136
 10
227.264874
 20
-417.984907
 10
227.181941
 20
-417.975879
 10
227.097008
 20
-417.96485
 10
227.010367
 20
-417.951623
 10
226.922314
 20
-417.935995
 10
226.833142
 20
-417.917768
 10
226.743142
 20
-417.896741
 10
226.652608
 20
-417.872715
 10
226.561835
 20
-417.845489
 10
226.471114
 20
-417.814863
 10
226.38074
 20
-417.780637
 10
226.291004
 20
-417.742613
 10
226.202178
 20
-417.700647
 10
226.114439
 20
-417.654835
 10
226.027938
 20
-417.60533
 10
225.94283
 20
-417.552286
 10
225.859268
 20
-417.495856
 10
225.777406
 20
-417.436193
 10
225.697396
 20
-417.373451
 10
225.619391
 20
-417.307782
 10
225.543547
 20
-417.23934
 10
225.470015
 20
-417.16828
 10
225.398948
 20
-417.094754
 10
225.330501
 20
-417.018915
 10
225.264826
 20
-416.940917
 10
225.202078
 20
-416.860912
 10
225.142408
 20
-416.779055
 10
225.085971
 20
-416.6955
 10
225.03292
 20
-416.610398
 10
224.983407
 20
-416.523905
 10
224.937588
 20
-416.436172
 10
224.895615
 20
-416.347354
 10
224.85758
 20
-416.257627
 10
224.823347
 20
-416.167261
 10
224.792711
 20
-416.076549
 10
224.765476
 20
-415.985783
 10
224.741438
 20
-415.895259
 10
224.720402
 20
-415.805269
 10
224.702165
 20
-415.716105
 10
224.686526
 20
-415.628061
 10
224.673288
 20
-415.541431
 10
224.66225
 20
-415.456507
 10
224.653211
 20
-415.373583
 10
224.645972
 20
-415.292951
 10
224.640333
 20
-415.214906
 10
224.636094
 20
-415.13974
 10
224.633055
 20
-415.067747
 10
224.631016
 20
-414.999219
 10
224.629777
 20
-414.93445
 10
224.629139
 20
-414.873733
 10
224.628901
 20
-414.817361
 10
224.628835
 20
-414.436852
  0
LWPOLYLINE
  5
33
330
1F
100
AcDbEntity
  8
0
100
AcDbPolyline
 90
      245
 70
   128
 43
0.0
 10
295.024866
 20
-433.320049
 10
295.024799
 20
-432.991261
 10
295.024821
 20
-432.939525
 10
295.025043
 20
-432.883151
 10
295.025664
 20
-432.822432
 10
295.026884
 20
-432.75766
 10
295.028903
 20
-432.689129
 10
295.031921
 20
-432.617133
 10
295.036138
 20
-432.541962
 10
295.041756
 20
-432.463913
 10
295.048972
 20
-432.383277
 10
295.057988
 20
-432.300348
 10
295.069003
 20
-432.215418
 10
295.082218
 20
-432.128782
 10
295.097832
 20
-432.040732
 10
295.116046
 20
-431.95156
 10
295.13706
 20
-431.861562
 10
295.161074
 20
-431.771029
 10
295.188287
 20
-431.680255
 10
295.2189
 20
-431.589532
 10
295.253113
 20
-431.499156
 10
295.291126
 20
-431.409418
 10
295.33308
 20
-431.320587
 10
295.378881
 20
-431.232842
 10
295.428375
 20
-431.146335
 10
295.481409
 20
-431.06122
 10
295.53783
 20
-430.977649
 10
295.597484
 20
-430.895778
 10
295.660218
 20
-430.815758
 10
295.725878
 20
-430.737744
 10
295.794312
 20
-430.66189
 10
295.865366
 20
-430.588347
 10
295.938887
 20
-430.51727
 10
296.01472
 20
-430.448813
 10
296.092713
 20
-430.383128
 10
296.172714
 20
-430.320369
 10
296.254567
 20
-430.260691
 10
296.338121
 20
-430.204243
 10
296.423221
 20
-430.151184
 10
296.509714
 20
-430.101663
 10
296.597448
 20
-430.055837
 10
296.686268
 20
-430.013857
 10
296.775997
 20
-429.975817
 10
296.866367
 20
-429.941579
 10
296.957084
 20
-429.91094
 10
297.047853
 20
-429.883702
 10
297.138383
 20
-429.859663
 10
297.22838
 20
-429.838625
 10
297.317551
 20
-429.820387
 10
297.405601
 20
-429.804749
 10
297.492239
 20
-429.791511
 10
297.57717
 20
-429.780473
 10
297.660103
 20
-429.771435
 10
297.740742
 20
-429.764198
 10
297.818795
 20
-429.75856
 10
297.89397
 20
-429.754324
 10
297.965971
 20
-429.751287
 10
298.034506
 20
-429.74925
 10
298.099282
 20
-429.748014
 10
298.160007
 20
-429.747378
 10
298.216384
 20
-429.747141
 10
298.596938
 20
-429.747091
 10
298.925767
 20
-429.747036
 10
298.977508
 20
-429.74706
 10
299.033888
 20
-429.747285
 10
299.094615
 20
-429.747908
 10
299.159395
 20
-429.749131
 10
299.227933
 20
-429.751153
 10
299.299938
 20
-429.754174
 10
299.375116
 20
-429.758396
 10
299.453175
 20
-429.764016
 10
299.533819
 20
-429.771237
 10
299.616757
 20
-429.780257
 10
299.701694
 20
-429.791276
 10
299.788339
 20
-429.804496
 10
299.876397
 20
-429.820116
 10
299.965576
 20
-429.838335
 10
300.055581
 20
-429.859355
 10
300.146121
 20
-429.883374
 10
300.236901
 20
-429.910594
 10
300.327628
 20
-429.941215
 10
300.418011
 20
-429.975435
 10
300.507753
 20
-430.013456
 10
300.596587
 20
-430.055417
 10
300.684335
 20
-430.101226
 10
300.770845
 20
-430.15073
 10
300.855961
 20
-430.203773
 10
300.939532
 20
-430.260203
 10
301.021404
 20
-430.319866
 10
301.101422
 20
-430.38261
 10
301.179435
 20
-430.448282
 10
301.25529
 20
-430.516725
 10
301.32883
 20
-430.58779
 10
301.399905
 20
-430.661321
 10
301.46836
 20
-430.737166
 10
301.534041
 20
-430.815171
 10
301.596797
 20
-430.895183
 10
301.656473
 20
-430.977048
 10
301.712916
 20
-431.060613
 10
301.765972
 20
-431.145724
 10
301.815488
 20
-431.232229
 10
301.861311
 20
-431.319974
 10
301.903287
 20
-431.408806
 10
301.941322
 20
-431.498548
 10
301.975557
 20
-431.588929
 10
302.006192
 20
-431.679657
 10
302.033427
 20
-431.770438
 10
302.057461
 20
-431.86098
 10
302.078496
 20
-431.950988
 10
302.09673
 20
-432.04017
 10
302.112365
 20
-432.128231
 10
302.125599
 20
-432.21488
 10
302.136633
 20
-432.299821
 10
302.145667
 20
-432.382764
 10
302.152902
 20
-432.463413
 10
302.158535
 20
-432.541476
 10
302.162769
 20
-432.616659
 10
302.165803
 20
-432.688669
 10
302.167837
 20
-432.757212
 10
302.169071
 20
-432.821997
 10
302.169704
 20
-432.882728
 10
302.169939
 20
-432.939113
 10
302.169974
 20
-433.319713
 10
302.16999
 20
-433.648527
 10
302.169959
 20
-433.700266
 10
302.169728
 20
-433.756645
 10
302.169098
 20
-433.817369
 10
302.167868
 20
-433.882145
 10
302.165838
 20
-433.950681
 10
302.162809
 20
-434.022683
 10
302.158581
 20
-434.097857
 10
302.152953
 20
-434.17591
 10
302.145725
 20
-434.256549
 10
302.136699
 20
-434.339482
 10
302.125673
 20
-434.424415
 10
302.112447
 20
-434.511053
 10
302.096823
 20
-434.599104
 10
302.0786
 20
-434.688276
 10
302.057577
 20
-434.778273
 10
302.033556
 20
-434.868804
 10
302.006334
 20
-434.959575
 10
301.975715
 20
-435.050293
 10
301.941497
 20
-435.140664
 10
301.903479
 20
-435.230396
 10
301.861522
 20
-435.319217
 10
301.815718
 20
-435.406953
 10
301.766224
 20
-435.493448
 10
301.713188
 20
-435.578551
 10
301.656768
 20
-435.662108
 10
301.597115
 20
-435.743964
 10
301.534381
 20
-435.823968
 10
301.468721
 20
-435.901966
 10
301.40029
 20
-435.977804
 10
301.329237
 20
-436.051329
 10
301.255717
 20
-436.122388
 10
301.179884
 20
-436.190827
 10
301.10189
 20
-436.256493
 10
301.021889
 20
-436.319234
 10
300.940034
 20
-436.378895
 10
300.856479
 20
-436.435324
 10
300.771376
 20
-436.488366
 10
300.684878
 20
-436.537869
 10
300.597139
 20
-436.583679
 10
300.508312
 20
-436.625642
 10
300.418574
 20
-436.663667
 10
300.328194
 20
-436.69789
 10
300.237467
 20
-436.728516
 10
300.146685
 20
-436.755741
 10
300.056141
 20
-436.779767
 10
299.96613
 20
-436.800794
 10
299.876944
 20
-436.819021
 10
299.788878
 20
-436.834648
 10
299.702224
 20
-436.847877
 10
299.617276
 20
-436.858905
 10
299.534327
 20
-436.867934
 10
299.453671
 20
-436.875164
 10
299.375601
 20
-436.880794
 10
299.300411
 20
-436.885023
 10
299.228393
 20
-436.888054
 10
299.159842
 20
-436.890084
 10
299.09505
 20
-436.891316
 10
299.034313
 20
-436.891947
 10
298.97792
 20
-436.892178
 10
298.597276
 20
-436.892198
 10
298.268501
 20
-436.892228
 10
298.216768
 20
-436.892198
 10
298.160396
 20
-436.89197
 10
298.099679
 20
-436.891342
 10
298.034909
 20
-436.890115
 10
297.966382
 20
-436.888087
 10
297.894388
 20
-436.885061
 10
297.819222
 20
-436.880836
 10
297.741175
 20
-436.87521
 10
297.660543
 20
-436.867985
 10
297.577619
 20
-436.858962
 10
297.492694
 20
-436.847938
 10
297.406062
 20
-436.834714
 10
297.318017
 20
-436.819092
 10
297.228851
 20
-436.800871
 10
297.138859
 20
-436.77985
 10
297.048332
 20
-436.755829
 10
296.957565
 20
-436.72861
 10
296.866849
 20
-436.697992
 10
296.77648
 20
-436.663774
 10
296.686749
 20
-436.625756
 10
296.597927
 20
-436.583798
 10
296.51019
 20
-436.537995
 10
296.423691
 20
-436.488499
 10
296.338585
 20
-436.435463
 10
296.255025
 20
-436.379042
 10
296.173162
 20
-436.319388
 10
296.093154
 20
-436.256654
 10
296.01515
 20
-436.190994
 10
295.939306
 20
-436.122562
 10
295.865774
 20
-436.05151
 10
295.794708
 20
-435.977992
 10
295.726262
 20
-435.90216
 10
295.660587
 20
-435.82417
 10
295.59784
 20
-435.744172
 10
295.538172
 20
-435.662323
 10
295.481738
 20
-435.578773
 10
295.42869
 20
-435.493677
 10
295.379181
 20
-435.407187
 10
295.333366
 20
-435.319457
 10
295.291398
 20
-435.230642
 10
295.25337
 20
-435.140916
 10
295.219143
 20
-435.05055
 10
295.188516
 20
-434.959838
 10
295.161289
 20
-434.869072
 10
295.137262
 20
-434.778546
 10
295.116235
 20
-434.688552
 10
295.098008
 20
-434.599386
 10
295.082381
 20
-434.511338
 10
295.069154
 20
-434.424704
 10
295.058126
 20
-434.339777
 10
295.049099
 20
-434.256848
 10
295.041871
 20
-434.176212
 10
295.036244
 20
-434.098161
 10
295.032016
 20
-434.02299
 10
295.028987
 20
-433.950992
 10
295.026959
 20
-433.88246
 10
295.02573
 20
-433.817685
 10
295.025101
 20
-433.756964
 10
295.024872
 20
-433.700588
 10
295.024866
 20
-433.320049
  0
LWPOLYLINE
  5
34
330
1F
100
AcDbEntity
  8
0
100
AcDbPolyline
 90
      245
 70
   128
 43
0.0
 10
294.111363
 20
-716.672284
 10
294.111296
 20
-717.001072
 10
294.111318
 20
-717.052808
 10
294.11154
 20
-717.109182
 10
294.112161
 20
-717.169901
 10
294.113381
 20
-717.234674
 10
294.1154
 20
-717.303204
 10
294.118418
 20
-717.375201
 10
294.122635
 20
-717.450371
 10
294.128253
 20
-717.52842
 10
294.135469
 20
-717.609056
 10
294.144485
 20
-717.691986
 10
294.1555
 20
-717.776916
 10
294.168715
 20
-717.863552
 10
294.184329
 20
-717.951602
 10
294.202543
 20
-718.040774
 10
294.223557
 20
-718.130772
 10
294.247571
 20
-718.221305
 10
294.274784
 20
-718.312078
 10
294.305397
 20
-718.402801
 10
294.33961
 20
-718.493177
 10
294.377623
 20
-718.582916
 10
294.419577
 20
-718.671747
 10
294.465378
 20
-718.759492
 10
294.514872
 20
-718.845999
 10
294.567906
 20
-718.931114
 10
294.624327
 20
-719.014684
 10
294.683981
 20
-719.096556
 10
294.746715
 20
-719.176575
 10
294.812375
 20
-719.254589
 10
294.880809
 20
-719.330444
 10
294.951863
 20
-719.403987
 10
295.025384
 20
-719.475064
 10
295.101217
 20
-719.543521
 10
295.17921
 20
-719.609206
 10
295.259211
 20
-719.671965
 10
295.341064
 20
-719.731643
 10
295.424618
 20
-719.78809
 10
295.509718
 20
-719.84115
 10
295.596211
 20
-719.89067
 10
295.683945
 20
-719.936496
 10
295.772765
 20
-719.978477
 10
295.862494
 20
-720.016516
 10
295.952864
 20
-720.050755
 10
296.043581
 20
-720.081393
 10
296.13435
 20
-720.108632
 10
296.22488
 20
-720.13267
 10
296.314877
 20
-720.153709
 10
296.404048
 20
-720.171947
 10
296.492098
 20
-720.187585
 10
296.578736
 20
-720.200823
 10
296.663667
 20
-720.211861
 10
296.7466
 20
-720.220898
 10
296.827239
 20
-720.228135
 10
296.905292
 20
-720.233773
 10
296.980467
 20
-720.23801
 10
297.052468
 20
-720.241047
 10
297.121003
 20
-720.243084
 10
297.185779
 20
-720.24432
 10
297.246504
 20
-720.244956
 10
297.302881
 20
-720.245192
 10
297.683435
 20
-720.245243
 10
298.012264
 20
-720.245297
 10
298.064005
 20
-720.245273
 10
298.120385
 20
-720.245048
 10
298.181112
 20
-720.244425
 10
298.245892
 20
-720.243203
 10
298.31443
 20
-720.24118
 10
298.386435
 20
-720.238159
 10
298.461613
 20
-720.233938
 10
298.539672
 20
-720.228318
 10
298.620316
 20
-720.221097
 10
298.703254
 20
-720.212077
 10
298.788191
 20
-720.201057
 10
298.874836
 20
-720.187838
 10
298.962894
 20
-720.172218
 10
299.052073
 20
-720.153998
 10
299.142078
 20
-720.132978
 10
299.232618
 20
-720.108959
 10
299.323398
 20
-720.081739
 10
299.414126
 20
-720.051119
 10
299.504508
 20
-720.016898
 10
299.59425
 20
-719.978878
 10
299.683084
 20
-719.936916
 10
299.770832
 20
-719.891107
 10
299.857342
 20
-719.841604
 10
299.942459
 20
-719.78856
 10
300.026029
 20
-719.73213
 10
300.107901
 20
-719.672467
 10
300.187919
 20
-719.609723
 10
300.265932
 20
-719.544052
 10
300.341787
 20
-719.475608
 10
300.415327
 20
-719.404543
 10
300.486402
 20
-719.331012
 10
300.554857
 20
-719.255168
 10
300.620538
 20
-719.177162
 10
300.683294
 20
-719.097151
 10
300.74297
 20
-719.015285
 10
300.799413
 20
-718.931721
 10
300.852469
 20
-718.846609
 10
300.901985
 20
-718.760104
 10
300.947808
 20
-718.672359
 10
300.989784
 20
-718.583528
 10
301.027819
 20
-718.493786
 10
301.062054
 20
-718.403405
 10
301.092689
 20
-718.312677
 10
301.119924
 20
-718.221895
 10
301.143958
 20
-718.131354
 10
301.164993
 20
-718.041346
 10
301.183227
 20
-717.952164
 10
301.198862
 20
-717.864103
 10
301.212096
 20
-717.777454
 10
301.22313
 20
-717.692512
 10
301.232164
 20
-717.609569
 10
301.239399
 20
-717.52892
 10
301.245032
 20
-717.450858
 10
301.249266
 20
-717.375675
 10
301.2523
 20
-717.303665
 10
301.254334
 20
-717.235121
 10
301.255568
 20
-717.170337
 10
301.256201
 20
-717.109605
 10
301.256436
 20
-717.053221
 10
301.256471
 20
-716.672621
 10
301.256487
 20
-716.343806
 10
301.256456
 20
-716.292068
 10
301.256225
 20
-716.235689
 10
301.255595
 20
-716.174964
 10
301.254365
 20
-716.110188
 10
301.252335
 20
-716.041653
 10
301.249306
 20
-715.969651
 10
301.245078
 20
-715.894477
 10
301.23945
 20
-715.816423
 10
301.232222
 20
-715.735784
 10
301.223196
 20
-715.652852
 10
301.21217
 20
-715.567919
 10
301.198944
 20
-715.48128
 10
301.18332
 20
-715.393229
 10
301.165097
 20
-715.304058
 10
301.144074
 20
-715.21406
 10
301.120053
 20
-715.123529
 10
301.092831
 20
-715.032759
 10
301.062212
 20
-714.94204
 10
301.027994
 20
-714.85167
 10
300.989976
 20
-714.761937
 10
300.948019
 20
-714.673116
 10
300.902215
 20
-714.58538
 10
300.852721
 20
-714.498885
 10
300.799685
 20
-714.413782
 10
300.743265
 20
-714.330226
 10
300.683612
 20
-714.248369
 10
300.620878
 20
-714.168366
 10
300.555218
 20
-714.090368
 10
300.486787
 20
-714.014529
 10
300.415734
 20
-713.941004
 10
300.342214
 20
-713.869945
 10
300.266381
 20
-713.801506
 10
300.188387
 20
-713.73584
 10
300.108386
 20
-713.673099
 10
300.026531
 20
-713.613438
 10
299.942976
 20
-713.55701
 10
299.857873
 20
-713.503967
 10
299.771375
 20
-713.454465
 10
299.683636
 20
-713.408655
 10
299.594809
 20
-713.366691
 10
299.505071
 20
-713.328667
 10
299.414691
 20
-713.294443
 10
299.323964
 20
-713.263818
 10
299.233182
 20
-713.236593
 10
299.142638
 20
-713.212566
 10
299.052627
 20
-713.19154
 10
298.963441
 20
-713.173313
 10
298.875375
 20
-713.157685
 10
298.788721
 20
-713.144456
 10
298.703773
 20
-713.133429
 10
298.620824
 20
-713.124399
 10
298.540168
 20
-713.11717
 10
298.462098
 20
-713.11154
 10
298.386908
 20
-713.10731
 10
298.31489
 20
-713.10428
 10
298.246339
 20
-713.102249
 10
298.181547
 20
-713.101018
 10
298.12081
 20
-713.100387
 10
298.064417
 20
-713.100155
 10
297.683773
 20
-713.100135
 10
297.354998
 20
-713.100106
 10
297.303265
 20
-713.100135
 10
297.246893
 20
-713.100364
 10
297.186176
 20
-713.100991
 10
297.121406
 20
-713.102219
 10
297.052879
 20
-713.104246
 10
296.980885
 20
-713.107272
 10
296.905719
 20
-713.111498
 10
296.827672
 20
-713.117123
 10
296.74704
 20
-713.124348
 10
296.664116
 20
-713.133372
 10
296.579191
 20
-713.144395
 10
296.492559
 20
-713.157619
 10
296.404514
 20
-713.173241
 10
296.315348
 20
-713.191463
 10
296.225356
 20
-713.212484
 10
296.134829
 20
-713.236504
 10
296.044062
 20
-713.263723
 10
295.953346
 20
-713.294342
 10
295.862977
 20
-713.32856
 10
295.773246
 20
-713.366578
 10
295.684424
 20
-713.408535
 10
295.596687
 20
-713.454338
 10
295.510188
 20
-713.503834
 10
295.425082
 20
-713.55687
 10
295.341522
 20
-713.613291
 10
295.259659
 20
-713.672946
 10
295.179651
 20
-713.73568
 10
295.101647
 20
-713.801339
 10
295.025803
 20
-713.869772
 10
294.952271
 20
-713.940824
 10
294.881205
 20
-714.014342
 10
294.812759
 20
-714.090173
 10
294.747084
 20
-714.168164
 10
294.684337
 20
-714.248161
 10
294.624669
 20
-714.330011
 10
294.568235
 20
-714.413561
 10
294.515187
 20
-714.498657
 10
294.465678
 20
-714.585147
 10
294.419863
 20
-714.672876
 10
294.377895
 20
-714.761692
 10
294.339867
 20
-714.851418
 10
294.30564
 20
-714.941784
 10
294.275013
 20
-715.032496
 10
294.247786
 20
-715.123261
 10
294.223759
 20
-715.213788
 10
294.202732
 20
-715.303781
 10
294.184505
 20
-715.392948
 10
294.168878
 20
-715.480995
 10
294.155651
 20
-715.567629
 10
294.144623
 20
-715.652556
 10
294.135596
 20
-715.735485
 10
294.128368
 20
-715.816122
 10
294.122741
 20
-715.894172
 10
294.118513
 20
-715.969343
 10
294.115484
 20
-716.041341
 10
294.113456
 20
-716.109874
 10
294.112227
 20
-716.174648
 10
294.111598
 20
-716.23537
 10
294.111369
 20
-716.291745
 10
294.111363
 20
-716.672284
  0
LWPOLYLINE
  5
35
330
1F
100
AcDbEntity
  8
0
100
AcDbPolyline
 90
      264
 70
   128
 43
0.0
 10
223.715332
 20
-735.555481
 10
223.715343
 20
-735.884374
 10
223.715378
 20
-735.936126
 10
223.715612
 20
-735.992518
 10
223.716247
 20
-736.053256
 10
223.717482
 20
-736.118047
 10
223.719517
 20
-736.186599
 10
223.722552
 20
-736.258617
 10
223.726786
 20
-736.333808
 10
223.73242
 20
-736.411878
 10
223.739654
 20
-736.492535
 10
223.748685
 20
-736.575486
 10
223.759718
 20
-736.660436
 10
223.772949
 20
-736.747091
 10
223.788579
 20
-736.83516
 10
223.806808
 20
-736.924348
 10
223.827836
 20
-737.014362
 10
223.851864
 20
-737.104909
 10
223.879089
 20
-737.195695
 10
223.909714
 20
-737.286428
 10
223.943936
 20
-737.376812
 10
223.981958
 20
-737.466556
 10
224.023919
 20
-737.555389
 10
224.069726
 20
-737.643134
 10
224.119224
 20
-737.729639
 10
224.172261
 20
-737.81475
 10
224.228684
 20
-737.898313
 10
224.288338
 20
-737.980177
 10
224.351072
 20
-738.060186
 10
224.416731
 20
-738.138189
 10
224.485163
 20
-738.214031
 10
224.556214
 20
-738.28756
 10
224.629732
 20
-738.358623
 10
224.705562
 20
-738.427066
 10
224.783551
 20
-738.492737
 10
224.863546
 20
-738.555479
 10
224.945396
 20
-738.615144
 10
225.028945
 20
-738.671575
 10
225.11404
 20
-738.72462
 10
225.200528
 20
-738.774126
 10
225.288258
 20
-738.81994
 10
225.377073
 20
-738.861907
 10
225.466799
 20
-738.899936
 10
225.557165
 20
-738.934164
 10
225.647879
 20
-738.964794
 10
225.738646
 20
-738.992024
 10
225.829173
 20
-739.016056
 10
225.919168
 20
-739.037088
 10
226.008337
 20
-739.055321
 10
226.096386
 20
-739.070954
 10
226.183022
 20
-739.084188
 10
226.267953
 20
-739.095223
 10
226.350884
 20
-739.104257
 10
226.431523
 20
-739.111493
 10
226.509575
 20
-739.117128
 10
226.584749
 20
-739.121364
 10
226.65675
 20
-739.1244
 10
226.725285
 20
-739.126436
 10
226.790062
 20
-739.127672
 10
226.850785
 20
-739.128308
 10
226.907164
 20
-739.128544
 10
226.958903
 20
-739.12858
 10
227.005842
 20
-739.128582
 10
227.048341
 20
-739.128585
 10
227.086894
 20
-739.128586
 10
227.121996
 20
-739.128587
 10
227.154137
 20
-739.12859
 10
227.183812
 20
-739.128591
 10
227.211515
 20
-739.128592
 10
227.237738
 20
-739.128593
 10
227.262975
 20
-739.128594
 10
227.287718
 20
-739.128595
 10
227.312461
 20
-739.128597
 10
227.337698
 20
-739.128598
 10
227.363921
 20
-739.128599
 10
227.391623
 20
-739.1286
 10
227.421299
 20
-739.128601
 10
227.45344
 20
-739.128603
 10
227.488542
 20
-739.128604
 10
227.527095
 20
-739.128606
 10
227.569595
 20
-739.128609
 10
227.616532
 20
-739.128611
 10
227.668272
 20
-739.12858
 10
227.72465
 20
-739.12835
 10
227.785374
 20
-739.127719
 10
227.850151
 20
-739.126489
 10
227.918686
 20
-739.12446
 10
227.990688
 20
-739.121431
 10
228.065862
 20
-739.117202
 10
228.143916
 20
-739.111574
 10
228.224556
 20
-739.104347
 10
228.307488
 20
-739.09532
 10
228.39242
 20
-739.084295
 10
228.479058
 20
-739.071069
 10
228.567109
 20
-739.055445
 10
228.656281
 20
-739.037221
 10
228.746279
 20
-739.016198
 10
228.83681
 20
-738.992177
 10
228.927581
 20
-738.964956
 10
229.018299
 20
-738.934337
 10
229.10867
 20
-738.900117
 10
229.198401
 20
-738.862101
 10
229.287223
 20
-738.820143
 10
229.374958
 20
-738.77434
 10
229.461455
 20
-738.724844
 10
229.546558
 20
-738.67181
 10
229.630114
 20
-738.61539
 10
229.711972
 20
-738.555736
 10
229.791976
 20
-738.493003
 10
229.869975
 20
-738.427345
 10
229.945814
 20
-738.358912
 10
230.019341
 20
-738.287861
 10
230.090402
 20
-738.214342
 10
230.158844
 20
-738.138511
 10
230.224514
 20
-738.060518
 10
230.287257
 20
-737.98052
 10
230.346923
 20
-737.898667
 10
230.403356
 20
-737.815113
 10
230.456403
 20
-737.730013
 10
230.505912
 20
-737.643518
 10
230.551729
 20
-737.555783
 10
230.5937
 20
-737.466959
 10
230.631733
 20
-737.377225
 10
230.665965
 20
-737.28685
 10
230.6966
 20
-737.196127
 10
230.723836
 20
-737.10535
 10
230.747873
 20
-737.014812
 10
230.768911
 20
-736.924806
 10
230.787149
 20
-736.835626
 10
230.802788
 20
-736.747565
 10
230.816028
 20
-736.660917
 10
230.827068
 20
-736.575975
 10
230.836108
 20
-736.493032
 10
230.84335
 20
-736.412382
 10
230.848991
 20
-736.334317
 10
230.853232
 20
-736.259133
 10
230.856273
 20
-736.18712
 10
230.858315
 20
-736.118574
 10
230.859556
 20
-736.053788
 10
230.860196
 20
-735.993054
 10
230.860438
 20
-735.936667
 10
230.860519
 20
-735.556053
 10
230.8606
 20
-735.227303
 10
230.860579
 20
-735.175574
 10
230.860359
 20
-735.119207
 10
230.859741
 20
-735.058494
 10
230.858523
 20
-734.993731
 10
230.856507
 20
-734.925207
 10
230.85349
 20
-734.853219
 10
230.849275
 20
-734.778058
 10
230.84366
 20
-734.700017
 10
230.836446
 20
-734.61939
 10
230.827432
 20
-734.53647
 10
230.816418
 20
-734.45155
 10
230.803203
 20
-734.364923
 10
230.78759
 20
-734.276882
 10
230.769376
 20
-734.18772
 10
230.748362
 20
-734.097731
 10
230.724347
 20
-734.007208
 10
230.697133
 20
-733.916442
 10
230.666518
 20
-733.825729
 10
230.632301
 20
-733.73536
 10
230.594286
 20
-733.64563
 10
230.552327
 20
-733.556807
 10
230.506521
 20
-733.469069
 10
230.457021
 20
-733.382569
 10
230.403981
 20
-733.29746
 10
230.347554
 20
-733.213896
 10
230.287893
 20
-733.13203
 10
230.225151
 20
-733.052015
 10
230.159482
 20
-732.974006
 10
230.09104
 20
-732.898155
 10
230.019977
 20
-732.824616
 10
229.946448
 20
-732.753542
 10
229.870605
 20
-732.685086
 10
229.792602
 20
-732.619402
 10
229.712593
 20
-732.556644
 10
229.63073
 20
-732.496965
 10
229.547167
 20
-732.440519
 10
229.462059
 20
-732.387457
 10
229.375557
 20
-732.337936
 10
229.287815
 20
-732.292106
 10
229.198987
 20
-732.250122
 10
229.109249
 20
-732.212079
 10
229.018873
 20
-732.177835
 10
228.92815
 20
-732.147191
 10
228.837373
 20
-732.119946
 10
228.746837
 20
-732.0959
 10
228.656835
 20
-732.074855
 10
228.567658
 20
-732.05661
 10
228.479603
 20
-732.040963
 10
228.39296
 20
-732.027718
 10
228.308024
 20
-732.016672
 10
228.225087
 20
-732.007625
 10
228.144444
 20
-732.00038
 10
228.066387
 20
-731.994734
 10
227.991209
 20
-731.990489
 10
227.919205
 20
-731.987444
 10
227.850666
 20
-731.9854
 10
227.785887
 20
-731.984155
 10
227.72516
 20
-731.983512
 10
227.66878
 20
-731.983269
 10
227.288211
 20
-731.983174
 10
226.959397
 20
-731.983158
 10
226.907657
 20
-731.983189
 10
226.851279
 20
-731.983419
 10
226.790555
 20
-731.98405
 10
226.725777
 20
-731.98528
 10
226.657242
 20
-731.98731
 10
226.58524
 20
-731.990339
 10
226.510066
 20
-731.994568
 10
226.432011
 20
-732.000198
 10
226.351371
 20
-732.007427
 10
226.268438
 20
-732.016455
 10
226.183505
 20
-732.027483
 10
226.096864
 20
-732.040711
 10
226.008811
 20
-732.056339
 10
225.919639
 20
-732.074565
 10
225.829639
 20
-732.095592
 10
225.739105
 20
-732.119618
 10
225.648332
 20
-732.146844
 10
225.557611
 20
-732.177471
 10
225.467237
 20
-732.211696
 10
225.377501
 20
-732.249721
 10
225.288675
 20
-732.291686
 10
225.200936
 20
-732.337499
 10
225.114435
 20
-732.387003
 10
225.029327
 20
-732.440047
 10
224.945765
 20
-732.496478
 10
224.863903
 20
-732.556141
 10
224.783893
 20
-732.618883
 10
224.705888
 20
-732.684551
 10
224.630044
 20
-732.752993
 10
224.556512
 20
-732.824053
 10
224.485445
 20
-732.89758
 10
224.416998
 20
-732.973419
 10
224.351323
 20
-733.051417
 10
224.288575
 20
-733.131421
 10
224.228905
 20
-733.213278
 10
224.172468
 20
-733.296834
 10
224.119417
 20
-733.381935
 10
224.069904
 20
-733.468428
 10
224.024085
 20
-733.556161
 10
223.982112
 20
-733.64498
 10
223.944077
 20
-733.734707
 10
223.909844
 20
-733.825073
 10
223.879208
 20
-733.915785
 10
223.851973
 20
-734.00655
 10
223.827935
 20
-734.097075
 10
223.806899
 20
-734.187065
 10
223.788662
 20
-734.276229
 10
223.773023
 20
-734.364273
 10
223.759785
 20
-734.450903
 10
223.748747
 20
-734.535826
 10
223.739708
 20
-734.618751
 10
223.732469
 20
-734.699382
 10
223.72683
 20
-734.777428
 10
223.722591
 20
-734.852593
 10
223.719552
 20
-734.924587
 10
223.717513
 20
-734.993115
 10
223.716274
 20
-735.057883
 10
223.715636
 20
-735.118601
 10
223.715398
 20
-735.174972
 10
223.715332
 20
-735.555481
  0
LWPOLYLINE
  5
36
330
1F
100
AcDbEntity
  8
0
100
AcDbPolyline
 90
      304
 70
   128
 43
0.0
 10
797.004971
 20
-695.474972
 10
1078.869537
 20
-679.209185
 10
1079.033294
 20
-679.179587
 10
1079.384486
 20
-679.118438
 10
1079.756824
 20
-679.057021
 10
1080.147778
 20
-678.997018
 10
1080.554818
 20
-678.940114
 10
1080.975415
 20
-678.887992
 10
1081.407038
 20
-678.842335
 10
1081.847157
 20
-678.804827
 10
1082.293242
 20
-678.77715
 10
1082.742763
 20
-678.760989
 10
1083.193191
 20
-678.758026
 10
1083.641995
 20
-678.769945
 10
1084.086644
 20
-678.79843
 10
1084.524611
 20
-678.845163
 10
1084.953363
 20
-678.911828
 10
1085.370371
 20
-679.000108
 10
1085.773106
 20
-679.111687
 10
1086.159036
 20
-679.248249
 10
1086.525633
 20
-679.411475
 10
1086.870801
 20
-679.60243
 10
1087.194188
 20
-679.819694
 10
1087.495874
 20
-680.061226
 10
1087.775942
 20
-680.324987
 10
1088.034475
 20
-680.608936
 10
1088.271553
 20
-680.911034
 10
1088.487259
 20
-681.229239
 10
1088.681676
 20
-681.561513
 10
1088.854884
 20
-681.905815
 10
1089.006966
 20
-682.260105
 10
1089.138004
 20
-682.622343
 10
1089.248079
 20
-682.990488
 10
1089.337275
 20
-683.362501
 10
1089.405672
 20
-683.736342
 10
1089.453353
 20
-684.10997
 10
1089.480399
 20
-684.481345
 10
1089.486894
 20
-684.848428
 10
1089.472918
 20
-685.209178
 10
1089.438553
 20
-685.561555
 10
1089.383882
 20
-685.903518
 10
1089.309253
 20
-686.233385
 10
1089.216078
 20
-686.550892
 10
1089.106037
 20
-686.856133
 10
1088.980807
 20
-687.149203
 10
1088.842068
 20
-687.430195
 10
1088.691499
 20
-687.699202
 10
1088.530779
 20
-687.95632
 10
1088.361586
 20
-688.20164
 10
1088.185599
 20
-688.435258
 10
1088.004496
 20
-688.657267
 10
1087.819958
 20
-688.867761
 10
1087.633663
 20
-689.066833
 10
1087.447288
 20
-689.254578
 10
1087.262515
 20
-689.431088
 10
1087.08102
 20
-689.596459
 10
1086.904483
 20
-689.750783
 10
1086.734583
 20
-689.894155
 10
1086.572999
 20
-690.026669
 10
1086.421408
 20
-690.148417
 10
1086.281492
 20
-690.259494
 10
1085.391354
 20
-690.964648
 10
1079.613752
 20
-695.840483
 10
1078.756792
 20
-696.563148
 10
1077.832071
 20
-697.342049
 10
1076.84315
 20
-698.173709
 10
1075.793588
 20
-699.05465
 10
1074.686944
 20
-699.981392
 10
1073.526779
 20
-700.950458
 10
1072.316651
 20
-701.958369
 10
1071.060121
 20
-703.001648
 10
1069.760748
 20
-704.076815
 10
1068.422092
 20
-705.180393
 10
1067.047711
 20
-706.308904
 10
1065.641167
 20
-707.458869
 10
1064.206018
 20
-708.626809
 10
1062.745824
 20
-709.809248
 10
1061.264145
 20
-711.002705
 10
1059.76454
 20
-712.203704
 10
1058.250569
 20
-713.408766
 10
1056.725792
 20
-714.614412
 10
1055.193767
 20
-715.817164
 10
1053.657873
 20
-717.014512
 10
1052.120754
 20
-718.207811
 10
1050.584874
 20
-719.399385
 10
1049.052696
 20
-720.591557
 10
1047.526682
 20
-721.786652
 10
1046.009296
 20
-722.986992
 10
1044.503
 20
-724.1949
 10
1043.010258
 20
-725.412701
 10
1041.533533
 20
-726.642718
 10
1040.075288
 20
-727.887274
 10
1038.637985
 20
-729.148693
 10
1037.224087
 20
-730.429298
 10
1035.836058
 20
-731.731413
 10
1034.476361
 20
-733.057361
 10
1033.147459
 20
-734.409466
 10
1031.851814
 20
-735.79005
 10
1030.591889
 20
-737.201439
 10
1029.370148
 20
-738.645954
 10
1028.189054
 20
-740.12592
 10
1027.051069
 20
-741.643659
 10
1025.958141
 20
-743.199968
 10
1024.910157
 20
-744.789522
 10
1023.906487
 20
-746.405473
 10
1022.946504
 20
-748.040969
 10
1022.029577
 20
-749.689158
 10
1021.155078
 20
-751.343192
 10
1020.322378
 20
-752.996217
 10
1019.530849
 20
-754.641385
 10
1018.77986
 20
-756.271843
 10
1018.068784
 20
-757.880742
 10
1017.396991
 20
-759.46123
 10
1016.763852
 20
-761.006457
 10
1016.168739
 20
-762.509571
 10
1015.611023
 20
-763.963722
 10
1015.090075
 20
-765.362059
 10
1014.605265
 20
-766.697731
 10
1014.155965
 20
-767.963888
 10
1013.741546
 20
-769.153679
 10
1013.361379
 20
-770.260252
 10
1013.014835
 20
-771.276758
 10
1010.815221
 20
-777.73801
 10
1010.474685
 20
-778.550606
 10
1010.423935
 20
-778.670615
 10
1010.36877
 20
-778.799243
 10
1010.309191
 20
-778.935536
 10
1010.245196
 20
-779.078537
 10
1010.176784
 20
-779.22729
 10
1010.103956
 20
-779.38084
 10
1010.02671
 20
-779.53823
 10
1009.945046
 20
-779.698504
 10
1009.858962
 20
-779.860706
 10
1009.768459
 20
-780.023881
 10
1009.673536
 20
-780.187071
 10
1009.574192
 20
-780.349321
 10
1009.470427
 20
-780.509676
 10
1009.362239
 20
-780.667178
 10
1009.249628
 20
-780.820872
 10
1009.132594
 20
-780.969803
 10
1009.011135
 20
-781.113013
 10
1008.885251
 20
-781.249546
 10
1008.754942
 20
-781.378448
 10
1008.620204
 20
-781.498913
 10
1008.481017
 20
-781.610749
 10
1008.33736
 20
-781.713912
 10
1008.18921
 20
-781.808361
 10
1008.036547
 20
-781.894053
 10
1007.879348
 20
-781.970947
 10
1007.717591
 20
-782.039001
 10
1007.551254
 20
-782.098173
 10
1007.380315
 20
-782.14842
 10
1007.204753
 20
-782.189701
 10
1007.024544
 20
-782.221973
 10
1006.839668
 20
-782.245195
 10
1006.650103
 20
-782.259325
 10
1006.455826
 20
-782.264321
 10
1006.256815
 20
-782.26014
 10
1006.053049
 20
-782.24674
 10
1005.844505
 20
-782.224081
 10
1005.631162
 20
-782.192119
 10
1005.412998
 20
-782.150812
 10
1005.18999
 20
-782.100119
 10
1004.962276
 20
-782.040146
 10
1004.730624
 20
-781.97159
 10
1004.495965
 20
-781.895297
 10
1004.259225
 20
-781.812112
 10
1004.021335
 20
-781.722881
 10
1003.783221
 20
-781.62845
 10
1003.545814
 20
-781.529664
 10
1003.31004
 20
-781.42737
 10
1003.076829
 20
-781.322412
 10
1002.847109
 20
-781.215636
 10
1002.621809
 20
-781.107888
 10
1002.401857
 20
-781.000014
 10
1002.188181
 20
-780.892859
 10
1001.98171
 20
-780.787269
 10
1001.783373
 20
-780.684089
 10
1001.594098
 20
-780.584165
 10
1001.414814
 20
-780.488343
 10
1001.246448
 20
-780.397468
 10
1001.089931
 20
-780.312386
 10
1000.946188
 20
-780.233943
 10
1000.032558
 20
-779.734995
 10
1000.028326
 20
-779.733517
 10
999.998698
 20
-779.723168
 10
999.918279
 20
-779.695077
 10
999.761675
 20
-779.640374
 10
999.50349
 20
-779.550187
 10
999.118328
 20
-779.415647
 10
998.580794
 20
-779.227881
 10
997.865493
 20
-778.97802
 10
996.94703
 20
-778.657193
 10
995.800009
 20
-778.256528
 10
994.399036
 20
-777.767156
 10
992.718714
 20
-777.180204
 10
990.733648
 20
-776.486803
 10
988.418444
 20
-775.678082
 10
985.747706
 20
-774.745169
 10
982.696038
 20
-773.679195
 10
979.238045
 20
-772.471287
 10
975.348333
 20
-771.112576
 10
971.001505
 20
-769.59419
 10
966.172167
 20
-767.907259
 10
960.84762
 20
-766.047348
 10
955.065958
 20
-764.027762
 10
948.877972
 20
-761.866243
 10
942.334451
 20
-759.580533
 10
935.486187
 20
-757.188374
 10
928.38397
 20
-754.707506
 10
921.07859
 20
-752.155672
 10
913.620839
 20
-749.550613
 10
906.061506
 20
-746.910071
 10
898.451383
 20
-744.251787
 10
890.84126
 20
-741.593504
 10
883.281928
 20
-738.952961
 10
875.824177
 20
-736.347903
 10
868.518797
 20
-733.796069
 10
861.41658
 20
-731.315201
 10
854.568316
 20
-728.923041
 10
848.024795
 20
-726.637331
 10
841.836809
 20
-724.475813
 10
836.055147
 20
-722.456227
 10
830.7306
 20
-720.596315
 10
825.901262
 20
-718.909384
 10
821.554434
 20
-717.390999
 10
817.664722
 20
-716.032287
 10
814.206729
 20
-714.82438
 10
811.155061
 20
-713.758405
 10
808.484323
 20
-712.825492
 10
806.169119
 20
-712.016771
 10
804.184053
 20
-711.32337
 10
802.503731
 20
-710.736419
 10
801.102758
 20
-710.247046
 10
799.955737
 20
-709.846381
 10
799.037274
 20
-709.525554
 10
798.321973
 20
-709.275693
 10
797.784439
 20
-709.087928
 10
797.399277
 20
-708.953387
 10
797.141092
 20
-708.863201
 10
796.984487
 20
-708.808498
 10
796.904069
 20
-708.780407
 10
796.874441
 20
-708.770057
 10
796.870209
 20
-708.768579
 10
795.714531
 20
-708.160703
 10
795.544027
 20
-708.069752
 10
795.361563
 20
-707.970294
 10
795.16865
 20
-707.862013
 10
794.966797
 20
-707.744594
 10
794.757514
 20
-707.617721
 10
794.542312
 20
-707.48108
 10
794.3227
 20
-707.334354
 10
794.100188
 20
-707.177229
 10
793.876287
 20
-707.009389
 10
793.652506
 20
-706.830519
 10
793.430356
 20
-706.640303
 10
793.211346
 20
-706.438427
 10
792.996986
 20
-706.224574
 10
792.788787
 20
-705.99843
 10
792.588258
 20
-705.759678
 10
792.39691
 20
-705.508005
 10
792.216252
 20
-705.243094
 10
792.047794
 20
-704.964629
 10
791.893047
 20
-704.672297
 10
791.75329
 20
-704.366103
 10
791.628886
 20
-704.047339
 10
791.519964
 20
-703.71762
 10
791.426658
 20
-703.378561
 10
791.349098
 20
-703.031776
 10
791.287416
 20
-702.67888
 10
791.241743
 20
-702.321485
 10
791.212211
 20
-701.961209
 10
791.198951
 20
-701.599663
 10
791.202095
 20
-701.238463
 10
791.221774
 20
-700.879224
 10
791.25812
 20
-700.52356
 10
791.311265
 20
-700.173084
 10
791.381339
 20
-699.829412
 10
791.468474
 20
-699.494158
 10
791.572802
 20
-699.168935
 10
791.694455
 20
-698.85536
 10
791.833563
 20
-698.555046
 10
791.990258
 20
-698.269606
 10
792.164672
 20
-698.000657
 10
792.356614
 20
-697.749425
 10
792.56461
 20
-697.51559
 10
792.786862
 20
-697.298444
 10
793.021572
 20
-697.09728
 10
793.266945
 20
-696.911391
 10
793.521182
 20
-696.740069
 10
793.782488
 20
-696.582607
 10
794.049064
 20
-696.438297
 10
794.319114
 20
-696.306432
 10
794.59084
 20
-696.186305
 10
794.862447
 20
-696.077207
 10
795.132135
 20
-695.978433
 10
795.398109
 20
-695.889274
 10
795.658572
 20
-695.809023
 10
795.911726
 20
-695.736973
 10
796.155775
 20
-695.672416
 10
796.38892
 20
-695.614645
 10
796.609366
 20
-695.562952
 10
796.815315
 20
-695.51663
 10
797.004971
 20
-695.474972
  0
LWPOLYLINE
  5
37
330
1F
100
AcDbEntity
  8
0
100
AcDbPolyline
 90
      245
 70
   128
 43
0.0
 10
832.249834
 20
-565.127319
 10
831.921269
 20
-565.139772
 10
831.86957
 20
-565.141765
 10
831.813243
 20
-565.144133
 10
831.752589
 20
-565.147066
 10
831.687908
 20
-565.150751
 10
831.619501
 20
-565.155378
 10
831.547668
 20
-565.161136
 10
831.47271
 20
-565.168212
 10
831.394928
 20
-565.176797
 10
831.314621
 20
-565.187078
 10
831.232091
 20
-565.199244
 10
831.147638
 20
-565.213484
 10
831.061563
 20
-565.229987
 10
830.974166
 20
-565.248941
 10
830.885747
 20
-565.270536
 10
830.796608
 20
-565.294959
 10
830.707049
 20
-565.322399
 10
830.61737
 20
-565.353046
 10
830.527872
 20
-565.387088
 10
830.438856
 20
-565.424714
 10
830.350622
 20
-565.466112
 10
830.263445
 20
-565.511413
 10
830.177498
 20
-565.560517
 10
830.092928
 20
-565.613263
 10
830.009884
 20
-565.669493
 10
829.928512
 20
-565.729048
 10
829.84896
 20
-565.79177
 10
829.771376
 20
-565.857498
 10
829.695907
 20
-565.926073
 10
829.6227
 20
-565.997338
 10
829.551903
 20
-566.071132
 10
829.483664
 20
-566.147297
 10
829.418129
 20
-566.225673
 10
829.355447
 20
-566.306102
 10
829.295765
 20
-566.388424
 10
829.239229
 20
-566.472481
 10
829.185989
 20
-566.558114
 10
829.136191
 20
-566.645162
 10
829.089983
 20
-566.733468
 10
829.047512
 20
-566.822872
 10
829.008925
 20
-566.913215
 10
828.974311
 20
-567.004318
 10
828.943518
 20
-567.095915
 10
828.916336
 20
-567.187721
 10
828.892553
 20
-567.279451
 10
828.871958
 20
-567.37082
 10
828.854341
 20
-567.461542
 10
828.83949
 20
-567.551331
 10
828.827196
 20
-567.639903
 10
828.817246
 20
-567.726972
 10
828.809429
 20
-567.812252
 10
828.803536
 20
-567.895458
 10
828.799355
 20
-567.976305
 10
828.796674
 20
-568.054507
 10
828.795284
 20
-568.129779
 10
828.794973
 20
-568.201835
 10
828.795531
 20
-568.27039
 10
828.796746
 20
-568.335159
 10
828.798407
 20
-568.395856
 10
828.800304
 20
-568.452195
 10
828.814647
 20
-568.832429
 10
828.827072
 20
-569.161025
 10
828.829061
 20
-569.212729
 10
828.831424
 20
-569.269061
 10
828.834352
 20
-569.329721
 10
828.838032
 20
-569.394407
 10
828.842654
 20
-569.462821
 10
828.848405
 20
-569.53466
 10
828.855476
 20
-569.609625
 10
828.864054
 20
-569.687414
 10
828.874329
 20
-569.767728
 10
828.886489
 20
-569.850265
 10
828.900723
 20
-569.934725
 10
828.91722
 20
-570.020807
 10
828.936168
 20
-570.108211
 10
828.957756
 20
-570.196636
 10
828.982174
 20
-570.285781
 10
829.009609
 20
-570.375347
 10
829.04025
 20
-570.465032
 10
829.074287
 20
-570.554535
 10
829.111908
 20
-570.643557
 10
829.153302
 20
-570.731796
 10
829.198599
 20
-570.818977
 10
829.247699
 20
-570.904928
 10
829.300442
 20
-570.989501
 10
829.35667
 20
-571.072548
 10
829.416224
 20
-571.153922
 10
829.478944
 20
-571.233476
 10
829.544671
 20
-571.311062
 10
829.613247
 20
-571.386532
 10
829.684513
 20
-571.45974
 10
829.758309
 20
-571.530537
 10
829.834476
 20
-571.598776
 10
829.912856
 20
-571.66431
 10
829.993289
 20
-571.726991
 10
830.075617
 20
-571.786671
 10
830.15968
 20
-571.843204
 10
830.24532
 20
-571.896441
 10
830.332377
 20
-571.946236
 10
830.420693
 20
-571.992441
 10
830.510108
 20
-572.034907
 10
830.600463
 20
-572.073489
 10
830.691579
 20
-572.108098
 10
830.783191
 20
-572.138885
 10
830.875013
 20
-572.166061
 10
830.96676
 20
-572.189837
 10
831.058146
 20
-572.210425
 10
831.148886
 20
-572.228035
 10
831.238694
 20
-572.242878
 10
831.327285
 20
-572.255166
 10
831.414373
 20
-572.265108
 10
831.499672
 20
-572.272917
 10
831.582897
 20
-572.278802
 10
831.663763
 20
-572.282976
 10
831.741984
 20
-572.285649
 10
831.817275
 20
-572.287031
 10
831.889349
 20
-572.287335
 10
831.957921
 20
-572.286771
 10
832.022707
 20
-572.28555
 10
832.083419
 20
-572.283882
 10
832.139774
 20
-572.28198
 10
832.520107
 20
-572.267597
 10
832.848672
 20
-572.255144
 10
832.900371
 20
-572.253151
 10
832.956698
 20
-572.250783
 10
833.017351
 20
-572.24785
 10
833.082032
 20
-572.244165
 10
833.150438
 20
-572.239538
 10
833.22227
 20
-572.23378
 10
833.297226
 20
-572.226704
 10
833.375006
 20
-572.21812
 10
833.455309
 20
-572.207839
 10
833.537836
 20
-572.195673
 10
833.622284
 20
-572.181433
 10
833.708353
 20
-572.164931
 10
833.795744
 20
-572.145977
 10
833.884154
 20
-572.124383
 10
833.973284
 20
-572.09996
 10
834.062833
 20
-572.07252
 10
834.1525
 20
-572.041874
 10
834.241984
 20
-572.007833
 10
834.330985
 20
-571.970208
 10
834.419203
 20
-571.928811
 10
834.506362
 20
-571.88351
 10
834.592289
 20
-571.834408
 10
834.676837
 20
-571.781663
 10
834.759859
 20
-571.725434
 10
834.841208
 20
-571.66588
 10
834.920736
 20
-571.603159
 10
834.998296
 20
-571.537432
 10
835.073742
 20
-571.468857
 10
835.146925
 20
-571.397593
 10
835.217698
 20
-571.323799
 10
835.285915
 20
-571.247635
 10
835.351428
 20
-571.169258
 10
835.41409
 20
-571.088829
 10
835.473753
 20
-571.006505
 10
835.53027
 20
-570.922447
 10
835.583495
 20
-570.836813
 10
835.633279
 20
-570.749762
 10
835.679476
 20
-570.661454
 10
835.721938
 20
-570.572046
 10
835.760518
 20
-570.481699
 10
835.795129
 20
-570.390593
 10
835.825922
 20
-570.298991
 10
835.853106
 20
-570.207179
 10
835.876894
 20
-570.115443
 10
835.897496
 20
-570.024068
 10
835.915122
 20
-569.933339
 10
835.929983
 20
-569.843543
 10
835.94229
 20
-569.754964
 10
835.952253
 20
-569.667888
 10
835.960084
 20
-569.5826
 10
835.965992
 20
-569.499387
 10
835.97019
 20
-569.418533
 10
835.972886
 20
-569.340323
 10
835.974293
 20
-569.265044
 10
835.974621
 20
-569.192981
 10
835.97408
 20
-569.124419
 10
835.972881
 20
-569.059644
 10
835.971235
 20
-568.99894
 10
835.969353
 20
-568.942595
 10
835.955109
 20
-568.562321
 10
835.942687
 20
-568.233784
 10
835.940699
 20
-568.18209
 10
835.938336
 20
-568.125767
 10
835.935409
 20
-568.065118
 10
835.93173
 20
-568.000442
 10
835.927109
 20
-567.93204
 10
835.921358
 20
-567.860213
 10
835.914288
 20
-567.78526
 10
835.90571
 20
-567.707482
 10
835.895436
 20
-567.62718
 10
835.883277
 20
-567.544654
 10
835.869043
 20
-567.460205
 10
835.852547
 20
-567.374133
 10
835.8336
 20
-567.286738
 10
835.812012
 20
-567.198322
 10
835.787595
 20
-567.109184
 10
835.76016
 20
-567.019625
 10
835.729519
 20
-566.929945
 10
835.695482
 20
-566.840446
 10
835.657861
 20
-566.751427
 10
835.616467
 20
-566.663188
 10
835.57117
 20
-566.576006
 10
835.52207
 20
-566.490053
 10
835.469327
 20
-566.405476
 10
835.413099
 20
-566.322424
 10
835.353545
 20
-566.241043
 10
835.290825
 20
-566.161482
 10
835.225098
 20
-566.083888
 10
835.156522
 20
-566.008409
 10
835.085256
 20
-565.935192
 10
835.011461
 20
-565.864385
 10
834.935294
 20
-565.796136
 10
834.856915
 20
-565.730592
 10
834.776483
 20
-565.667901
 10
834.694157
 20
-565.608211
 10
834.610095
 20
-565.551669
 10
834.524458
 20
-565.498422
 10
834.437403
 20
-565.44862
 10
834.34909
 20
-565.402408
 10
834.259679
 20
-565.359935
 10
834.169327
 20
-565.321348
 10
834.078215
 20
-565.286735
 10
833.986609
 20
-565.255945
 10
833.894792
 20
-565.228767
 10
833.803051
 20
-565.20499
 10
833.71167
 20
-565.184403
 10
833.620937
 20
-565.166794
 10
833.531135
 20
-565.151953
 10
833.442551
 20
-565.139668
 10
833.35547
 20
-565.129729
 10
833.270177
 20
-565.121924
 10
833.186959
 20
-565.116043
 10
833.106099
 20
-565.111874
 10
833.027885
 20
-565.109206
 10
832.952602
 20
-565.107828
 10
832.880534
 20
-565.107529
 10
832.811967
 20
-565.108099
 10
832.747188
 20
-565.109325
 10
832.686481
 20
-565.110997
 10
832.630132
 20
-565.112905
 10
832.249834
 20
-565.127319
  0
LWPOLYLINE
  5
38
330
1F
100
AcDbEntity
  8
0
100
AcDbPolyline
 90
      245
 70
   128
 43
0.0
 10
1013.879937
 20
-629.560966
 10
1013.551345
 20
-629.57345
 10
1013.499642
 20
-629.575447
 10
1013.443311
 20
-629.577821
 10
1013.382652
 20
-629.580759
 10
1013.317966
 20
-629.58445
 10
1013.249553
 20
-629.589084
 10
1013.177715
 20
-629.594848
 10
1013.102752
 20
-629.601931
 10
1013.024965
 20
-629.610522
 10
1012.944654
 20
-629.62081
 10
1012.862119
 20
-629.632983
 10
1012.777663
 20
-629.64723
 10
1012.691584
 20
-629.663739
 10
1012.604184
 20
-629.6827
 10
1012.515764
 20
-629.704301
 10
1012.426623
 20
-629.72873
 10
1012.337064
 20
-629.756177
 10
1012.247386
 20
-629.786829
 10
1012.15789
 20
-629.820877
 10
1012.068876
 20
-629.858507
 10
1011.980646
 20
-629.89991
 10
1011.893474
 20
-629.945215
 10
1011.807533
 20
-629.994321
 10
1011.722972
 20
-630.047071
 10
1011.639936
 20
-630.103303
 10
1011.558573
 20
-630.16286
 10
1011.479031
 20
-630.225583
 10
1011.401457
 20
-630.291312
 10
1011.325998
 20
-630.359888
 10
1011.252802
 20
-630.431153
 10
1011.182016
 20
-630.504947
 10
1011.113788
 20
-630.581111
 10
1011.048264
 20
-630.659486
 10
1010.985592
 20
-630.739913
 10
1010.92592
 20
-630.822233
 10
1010.869394
 20
-630.906287
 10
1010.816163
 20
-630.991917
 10
1010.766373
 20
-631.078962
 10
1010.720171
 20
-631.167264
 10
1010.677706
 20
-631.256664
 10
1010.639124
 20
-631.347003
 10
1010.604514
 20
-631.4381
 10
1010.573723
 20
-631.529692
 10
1010.546542
 20
-631.621493
 10
1010.522759
 20
-631.713218
 10
1010.502163
 20
-631.804581
 10
1010.484544
 20
-631.895297
 10
1010.469691
 20
-631.98508
 10
1010.457393
 20
-632.073646
 10
1010.447439
 20
-632.160708
 10
1010.439618
 20
-632.245982
 10
1010.43372
 20
-632.329181
 10
1010.429533
 20
-632.410022
 10
1010.426847
 20
-632.488218
 10
1010.425452
 20
-632.563484
 10
1010.425135
 20
-632.635534
 10
1010.425687
 20
-632.704084
 10
1010.426896
 20
-632.768847
 10
1010.428551
 20
-632.829539
 10
1010.430443
 20
-632.885874
 10
1010.444751
 20
-633.266076
 10
1010.457207
 20
-633.594699
 10
1010.4592
 20
-633.646407
 10
1010.461569
 20
-633.702744
 10
1010.464502
 20
-633.763409
 10
1010.468188
 20
-633.828101
 10
1010.472815
 20
-633.89652
 10
1010.478573
 20
-633.968364
 10
1010.48565
 20
-634.043335
 10
1010.494235
 20
-634.121129
 10
1010.504515
 20
-634.201448
 10
1010.516681
 20
-634.283991
 10
1010.530921
 20
-634.368456
 10
1010.547423
 20
-634.454543
 10
1010.566376
 20
-634.541951
 10
1010.587969
 20
-634.63038
 10
1010.61239
 20
-634.719529
 10
1010.639829
 20
-634.809098
 10
1010.670473
 20
-634.898785
 10
1010.704512
 20
-634.988291
 10
1010.742135
 20
-635.077313
 10
1010.783529
 20
-635.165553
 10
1010.828826
 20
-635.252734
 10
1010.877924
 20
-635.338683
 10
1010.930665
 20
-635.423254
 10
1010.98689
 20
-635.506299
 10
1011.04644
 20
-635.58767
 10
1011.109156
 20
-635.66722
 10
1011.174878
 20
-635.744801
 10
1011.243448
 20
-635.820266
 10
1011.314708
 20
-635.893468
 10
1011.388497
 20
-635.964259
 10
1011.464657
 20
-636.032492
 10
1011.543029
 20
-636.098019
 10
1011.623455
 20
-636.160693
 10
1011.705774
 20
-636.220366
 10
1011.789829
 20
-636.276891
 10
1011.87546
 20
-636.330121
 10
1011.962508
 20
-636.379907
 10
1012.050815
 20
-636.426104
 10
1012.140221
 20
-636.468562
 10
1012.230567
 20
-636.507136
 10
1012.321674
 20
-636.541736
 10
1012.413276
 20
-636.572515
 10
1012.505089
 20
-636.599683
 10
1012.596827
 20
-636.623451
 10
1012.688204
 20
-636.644031
 10
1012.778935
 20
-636.661633
 10
1012.868734
 20
-636.676468
 10
1012.957316
 20
-636.688748
 10
1013.044396
 20
-636.698683
 10
1013.129687
 20
-636.706484
 10
1013.212904
 20
-636.712363
 10
1013.293763
 20
-636.716529
 10
1013.371976
 20
-636.719196
 10
1013.447259
 20
-636.720572
 10
1013.519327
 20
-636.72087
 10
1013.587893
 20
-636.7203
 10
1013.652672
 20
-636.719073
 10
1013.713379
 20
-636.7174
 10
1013.769728
 20
-636.715493
 10
1014.150026
 20
-636.701078
 10
1014.478536
 20
-636.688687
 10
1014.530226
 20
-636.686704
 10
1014.586543
 20
-636.684346
 10
1014.647187
 20
-636.681425
 10
1014.711858
 20
-636.677751
 10
1014.780254
 20
-636.673137
 10
1014.852076
 20
-636.667393
 10
1014.927022
 20
-636.66033
 10
1015.004794
 20
-636.65176
 10
1015.085089
 20
-636.641493
 10
1015.167607
 20
-636.629342
 10
1015.252049
 20
-636.615117
 10
1015.338114
 20
-636.598629
 10
1015.425501
 20
-636.57969
 10
1015.513909
 20
-636.558111
 10
1015.603039
 20
-636.533703
 10
1015.69259
 20
-636.506277
 10
1015.782262
 20
-636.475645
 10
1015.871753
 20
-636.441617
 10
1015.960764
 20
-636.404006
 10
1016.048994
 20
-636.362621
 10
1016.136168
 20
-636.317333
 10
1016.222113
 20
-636.268242
 10
1016.306682
 20
-636.215508
 10
1016.389726
 20
-636.159289
 10
1016.471099
 20
-636.099744
 10
1016.550654
 20
-636.037032
 10
1016.628241
 20
-635.971313
 10
1016.703714
 20
-635.902745
 10
1016.776926
 20
-635.831488
 10
1016.847728
 20
-635.757699
 10
1016.915974
 20
-635.681539
 10
1016.981515
 20
-635.603166
 10
1017.044204
 20
-635.522739
 10
1017.103894
 20
-635.440418
 10
1017.160437
 20
-635.35636
 10
1017.213685
 20
-635.270726
 10
1017.263492
 20
-635.183674
 10
1017.309708
 20
-635.095363
 10
1017.352188
 20
-635.005952
 10
1017.390783
 20
-634.915601
 10
1017.425405
 20
-634.824488
 10
1017.456206
 20
-634.732879
 10
1017.483396
 20
-634.64106
 10
1017.507187
 20
-634.549315
 10
1017.527789
 20
-634.457931
 10
1017.545414
 20
-634.367193
 10
1017.560272
 20
-634.277386
 10
1017.572574
 20
-634.188796
 10
1017.582531
 20
-634.101709
 10
1017.590354
 20
-634.01641
 10
1017.596254
 20
-633.933185
 10
1017.600441
 20
-633.852319
 10
1017.603128
 20
-633.774098
 10
1017.604523
 20
-633.698807
 10
1017.60484
 20
-633.626732
 10
1017.604287
 20
-633.558159
 10
1017.603077
 20
-633.493374
 10
1017.601421
 20
-633.43266
 10
1017.599528
 20
-633.376305
 10
1017.585213
 20
-632.995968
 10
1017.57276
 20
-632.667403
 10
1017.570767
 20
-632.615704
 10
1017.568399
 20
-632.559378
 10
1017.565467
 20
-632.498724
 10
1017.561781
 20
-632.434043
 10
1017.557154
 20
-632.365636
 10
1017.551397
 20
-632.293804
 10
1017.54432
 20
-632.218847
 10
1017.535736
 20
-632.141066
 10
1017.525455
 20
-632.060761
 10
1017.513289
 20
-631.978233
 10
1017.499049
 20
-631.893782
 10
1017.482546
 20
-631.807709
 10
1017.463592
 20
-631.720316
 10
1017.441998
 20
-631.631901
 10
1017.417575
 20
-631.542767
 10
1017.390135
 20
-631.453213
 10
1017.359488
 20
-631.36354
 10
1017.325446
 20
-631.274049
 10
1017.287821
 20
-631.18504
 10
1017.246424
 20
-631.096814
 10
1017.201123
 20
-631.009646
 10
1017.15202
 20
-630.923709
 10
1017.099274
 20
-630.83915
 10
1017.043044
 20
-630.756117
 10
1016.98349
 20
-630.674757
 10
1016.920769
 20
-630.595217
 10
1016.855041
 20
-630.517645
 10
1016.786465
 20
-630.442188
 10
1016.715201
 20
-630.368994
 10
1016.641406
 20
-630.298209
 10
1016.565241
 20
-630.229982
 10
1016.486864
 20
-630.164459
 10
1016.406434
 20
-630.101788
 10
1016.32411
 20
-630.042116
 10
1016.240051
 20
-629.985591
 10
1016.154417
 20
-629.93236
 10
1016.067366
 20
-629.88257
 10
1015.979057
 20
-629.836369
 10
1015.88965
 20
-629.793905
 10
1015.799303
 20
-629.755324
 10
1015.708196
 20
-629.720714
 10
1015.616594
 20
-629.689924
 10
1015.524782
 20
-629.662743
 10
1015.433046
 20
-629.63896
 10
1015.341672
 20
-629.618365
 10
1015.250944
 20
-629.600747
 10
1015.161148
 20
-629.585895
 10
1015.072569
 20
-629.573597
 10
1014.985494
 20
-629.563644
 10
1014.900207
 20
-629.555824
 10
1014.816994
 20
-629.549926
 10
1014.736141
 20
-629.54574
 10
1014.657932
 20
-629.543055
 10
1014.582654
 20
-629.54166
 10
1014.510591
 20
-629.541344
 10
1014.44203
 20
-629.541896
 10
1014.377255
 20
-629.543106
 10
1014.316552
 20
-629.544762
 10
1014.260207
 20
-629.546655
 10
1013.879937
 20
-629.560966
  0
LWPOLYLINE
  5
39
330
1F
100
AcDbEntity
  8
0
100
AcDbPolyline
 90
      304
 70
   128
 43
0.0
 10
810.311661
 20
-560.939383
 10
1092.176227
 20
-544.673596
 10
1092.339984
 20
-544.643998
 10
1092.691176
 20
-544.582849
 10
1093.063514
 20
-544.521432
 10
1093.454468
 20
-544.461429
 10
1093.861508
 20
-544.404525
 10
1094.282105
 20
-544.352403
 10
1094.713728
 20
-544.306746
 10
1095.153847
 20
-544.269238
 10
1095.599932
 20
-544.241561
 10
1096.049453
 20
-544.2254
 10
1096.499881
 20
-544.222437
 10
1096.948685
 20
-544.234356
 10
1097.393334
 20
-544.262841
 10
1097.831301
 20
-544.309574
 10
1098.260053
 20
-544.376239
 10
1098.677061
 20
-544.464519
 10
1099.079796
 20
-544.576098
 10
1099.465726
 20
-544.71266
 10
1099.832323
 20
-544.875886
 10
1100.177491
 20
-545.066841
 10
1100.500878
 20
-545.284105
 10
1100.802564
 20
-545.525637
 10
1101.082632
 20
-545.789398
 10
1101.341165
 20
-546.073347
 10
1101.578243
 20
-546.375445
 10
1101.793949
 20
-546.69365
 10
1101.988366
 20
-547.025924
 10
1102.161574
 20
-547.370226
 10
1102.313656
 20
-547.724516
 10
1102.444694
 20
-548.086754
 10
1102.554769
 20
-548.454899
 10
1102.643965
 20
-548.826912
 10
1102.712362
 20
-549.200753
 10
1102.760043
 20
-549.574381
 10
1102.787089
 20
-549.945756
 10
1102.793584
 20
-550.312839
 10
1102.779608
 20
-550.673589
 10
1102.745243
 20
-551.025966
 10
1102.690572
 20
-551.367929
 10
1102.615943
 20
-551.697796
 10
1102.522768
 20
-552.015303
 10
1102.412727
 20
-552.320544
 10
1102.287497
 20
-552.613614
 10
1102.148758
 20
-552.894606
 10
1101.998189
 20
-553.163613
 10
1101.837469
 20
-553.420731
 10
1101.668276
 20
-553.666051
 10
1101.492289
 20
-553.899669
 10
1101.311186
 20
-554.121678
 10
1101.126648
 20
-554.332172
 10
1100.940353
 20
-554.531244
 10
1100.753978
 20
-554.718989
 10
1100.569205
 20
-554.895499
 10
1100.38771
 20
-555.06087
 10
1100.211173
 20
-555.215194
 10
1100.041273
 20
-555.358566
 10
1099.879689
 20
-555.49108
 10
1099.728098
 20
-555.612828
 10
1099.588182
 20
-555.723905
 10
1098.698044
 20
-556.429059
 10
1092.920442
 20
-561.304894
 10
1092.063482
 20
-562.027559
 10
1091.138761
 20
-562.80646
 10
1090.14984
 20
-563.63812
 10
1089.100278
 20
-564.519061
 10
1087.993634
 20
-565.445803
 10
1086.833469
 20
-566.414869
 10
1085.623341
 20
-567.42278
 10
1084.366811
 20
-568.466059
 10
1083.067438
 20
-569.541226
 10
1081.728782
 20
-570.644804
 10
1080.354401
 20
-571.773315
 10
1078.947857
 20
-572.92328
 10
1077.512708
 20
-574.09122
 10
1076.052514
 20
-575.273659
 10
1074.570835
 20
-576.467116
 10
1073.07123
 20
-577.668115
 10
1071.557259
 20
-578.873177
 10
1070.032482
 20
-580.078823
 10
1068.500457
 20
-581.281575
 10
1066.964563
 20
-582.478923
 10
1065.427444
 20
-583.672222
 10
1063.891564
 20
-584.863796
 10
1062.359386
 20
-586.055968
 10
1060.833372
 20
-587.251063
 10
1059.315986
 20
-588.451403
 10
1057.80969
 20
-589.659311
 10
1056.316948
 20
-590.877112
 10
1054.840223
 20
-592.107129
 10
1053.381978
 20
-593.351685
 10
1051.944675
 20
-594.613104
 10
1050.530777
 20
-595.893709
 10
1049.142748
 20
-597.195824
 10
1047.783051
 20
-598.521772
 10
1046.454149
 20
-599.873877
 10
1045.158504
 20
-601.254461
 10
1043.898579
 20
-602.66585
 10
1042.676838
 20
-604.110365
 10
1041.495744
 20
-605.590331
 10
1040.357759
 20
-607.10807
 10
1039.264831
 20
-608.664379
 10
1038.216847
 20
-610.253933
 10
1037.213177
 20
-611.869884
 10
1036.253194
 20
-613.50538
 10
1035.336267
 20
-615.153569
 10
1034.461768
 20
-616.807603
 10
1033.629068
 20
-618.460628
 10
1032.837539
 20
-620.105796
 10
1032.08655
 20
-621.736254
 10
1031.375474
 20
-623.345153
 10
1030.703681
 20
-624.925641
 10
1030.070542
 20
-626.470868
 10
1029.475429
 20
-627.973982
 10
1028.917713
 20
-629.428133
 10
1028.396765
 20
-630.82647
 10
1027.911955
 20
-632.162142
 10
1027.462655
 20
-633.428299
 10
1027.048236
 20
-634.61809
 10
1026.668069
 20
-635.724663
 10
1026.321525
 20
-636.741169
 10
1024.121911
 20
-643.202421
 10
1023.781375
 20
-644.015017
 10
1023.730625
 20
-644.135026
 10
1023.67546
 20
-644.263654
 10
1023.615881
 20
-644.399947
 10
1023.551886
 20
-644.542948
 10
1023.483474
 20
-644.691701
 10
1023.410646
 20
-644.845251
 10
1023.3334
 20
-645.002641
 10
1023.251736
 20
-645.162915
 10
1023.165652
 20
-645.325117
 10
1023.075149
 20
-645.488292
 10
1022.980226
 20
-645.651482
 10
1022.880882
 20
-645.813732
 10
1022.777117
 20
-645.974087
 10
1022.668929
 20
-646.131589
 10
1022.556318
 20
-646.285283
 10
1022.439284
 20
-646.434214
 10
1022.317825
 20
-646.577424
 10
1022.191941
 20
-646.713957
 10
1022.061632
 20
-646.842859
 10
1021.926894
 20
-646.963324
 10
1021.787707
 20
-647.07516
 10
1021.64405
 20
-647.178323
 10
1021.4959
 20
-647.272772
 10
1021.343237
 20
-647.358464
 10
1021.186038
 20
-647.435358
 10
1021.024281
 20
-647.503412
 10
1020.857944
 20
-647.562584
 10
1020.687005
 20
-647.612831
 10
1020.511443
 20
-647.654112
 10
1020.331234
 20
-647.686384
 10
1020.146358
 20
-647.709606
 10
1019.956793
 20
-647.723736
 10
1019.762516
 20
-647.728732
 10
1019.563505
 20
-647.724551
 10
1019.359739
 20
-647.711151
 10
1019.151195
 20
-647.688492
 10
1018.937852
 20
-647.65653
 10
1018.719688
 20
-647.615223
 10
1018.49668
 20
-647.56453
 10
1018.268966
 20
-647.504557
 10
1018.037314
 20
-647.436001
 10
1017.802655
 20
-647.359708
 10
1017.565915
 20
-647.276523
 10
1017.328025
 20
-647.187292
 10
1017.089911
 20
-647.092861
 10
1016.852504
 20
-646.994075
 10
1016.61673
 20
-646.891781
 10
1016.383519
 20
-646.786823
 10
1016.153799
 20
-646.680047
 10
1015.928499
 20
-646.572299
 10
1015.708547
 20
-646.464425
 10
1015.494871
 20
-646.35727
 10
1015.2884
 20
-646.25168
 10
1015.090063
 20
-646.1485
 10
1014.900788
 20
-646.048576
 10
1014.721504
 20
-645.952754
 10
1014.553138
 20
-645.861879
 10
1014.396621
 20
-645.776797
 10
1014.252878
 20
-645.698354
 10
1013.339248
 20
-645.199406
 10
1013.335016
 20
-645.197928
 10
1013.305388
 20
-645.187579
 10
1013.224969
 20
-645.159488
 10
1013.068365
 20
-645.104785
 10
1012.81018
 20
-645.014598
 10
1012.425018
 20
-644.880058
 10
1011.887484
 20
-644.692292
 10
1011.172183
 20
-644.442431
 10
1010.25372
 20
-644.121604
 10
1009.106699
 20
-643.720939
 10
1007.705726
 20
-643.231567
 10
1006.025404
 20
-642.644615
 10
1004.040338
 20
-641.951214
 10
1001.725134
 20
-641.142493
 10
999.054396
 20
-640.20958
 10
996.002728
 20
-639.143606
 10
992.544735
 20
-637.935698
 10
988.655023
 20
-636.576987
 10
984.308195
 20
-635.058601
 10
979.478857
 20
-633.37167
 10
974.15431
 20
-631.511759
 10
968.372648
 20
-629.492173
 10
962.184662
 20
-627.330654
 10
955.641141
 20
-625.044944
 10
948.792877
 20
-622.652785
 10
941.69066
 20
-620.171917
 10
934.38528
 20
-617.620083
 10
926.927529
 20
-615.015024
 10
919.368196
 20
-612.374482
 10
911.758073
 20
-609.716198
 10
904.14795
 20
-607.057915
 10
896.588618
 20
-604.417372
 10
889.130867
 20
-601.812314
 10
881.825487
 20
-599.26048
 10
874.72327
 20
-596.779612
 10
867.875006
 20
-594.387452
 10
861.331485
 20
-592.101742
 10
855.143499
 20
-589.940224
 10
849.361837
 20
-587.920638
 10
844.03729
 20
-586.060726
 10
839.207952
 20
-584.373795
 10
834.861124
 20
-582.85541
 10
830.971412
 20
-581.496698
 10
827.513419
 20
-580.288791
 10
824.461751
 20
-579.222816
 10
821.791013
 20
-578.289903
 10
819.475809
 20
-577.481182
 10
817.490743
 20
-576.787781
 10
815.810421
 20
-576.20083
 10
814.409448
 20
-575.711457
 10
813.262427
 20
-575.310792
 10
812.343964
 20
-574.989965
 10
811.628663
 20
-574.740104
 10
811.091129
 20
-574.552339
 10
810.705967
 20
-574.417798
 10
810.447782
 20
-574.327612
 10
810.291177
 20
-574.272909
 10
810.210759
 20
-574.244818
 10
810.181131
 20
-574.234468
 10
810.176899
 20
-574.23299
 10
809.021221
 20
-573.625114
 10
808.850717
 20
-573.534163
 10
808.668253
 20
-573.434705
 10
808.47534
 20
-573.326424
 10
808.273487
 20
-573.209005
 10
808.064204
 20
-573.082132
 10
807.849002
 20
-572.945491
 10
807.62939
 20
-572.798765
 10
807.406878
 20
-572.64164
 10
807.182977
 20
-572.4738
 10
806.959196
 20
-572.29493
 10
806.737046
 20
-572.104714
 10
806.518036
 20
-571.902838
 10
806.303676
 20
-571.688985
 10
806.095477
 20
-571.462841
 10
805.894948
 20
-571.224089
 10
805.7036
 20
-570.972416
 10
805.522942
 20
-570.707505
 10
805.354484
 20
-570.42904
 10
805.199737
 20
-570.136708
 10
805.05998
 20
-569.830514
 10
804.935576
 20
-569.51175
 10
804.826654
 20
-569.182031
 10
804.733348
 20
-568.842972
 10
804.655788
 20
-568.496187
 10
804.594106
 20
-568.143291
 10
804.548433
 20
-567.785896
 10
804.518901
 20
-567.42562
 10
804.505641
 20
-567.064074
 10
804.508785
 20
-566.702874
 10
804.528464
 20
-566.343635
 10
804.56481
 20
-565.987971
 10
804.617955
 20
-565.637495
 10
804.688029
 20
-565.293823
 10
804.775164
 20
-564.958569
 10
804.879492
 20
-564.633346
 10
805.001145
 20
-564.319771
 10
805.140253
 20
-564.019457
 10
805.296948
 20
-563.734017
 10
805.471362
 20
-563.465068
 10
805.663304
 20
-563.213836
 10
805.8713
 20
-562.980001
 10
806.093552
 20
-562.762855
 10
806.328262
 20
-562.561691
 10
806.573635
 20
-562.375802
 10
806.827872
 20
-562.20448
 10
807.089178
 20
-562.047018
 10
807.355754
 20
-561.902708
 10
807.625804
 20
-561.770843
 10
807.89753
 20
-561.650716
 10
808.169137
 20
-561.541618
 10
808.438825
 20
-561.442844
 10
808.704799
 20
-561.353685
 10
808.965262
 20
-561.273434
 10
809.218416
 20
-561.201384
 10
809.462465
 20
-561.136827
 10
809.69561
 20
-561.079056
 10
809.916056
 20
-561.027363
 10
810.122005
 20
-560.981041
 10
810.311661
 20
-560.939383
  0
LWPOLYLINE
  5
3A
330
1F
100
AcDbEntity
  8
0
100
AcDbPolyline
 90
      245
 70
   128
 43
0.0
 10
1085.084308
 20
-551.654574
 10
1084.755713
 20
-551.666999
 10
1084.704009
 20
-551.668988
 10
1084.647677
 20
-551.671351
 10
1084.587017
 20
-551.674279
 10
1084.52233
 20
-551.677959
 10
1084.453917
 20
-551.68258
 10
1084.382078
 20
-551.688332
 10
1084.307113
 20
-551.695403
 10
1084.229324
 20
-551.703981
 10
1084.14901
 20
-551.714256
 10
1084.066473
 20
-551.726416
 10
1083.982013
 20
-551.74065
 10
1083.895931
 20
-551.757146
 10
1083.808527
 20
-551.776095
 10
1083.720102
 20
-551.797683
 10
1083.630956
 20
-551.8221
 10
1083.541391
 20
-551.849536
 10
1083.451706
 20
-551.880177
 10
1083.362203
 20
-551.914214
 10
1083.273181
 20
-551.951835
 10
1083.184942
 20
-551.993229
 10
1083.097761
 20
-552.038526
 10
1083.01181
 20
-552.087626
 10
1082.927237
 20
-552.140369
 10
1082.84419
 20
-552.196597
 10
1082.762816
 20
-552.25615
 10
1082.683262
 20
-552.31887
 10
1082.605677
 20
-552.384597
 10
1082.530207
 20
-552.453172
 10
1082.457001
 20
-552.524437
 10
1082.386204
 20
-552.598232
 10
1082.317967
 20
-552.674398
 10
1082.252434
 20
-552.752776
 10
1082.189755
 20
-552.833208
 10
1082.130076
 20
-552.915533
 10
1082.073546
 20
-552.999594
 10
1082.020311
 20
-553.085231
 10
1081.970519
 20
-553.172285
 10
1081.924317
 20
-553.260597
 10
1081.881854
 20
-553.350008
 10
1081.843276
 20
-553.44036
 10
1081.808672
 20
-553.53147
 10
1081.77789
 20
-553.623077
 10
1081.750718
 20
-553.714893
 10
1081.726947
 20
-553.806634
 10
1081.706365
 20
-553.898014
 10
1081.688761
 20
-553.988748
 10
1081.673924
 20
-554.078549
 10
1081.661642
 20
-554.167133
 10
1081.651706
 20
-554.254214
 10
1081.643904
 20
-554.339506
 10
1081.638024
 20
-554.422725
 10
1081.633857
 20
-554.503584
 10
1081.63119
 20
-554.581798
 10
1081.629813
 20
-554.657082
 10
1081.629515
 20
-554.729149
 10
1081.630085
 20
-554.797716
 10
1081.631312
 20
-554.862495
 10
1081.632984
 20
-554.923202
 10
1081.634892
 20
-554.979551
 10
1081.649306
 20
-555.359849
 10
1081.661704
 20
-555.688476
 10
1081.663688
 20
-555.740184
 10
1081.666047
 20
-555.796522
 10
1081.66897
 20
-555.857187
 10
1081.672645
 20
-555.92188
 10
1081.677261
 20
-555.990299
 10
1081.683007
 20
-556.062144
 10
1081.690072
 20
-556.137115
 10
1081.698645
 20
-556.214911
 10
1081.708914
 20
-556.29523
 10
1081.721069
 20
-556.377773
 10
1081.735298
 20
-556.462239
 10
1081.75179
 20
-556.548326
 10
1081.770734
 20
-556.635735
 10
1081.792318
 20
-556.724165
 10
1081.816732
 20
-556.813314
 10
1081.844164
 20
-556.902883
 10
1081.874803
 20
-556.992571
 10
1081.908838
 20
-557.082076
 10
1081.946458
 20
-557.171099
 10
1081.987851
 20
-557.259339
 10
1082.033149
 20
-557.34652
 10
1082.08225
 20
-557.432469
 10
1082.134995
 20
-557.51704
 10
1082.191225
 20
-557.600084
 10
1082.250782
 20
-557.681455
 10
1082.313505
 20
-557.761004
 10
1082.379237
 20
-557.838584
 10
1082.447817
 20
-557.914048
 10
1082.519087
 20
-557.987249
 10
1082.592888
 20
-558.058038
 10
1082.669061
 20
-558.126269
 10
1082.747446
 20
-558.191794
 10
1082.827885
 20
-558.254465
 10
1082.910218
 20
-558.314135
 10
1082.994286
 20
-558.370657
 10
1083.079931
 20
-558.423884
 10
1083.166993
 20
-558.473667
 10
1083.255313
 20
-558.519859
 10
1083.344733
 20
-558.562313
 10
1083.435092
 20
-558.600881
 10
1083.526211
 20
-558.635476
 10
1083.617826
 20
-558.666249
 10
1083.709651
 20
-558.693412
 10
1083.8014
 20
-558.717174
 10
1083.892788
 20
-558.737747
 10
1083.983529
 20
-558.755342
 10
1084.073338
 20
-558.770171
 10
1084.16193
 20
-558.782443
 10
1084.249018
 20
-558.792371
 10
1084.334318
 20
-558.800165
 10
1084.417544
 20
-558.806037
 10
1084.49841
 20
-558.810197
 10
1084.57663
 20
-558.812856
 10
1084.651921
 20
-558.814225
 10
1084.723994
 20
-558.814517
 10
1084.792566
 20
-558.81394
 10
1084.857351
 20
-558.812708
 10
1084.918063
 20
-558.811029
 10
1084.974417
 20
-558.809117
 10
1085.354747
 20
-558.794666
 10
1085.683257
 20
-558.782275
 10
1085.734947
 20
-558.780292
 10
1085.791264
 20
-558.777934
 10
1085.851909
 20
-558.775013
 10
1085.916579
 20
-558.77134
 10
1085.984975
 20
-558.766725
 10
1086.056797
 20
-558.760981
 10
1086.131744
 20
-558.753918
 10
1086.209515
 20
-558.745348
 10
1086.28981
 20
-558.735081
 10
1086.372329
 20
-558.72293
 10
1086.45677
 20
-558.708705
 10
1086.542835
 20
-558.692217
 10
1086.630222
 20
-558.673278
 10
1086.71863
 20
-558.651699
 10
1086.80776
 20
-558.627291
 10
1086.897311
 20
-558.599865
 10
1086.986983
 20
-558.569233
 10
1087.076474
 20
-558.535205
 10
1087.165485
 20
-558.497594
 10
1087.253715
 20
-558.456209
 10
1087.340889
 20
-558.410921
 10
1087.426834
 20
-558.361831
 10
1087.511402
 20
-558.309096
 10
1087.594446
 20
-558.252877
 10
1087.675819
 20
-558.193332
 10
1087.755372
 20
-558.130621
 10
1087.832957
 20
-558.064902
 10
1087.908428
 20
-557.996334
 10
1087.981636
 20
-557.925076
 10
1088.052435
 20
-557.851288
 10
1088.120676
 20
-557.775128
 10
1088.186211
 20
-557.696756
 10
1088.248893
 20
-557.616329
 10
1088.308575
 20
-557.534008
 10
1088.365109
 20
-557.449951
 10
1088.418347
 20
-557.364318
 10
1088.468141
 20
-557.277266
 10
1088.514344
 20
-557.188956
 10
1088.556809
 20
-557.099546
 10
1088.595387
 20
-557.009195
 10
1088.629991
 20
-556.918084
 10
1088.660772
 20
-556.826476
 10
1088.687941
 20
-556.734658
 10
1088.711709
 20
-556.642915
 10
1088.732288
 20
-556.551532
 10
1088.749888
 20
-556.460795
 10
1088.764721
 20
-556.370989
 10
1088.776997
 20
-556.282401
 10
1088.786928
 20
-556.195315
 10
1088.794725
 20
-556.110018
 10
1088.800598
 20
-556.026794
 10
1088.80476
 20
-555.945929
 10
1088.80742
 20
-555.86771
 10
1088.808791
 20
-555.792421
 10
1088.809083
 20
-555.720347
 10
1088.808507
 20
-555.651776
 10
1088.807274
 20
-555.586991
 10
1088.805596
 20
-555.526279
 10
1088.803684
 20
-555.469925
 10
1088.789234
 20
-555.089595
 10
1088.776867
 20
-554.760997
 10
1088.774887
 20
-554.709292
 10
1088.772534
 20
-554.65296
 10
1088.769617
 20
-554.5923
 10
1088.765948
 20
-554.527613
 10
1088.761338
 20
-554.4592
 10
1088.755599
 20
-554.387361
 10
1088.748541
 20
-554.312397
 10
1088.739976
 20
-554.23461
 10
1088.729714
 20
-554.154299
 10
1088.717568
 20
-554.071765
 10
1088.703347
 20
-553.987309
 10
1088.686864
 20
-553.901232
 10
1088.667929
 20
-553.813834
 10
1088.646353
 20
-553.725416
 10
1088.621949
 20
-553.636279
 10
1088.594526
 20
-553.546724
 10
1088.563896
 20
-553.45705
 10
1088.529871
 20
-553.36756
 10
1088.492261
 20
-553.278552
 10
1088.450877
 20
-553.19033
 10
1088.405589
 20
-553.103166
 10
1088.356498
 20
-553.017234
 10
1088.303762
 20
-552.932682
 10
1088.247542
 20
-552.849657
 10
1088.187995
 20
-552.768305
 10
1088.125282
 20
-552.688775
 10
1088.05956
 20
-552.611213
 10
1087.990989
 20
-552.535766
 10
1087.919729
 20
-552.462582
 10
1087.845938
 20
-552.391808
 10
1087.769775
 20
-552.323591
 10
1087.691399
 20
-552.258079
 10
1087.61097
 20
-552.195419
 10
1087.528646
 20
-552.135757
 10
1087.444586
 20
-552.079242
 10
1087.358951
 20
-552.02602
 10
1087.271898
 20
-551.976238
 10
1087.183586
 20
-551.930045
 10
1087.094175
 20
-551.887587
 10
1087.003824
 20
-551.849011
 10
1086.912713
 20
-551.814405
 10
1086.821106
 20
-551.783617
 10
1086.72929
 20
-551.756438
 10
1086.637548
 20
-551.732656
 10
1086.546167
 20
-551.712061
 10
1086.455433
 20
-551.694442
 10
1086.365631
 20
-551.679587
 10
1086.277046
 20
-551.667287
 10
1086.189964
 20
-551.657331
 10
1086.10467
 20
-551.649507
 10
1086.02145
 20
-551.643605
 10
1085.94059
 20
-551.639415
 10
1085.862375
 20
-551.636725
 10
1085.78709
 20
-551.635325
 10
1085.71502
 20
-551.635004
 10
1085.646453
 20
-551.635551
 10
1085.581672
 20
-551.636755
 10
1085.520964
 20
-551.638407
 10
1085.464614
 20
-551.640294
 10
1085.084308
 20
-551.654574
  0
LWPOLYLINE
  5
3B
330
1F
100
AcDbEntity
  8
0
100
AcDbPolyline
 90
      264
 70
   128
 43
0.0
 10
564.738546
 20
-1007.696946
 10
564.529506
 20
-1007.492648
 10
564.496634
 20
-1007.46048
 10
564.460937
 20
-1007.425303
 10
564.422726
 20
-1007.387171
 10
564.382312
 20
-1007.34614
 10
564.340005
 20
-1007.302264
 10
564.296117
 20
-1007.2556
 10
564.250957
 20
-1007.206201
 10
564.204838
 20
-1007.154122
 10
564.158069
 20
-1007.09942
 10
564.110962
 20
-1007.042148
 10
564.063826
 20
-1006.982362
 10
564.016974
 20
-1006.920116
 10
563.970716
 20
-1006.855467
 10
563.925362
 20
-1006.788468
 10
563.881223
 20
-1006.719176
 10
563.838611
 20
-1006.647644
 10
563.797835
 20
-1006.573928
 10
563.759207
 20
-1006.498083
 10
563.723037
 20
-1006.420164
 10
563.689637
 20
-1006.340227
 10
563.659265
 20
-1006.258348
 10
563.631975
 20
-1006.174698
 10
563.60777
 20
-1006.08947
 10
563.58665
 20
-1006.002858
 10
563.568618
 20
-1005.915053
 10
563.553676
 20
-1005.826249
 10
563.541827
 20
-1005.736639
 10
563.533071
 20
-1005.646415
 10
563.527412
 20
-1005.555772
 10
563.524851
 20
-1005.464901
 10
563.52539
 20
-1005.373996
 10
563.52903
 20
-1005.28325
 10
563.535776
 20
-1005.192855
 10
563.545627
 20
-1005.103006
 10
563.558586
 20
-1005.013893
 10
563.574656
 20
-1004.925712
 10
563.593838
 20
-1004.838654
 10
563.616134
 20
-1004.752912
 10
563.641546
 20
-1004.66868
 10
563.670077
 20
-1004.58615
 10
563.701676
 20
-1004.505494
 10
563.736085
 20
-1004.426796
 10
563.772997
 20
-1004.350116
 10
563.812101
 20
-1004.275518
 10
563.853089
 20
-1004.203062
 10
563.89565
 20
-1004.132812
 10
563.939477
 20
-1004.064828
 10
563.984258
 20
-1003.999173
 10
564.029687
 20
-1003.935908
 10
564.075452
 20
-1003.875095
 10
564.121245
 20
-1003.816797
 10
564.166756
 20
-1003.761075
 10
564.211677
 20
-1003.70799
 10
564.255698
 20
-1003.657606
 10
564.29851
 20
-1003.609983
 10
564.339803
 20
-1003.565184
 10
564.379269
 20
-1003.52327
 10
564.416598
 20
-1003.484304
 10
564.45148
 20
-1003.448347
 10
564.687917
 20
-1003.206596
 10
564.892277
 20
-1002.99761
 10
564.924455
 20
-1002.964747
 10
564.959643
 20
-1002.929059
 10
564.997785
 20
-1002.890858
 10
565.038828
 20
-1002.850454
 10
565.082716
 20
-1002.808158
 10
565.129393
 20
-1002.76428
 10
565.178804
 20
-1002.719132
 10
565.230895
 20
-1002.673023
 10
565.28561
 20
-1002.626265
 10
565.342894
 20
-1002.579168
 10
565.402691
 20
-1002.532043
 10
565.464947
 20
-1002.4852
 10
565.529607
 20
-1002.438951
 10
565.596614
 20
-1002.393605
 10
565.665915
 20
-1002.349473
 10
565.737454
 20
-1002.306867
 10
565.811175
 20
-1002.266096
 10
565.887024
 20
-1002.227472
 10
565.964946
 20
-1002.191305
 10
566.044885
 20
-1002.157905
 10
566.126762
 20
-1002.127533
 10
566.21041
 20
-1002.10024
 10
566.295633
 20
-1002.076031
 10
566.382241
 20
-1002.054906
 10
566.47004
 20
-1002.036869
 10
566.558836
 20
-1002.02192
 10
566.648439
 20
-1002.010063
 10
566.738654
 20
-1002.001299
 10
566.829289
 20
-1001.995631
 10
566.920151
 20
-1001.99306
 10
567.011048
 20
-1001.99359
 10
567.101787
 20
-1001.997221
 10
567.192174
 20
-1002.003957
 10
567.282018
 20
-1002.013799
 10
567.371124
 20
-1002.026749
 10
567.459302
 20
-1002.04281
 10
567.546358
 20
-1002.061984
 10
567.632098
 20
-1002.084273
 10
567.716331
 20
-1002.109679
 10
567.798864
 20
-1002.138205
 10
567.879525
 20
-1002.169799
 10
567.958231
 20
-1002.204206
 10
568.03492
 20
-1002.241116
 10
568.109529
 20
-1002.280219
 10
568.181997
 20
-1002.321207
 10
568.252261
 20
-1002.363769
 10
568.32026
 20
-1002.407596
 10
568.385932
 20
-1002.45238
 10
568.449213
 20
-1002.497811
 10
568.510043
 20
-1002.543579
 10
568.56836
 20
-1002.589375
 10
568.6241
 20
-1002.634891
 10
568.677203
 20
-1002.679816
 10
568.727606
 20
-1002.723841
 10
568.775246
 20
-1002.766657
 10
568.820063
 20
-1002.807954
 10
568.861994
 20
-1002.847424
 10
568.900976
 20
-1002.884757
 10
568.936949
 20
-1002.919644
 10
568.969849
 20
-1002.951775
 10
568.999677
 20
-1002.980943
 10
569.026684
 20
-1003.007353
 10
569.051184
 20
-1003.031311
 10
569.07349
 20
-1003.053124
 10
569.093915
 20
-1003.073098
 10
569.112774
 20
-1003.091539
 10
569.130378
 20
-1003.108754
 10
569.147042
 20
-1003.125049
 10
569.163079
 20
-1003.140732
 10
569.178803
 20
-1003.156108
 10
569.194527
 20
-1003.171484
 10
569.210564
 20
-1003.187166
 10
569.227229
 20
-1003.203462
 10
569.244833
 20
-1003.220677
 10
569.263691
 20
-1003.239118
 10
569.284116
 20
-1003.259092
 10
569.306422
 20
-1003.280904
 10
569.330922
 20
-1003.304862
 10
569.35793
 20
-1003.331272
 10
569.387758
 20
-1003.360441
 10
569.420617
 20
-1003.392614
 10
569.456299
 20
-1003.427797
 10
569.494494
 20
-1003.465935
 10
569.534892
 20
-1003.506973
 10
569.577182
 20
-1003.550855
 10
569.621053
 20
-1003.597526
 10
569.666195
 20
-1003.646932
 10
569.712296
 20
-1003.699016
 10
569.759048
 20
-1003.753725
 10
569.806138
 20
-1003.811003
 10
569.853256
 20
-1003.870794
 10
569.900092
 20
-1003.933044
 10
569.946334
 20
-1003.997697
 10
569.991674
 20
-1004.064699
 10
570.035799
 20
-1004.133994
 10
570.078399
 20
-1004.205528
 10
570.119163
 20
-1004.279244
 10
570.157782
 20
-1004.355088
 10
570.193944
 20
-1004.433005
 10
570.227339
 20
-1004.512939
 10
570.257707
 20
-1004.594813
 10
570.284995
 20
-1004.678457
 10
570.309201
 20
-1004.763677
 10
570.330322
 20
-1004.850282
 10
570.348357
 20
-1004.938079
 10
570.363302
 20
-1005.026874
 10
570.375157
 20
-1005.116475
 10
570.383919
 20
-1005.206689
 10
570.389585
 20
-1005.297324
 10
570.392153
 20
-1005.388186
 10
570.391621
 20
-1005.479083
 10
570.387988
 20
-1005.569822
 10
570.38125
 20
-1005.660211
 10
570.371405
 20
-1005.750056
 10
570.358452
 20
-1005.839165
 10
570.342389
 20
-1005.927345
 10
570.323212
 20
-1006.014404
 10
570.30092
 20
-1006.100148
 10
570.27551
 20
-1006.184385
 10
570.246981
 20
-1006.266922
 10
570.215382
 20
-1006.347588
 10
570.18097
 20
-1006.426299
 10
570.144055
 20
-1006.502994
 10
570.104947
 20
-1006.577609
 10
570.063954
 20
-1006.650083
 10
570.021386
 20
-1006.720354
 10
569.977553
 20
-1006.78836
 10
569.932763
 20
-1006.854038
 10
569.887326
 20
-1006.917327
 10
569.841552
 20
-1006.978164
 10
569.795749
 20
-1007.036487
 10
569.750228
 20
-1007.092235
 10
569.705297
 20
-1007.145344
 10
569.661266
 20
-1007.195754
 10
569.618444
 20
-1007.243401
 10
569.577141
 20
-1007.288224
 10
569.537666
 20
-1007.33016
 10
569.500328
 20
-1007.369149
 10
569.465437
 20
-1007.405126
 10
569.228941
 20
-1007.647017
 10
569.024663
 20
-1007.855909
 10
568.992498
 20
-1007.888758
 10
568.957324
 20
-1007.92443
 10
568.919196
 20
-1007.962614
 10
568.878169
 20
-1008.003
 10
568.834298
 20
-1008.045277
 10
568.787638
 20
-1008.089134
 10
568.738243
 20
-1008.134262
 10
568.68617
 20
-1008.18035
 10
568.631473
 20
-1008.227086
 10
568.574206
 20
-1008.274161
 10
568.514426
 20
-1008.321264
 10
568.452186
 20
-1008.368085
 10
568.387543
 20
-1008.414313
 10
568.320551
 20
-1008.459637
 10
568.251265
 20
-1008.503746
 10
568.17974
 20
-1008.546331
 10
568.106031
 20
-1008.587081
 10
568.030194
 20
-1008.625685
 10
567.952282
 20
-1008.661833
 10
567.872352
 20
-1008.695214
 10
567.790481
 20
-1008.725569
 10
567.706839
 20
-1008.752845
 10
567.621619
 20
-1008.777039
 10
567.535014
 20
-1008.798149
 10
567.447216
 20
-1008.816173
 10
567.35842
 20
-1008.831108
 10
567.268817
 20
-1008.842954
 10
567.1786
 20
-1008.851707
 10
567.087963
 20
-1008.857365
 10
566.997098
 20
-1008.859926
 10
566.906199
 20
-1008.859389
 10
566.815457
 20
-1008.85575
 10
566.725066
 20
-1008.849008
 10
566.63522
 20
-1008.839161
 10
566.546109
 20
-1008.826206
 10
566.457929
 20
-1008.810141
 10
566.370871
 20
-1008.790964
 10
566.285128
 20
-1008.768673
 10
566.200894
 20
-1008.743266
 10
566.118361
 20
-1008.71474
 10
566.0377
 20
-1008.683145
 10
565.958996
 20
-1008.64874
 10
565.882309
 20
-1008.611832
 10
565.807703
 20
-1008.572731
 10
565.735238
 20
-1008.531747
 10
565.664978
 20
-1008.489188
 10
565.596984
 20
-1008.445365
 10
565.531317
 20
-1008.400585
 10
565.468041
 20
-1008.355159
 10
565.407216
 20
-1008.309396
 10
565.348906
 20
-1008.263605
 10
565.293172
 20
-1008.218095
 10
565.240075
 20
-1008.173176
 10
565.189679
 20
-1008.129156
 10
565.142044
 20
-1008.086345
 10
565.097233
 20
-1008.045053
 10
565.055309
 20
-1008.005588
 10
565.016332
 20
-1007.96826
 10
564.980365
 20
-1007.933378
 10
564.738546
 20
-1007.696946
  0
LWPOLYLINE
  5
3C
330
1F
100
AcDbEntity
  8
0
100
AcDbPolyline
 90
      283
 70
   128
 43
0.0
 10
434.06898
 20
-970.232988
 10
433.860025
 20
-970.028655
 10
433.827166
 20
-969.996482
 10
433.791484
 20
-969.961299
 10
433.753289
 20
-969.923161
 10
433.712891
 20
-969.882124
 10
433.670601
 20
-969.838242
 10
433.62673
 20
-969.79157
 10
433.581588
 20
-969.742165
 10
433.535486
 20
-969.69008
 10
433.488735
 20
-969.635371
 10
433.441645
 20
-969.578094
 10
433.394527
 20
-969.518302
 10
433.347691
 20
-969.456052
 10
433.301448
 20
-969.391399
 10
433.256109
 20
-969.324397
 10
433.211984
 20
-969.255102
 10
433.169384
 20
-969.183569
 10
433.128619
 20
-969.109852
 10
433.090001
 20
-969.034008
 10
433.053839
 20
-968.956092
 10
433.020444
 20
-968.876157
 10
432.990076
 20
-968.794283
 10
432.962788
 20
-968.71064
 10
432.938582
 20
-968.625419
 10
432.917461
 20
-968.538814
 10
432.899426
 20
-968.451018
 10
432.88448
 20
-968.362223
 10
432.872624
 20
-968.272623
 10
432.863862
 20
-968.182409
 10
432.858196
 20
-968.091776
 10
432.855627
 20
-968.000914
 10
432.856157
 20
-967.910018
 10
432.859789
 20
-967.819281
 10
432.866526
 20
-967.728894
 10
432.876368
 20
-967.639051
 10
432.889319
 20
-967.549944
 10
432.90538
 20
-967.461767
 10
432.924554
 20
-967.374711
 10
432.946843
 20
-967.288971
 10
432.972249
 20
-967.204738
 10
433.000775
 20
-967.122205
 10
433.032369
 20
-967.041544
 10
433.066776
 20
-966.962838
 10
433.103686
 20
-966.886149
 10
433.142789
 20
-966.81154
 10
433.183777
 20
-966.739072
 10
433.226339
 20
-966.668808
 10
433.270166
 20
-966.600809
 10
433.31495
 20
-966.535137
 10
433.360381
 20
-966.471856
 10
433.406149
 20
-966.411026
 10
433.451945
 20
-966.352709
 10
433.497461
 20
-966.296969
 10
433.542386
 20
-966.243866
 10
433.586411
 20
-966.193463
 10
433.629227
 20
-966.145823
 10
433.670524
 20
-966.101006
 10
433.709994
 20
-966.059075
 10
433.747327
 20
-966.020093
 10
433.782214
 20
-965.98412
 10
433.814345
 20
-965.95122
 10
433.843513
 20
-965.921392
 10
433.869923
 20
-965.894385
 10
433.893881
 20
-965.869885
 10
433.915694
 20
-965.847579
 10
433.935668
 20
-965.827154
 10
433.954109
 20
-965.808295
 10
433.971324
 20
-965.790691
 10
433.987619
 20
-965.774027
 10
434.003302
 20
-965.75799
 10
434.018678
 20
-965.742266
 10
434.034054
 20
-965.726542
 10
434.049736
 20
-965.710505
 10
434.066032
 20
-965.69384
 10
434.083247
 20
-965.676236
 10
434.101688
 20
-965.657378
 10
434.121662
 20
-965.636953
 10
434.143474
 20
-965.614647
 10
434.167432
 20
-965.590147
 10
434.193842
 20
-965.563139
 10
434.223011
 20
-965.533311
 10
434.255184
 20
-965.500452
 10
434.290367
 20
-965.46477
 10
434.328505
 20
-965.426575
 10
434.369543
 20
-965.386177
 10
434.413426
 20
-965.343888
 10
434.460098
 20
-965.300018
 10
434.509504
 20
-965.254877
 10
434.56159
 20
-965.208776
 10
434.616301
 20
-965.162026
 10
434.67358
 20
-965.114938
 10
434.733374
 20
-965.067822
 10
434.795627
 20
-965.020989
 10
434.860285
 20
-964.97475
 10
434.927291
 20
-964.929414
 10
434.996591
 20
-964.885293
 10
435.068129
 20
-964.842698
 10
435.141852
 20
-964.801939
 10
435.217703
 20
-964.763327
 10
435.295628
 20
-964.727172
 10
435.375571
 20
-964.693785
 10
435.457455
 20
-964.663425
 10
435.541109
 20
-964.636146
 10
435.626341
 20
-964.61195
 10
435.712958
 20
-964.590839
 10
435.800766
 20
-964.572815
 10
435.889573
 20
-964.55788
 10
435.979186
 20
-964.546036
 10
436.069412
 20
-964.537284
 10
436.160057
 20
-964.531628
 10
436.250931
 20
-964.52907
 10
436.341838
 20
-964.52961
 10
436.432586
 20
-964.533252
 10
436.522983
 20
-964.539997
 10
436.612835
 20
-964.549847
 10
436.70195
 20
-964.562805
 10
436.790135
 20
-964.578873
 10
436.877196
 20
-964.598052
 10
436.96294
 20
-964.620345
 10
437.047176
 20
-964.645753
 10
437.12971
 20
-964.674279
 10
437.21037
 20
-964.705873
 10
437.289073
 20
-964.740278
 10
437.365758
 20
-964.777184
 10
437.440361
 20
-964.816282
 10
437.512822
 20
-964.857263
 10
437.583079
 20
-964.899818
 10
437.651068
 20
-964.943638
 10
437.71673
 20
-964.988413
 10
437.780001
 20
-965.033834
 10
437.840819
 20
-965.079592
 10
437.899124
 20
-965.125378
 10
437.954852
 20
-965.170883
 10
438.007942
 20
-965.215797
 10
438.058333
 20
-965.259811
 10
438.105961
 20
-965.302616
 10
438.150766
 20
-965.343903
 10
438.192685
 20
-965.383363
 10
438.231656
 20
-965.420686
 10
438.267618
 20
-965.455563
 10
438.509401
 20
-965.691964
 10
438.718386
 20
-965.896324
 10
438.75125
 20
-965.928502
 10
438.786937
 20
-965.96369
 10
438.825138
 20
-966.001833
 10
438.865542
 20
-966.042875
 10
438.907838
 20
-966.086763
 10
438.951716
 20
-966.13344
 10
438.996864
 20
-966.182852
 10
439.042973
 20
-966.234942
 10
439.089731
 20
-966.289657
 10
439.136828
 20
-966.346941
 10
439.183953
 20
-966.406738
 10
439.230796
 20
-966.468994
 10
439.277046
 20
-966.533654
 10
439.322391
 20
-966.600662
 10
439.366523
 20
-966.669962
 10
439.409129
 20
-966.741501
 10
439.4499
 20
-966.815223
 10
439.488524
 20
-966.891072
 10
439.524692
 20
-966.968993
 10
439.558091
 20
-967.048932
 10
439.588464
 20
-967.13081
 10
439.615756
 20
-967.214457
 10
439.639965
 20
-967.299681
 10
439.66109
 20
-967.386288
 10
439.679128
 20
-967.474087
 10
439.694076
 20
-967.562884
 10
439.705933
 20
-967.652486
 10
439.714697
 20
-967.742701
 10
439.720365
 20
-967.833336
 10
439.722936
 20
-967.924198
 10
439.722407
 20
-968.015095
 10
439.718775
 20
-968.105834
 10
439.71204
 20
-968.196221
 10
439.702198
 20
-968.286065
 10
439.689247
 20
-968.375172
 10
439.673186
 20
-968.463349
 10
439.654012
 20
-968.550405
 10
439.631723
 20
-968.636145
 10
439.606317
 20
-968.720378
 10
439.577792
 20
-968.802911
 10
439.546197
 20
-968.883572
 10
439.51179
 20
-968.962278
 10
439.47488
 20
-969.038967
 10
439.435777
 20
-969.113576
 10
439.39479
 20
-969.186044
 10
439.352228
 20
-969.256309
 10
439.3084
 20
-969.324307
 10
439.263616
 20
-969.389979
 10
439.218186
 20
-969.453261
 10
439.172417
 20
-969.514091
 10
439.126621
 20
-969.572407
 10
439.081106
 20
-969.628148
 10
439.036181
 20
-969.68125
 10
438.992156
 20
-969.731653
 10
438.94934
 20
-969.779294
 10
438.908042
 20
-969.82411
 10
438.868572
 20
-969.866041
 10
438.831239
 20
-969.905023
 10
438.796352
 20
-969.940996
 10
438.764222
 20
-969.973896
 10
438.735053
 20
-970.003724
 10
438.708643
 20
-970.030731
 10
438.684685
 20
-970.055231
 10
438.662872
 20
-970.077537
 10
438.642899
 20
-970.097963
 10
438.624458
 20
-970.116821
 10
438.607243
 20
-970.134425
 10
438.590947
 20
-970.151089
 10
438.575265
 20
-970.167127
 10
438.559889
 20
-970.18285
 10
438.544512
 20
-970.198574
 10
438.52883
 20
-970.214612
 10
438.512534
 20
-970.231276
 10
438.495319
 20
-970.24888
 10
438.476878
 20
-970.267738
 10
438.456905
 20
-970.288164
 10
438.435092
 20
-970.31047
 10
438.411134
 20
-970.334969
 10
438.384724
 20
-970.361977
 10
438.355555
 20
-970.391805
 10
438.323382
 20
-970.424664
 10
438.288199
 20
-970.460346
 10
438.250061
 20
-970.498541
 10
438.209024
 20
-970.538939
 10
438.165142
 20
-970.581229
 10
438.11847
 20
-970.6251
 10
438.069065
 20
-970.670242
 10
438.01698
 20
-970.716344
 10
437.962271
 20
-970.763095
 10
437.904994
 20
-970.810185
 10
437.845202
 20
-970.857303
 10
437.782952
 20
-970.904139
 10
437.718299
 20
-970.950382
 10
437.651297
 20
-970.995721
 10
437.582002
 20
-971.039846
 10
437.510469
 20
-971.082446
 10
437.436753
 20
-971.123211
 10
437.360909
 20
-971.161829
 10
437.282992
 20
-971.197991
 10
437.203057
 20
-971.231386
 10
437.121183
 20
-971.261754
 10
437.03754
 20
-971.289042
 10
436.952319
 20
-971.313248
 10
436.865714
 20
-971.334369
 10
436.777918
 20
-971.352404
 10
436.689123
 20
-971.36735
 10
436.599522
 20
-971.379204
 10
436.509307
 20
-971.387966
 10
436.418673
 20
-971.393632
 10
436.327811
 20
-971.3962
 10
436.236913
 20
-971.395668
 10
436.146174
 20
-971.392035
 10
436.055785
 20
-971.385297
 10
435.96594
 20
-971.375453
 10
435.876831
 20
-971.3625
 10
435.788651
 20
-971.346436
 10
435.701592
 20
-971.327259
 10
435.615848
 20
-971.304967
 10
435.531611
 20
-971.279557
 10
435.449074
 20
-971.251028
 10
435.368408
 20
-971.219429
 10
435.289697
 20
-971.185017
 10
435.213003
 20
-971.148103
 10
435.138387
 20
-971.108994
 10
435.065913
 20
-971.068001
 10
434.995642
 20
-971.025434
 10
434.927636
 20
-970.9816
 10
434.861958
 20
-970.93681
 10
434.79867
 20
-970.891373
 10
434.737832
 20
-970.845599
 10
434.679509
 20
-970.799797
 10
434.623762
 20
-970.754275
 10
434.570652
 20
-970.709344
 10
434.520243
 20
-970.665313
 10
434.472596
 20
-970.622491
 10
434.427773
 20
-970.581188
 10
434.385836
 20
-970.541713
 10
434.346848
 20
-970.504375
 10
434.31087
 20
-970.469484
 10
434.06898
 20
-970.232988
  0
LWPOLYLINE
  5
3D
330
1F
100
AcDbEntity
  8
0
100
AcDbPolyline
 90
      366
 70
   128
 43
0.0
 10
421.87549
 20
-967.562983
 10
424.585311
 20
-961.298458
 10
425.011525
 20
-960.312564
 10
425.474885
 20
-959.237314
 10
425.971893
 20
-958.077322
 10
426.499046
 20
-956.8372
 10
427.052846
 20
-955.521561
 10
427.629792
 20
-954.135016
 10
428.226384
 20
-952.682179
 10
428.839121
 20
-951.167662
 10
429.464502
 20
-949.596079
 10
430.099029
 20
-947.97204
 10
430.7392
 20
-946.30016
 10
431.381515
 20
-944.58505
 10
432.022475
 20
-942.831323
 10
432.658577
 20
-941.043592
 10
433.286323
 20
-939.226469
 10
433.902213
 20
-937.384567
 10
434.502745
 20
-935.522499
 10
435.084419
 20
-933.644877
 10
435.643736
 20
-931.756313
 10
436.177194
 20
-929.861421
 10
436.68192
 20
-927.964046
 10
437.157539
 20
-926.064969
 10
437.604302
 20
-924.164206
 10
438.022463
 20
-922.26177
 10
438.412271
 20
-920.357676
 10
438.773979
 20
-918.451938
 10
439.107839
 20
-916.544572
 10
439.414102
 20
-914.635591
 10
439.69302
 20
-912.72501
 10
439.944844
 20
-910.812844
 10
440.169826
 20
-908.899107
 10
440.368217
 20
-906.983814
 10
440.54027
 20
-905.06698
 10
440.686236
 20
-903.148618
 10
440.806367
 20
-901.228743
 10
440.900914
 20
-899.30737
 10
440.970128
 20
-897.384514
 10
441.014262
 20
-895.460189
 10
441.033568
 20
-893.53441
 10
441.028296
 20
-891.60719
 10
440.998968
 20
-889.679364
 10
440.947182
 20
-887.755039
 10
440.874807
 20
-885.839142
 10
440.783711
 20
-883.9366
 10
440.675762
 20
-882.052339
 10
440.552827
 20
-880.191287
 10
440.416776
 20
-878.35837
 10
440.269476
 20
-876.558515
 10
440.112795
 20
-874.796648
 10
439.948602
 20
-873.077697
 10
439.778764
 20
-871.406587
 10
439.60515
 20
-869.788247
 10
439.429627
 20
-868.227601
 10
439.254065
 20
-866.729579
 10
439.08033
 20
-865.299105
 10
438.910292
 20
-863.941106
 10
438.745817
 20
-862.660511
 10
438.588775
 20
-861.462244
 10
438.441033
 20
-860.351233
 10
437.435352
 20
-852.858443
 10
437.249453
 20
-851.738103
 10
437.220392
 20
-851.561825
 10
437.189849
 20
-851.369801
 10
437.159131
 20
-851.163088
 10
437.129545
 20
-850.942744
 10
437.102398
 20
-850.709828
 10
437.078997
 20
-850.465398
 10
437.060648
 20
-850.210512
 10
437.048659
 20
-849.946228
 10
437.044336
 20
-849.673604
 10
437.048985
 20
-849.393699
 10
437.063915
 20
-849.10757
 10
437.090431
 20
-848.816276
 10
437.129841
 20
-848.520876
 10
437.183451
 20
-848.222426
 10
437.252569
 20
-847.921986
 10
437.3385
 20
-847.620614
 10
437.442552
 20
-847.319367
 10
437.566032
 20
-847.019304
 10
437.710246
 20
-846.721483
 10
437.876502
 20
-846.426963
 10
438.06567
 20
-846.136886
 10
438.276876
 20
-845.852733
 10
438.508812
 20
-845.576072
 10
438.760168
 20
-845.308469
 10
439.029633
 20
-845.05149
 10
439.3159
 20
-844.806702
 10
439.617658
 20
-844.57567
 10
439.933598
 20
-844.359963
 10
440.262411
 20
-844.161145
 10
440.602787
 20
-843.980783
 10
440.953416
 20
-843.820444
 10
441.312989
 20
-843.681695
 10
441.680197
 20
-843.566101
 10
442.053731
 20
-843.475229
 10
442.43228
 20
-843.410646
 10
442.814535
 20
-843.373918
 10
443.199187
 20
-843.366611
 10
443.584926
 20
-843.390292
 10
443.970444
 20
-843.446528
 10
444.35443
 20
-843.536884
 10
444.735669
 20
-843.662175
 10
445.113323
 20
-843.820206
 10
445.486648
 20
-844.008032
 10
445.854901
 20
-844.222707
 10
446.217338
 20
-844.461282
 10
446.573213
 20
-844.720813
 10
446.921785
 20
-844.998353
 10
447.262308
 20
-845.290955
 10
447.594039
 20
-845.595674
 10
447.916235
 20
-845.909562
 10
448.22815
 20
-846.229673
 10
448.529042
 20
-846.553062
 10
448.818166
 20
-846.87678
 10
449.094779
 20
-847.197883
 10
449.358136
 20
-847.513424
 10
449.607494
 20
-847.820457
 10
449.842109
 20
-848.116034
 10
450.061237
 20
-848.39721
 10
450.264134
 20
-848.661038
 10
451.631301
 20
-850.453938
 10
459.394322
 20
-859.460731
 10
460.615993
 20
-860.878153
 10
461.94808
 20
-862.423787
 10
463.384555
 20
-864.090743
 10
464.919388
 20
-865.872133
 10
466.54655
 20
-867.761067
 10
468.260014
 20
-869.750654
 10
470.053748
 20
-871.834007
 10
471.921726
 20
-874.004234
 10
473.857917
 20
-876.254446
 10
475.856293
 20
-878.577755
 10
477.910824
 20
-880.967269
 10
480.015483
 20
-883.4161
 10
482.164239
 20
-885.917359
 10
484.351064
 20
-888.464155
 10
486.569929
 20
-891.049599
 10
488.814805
 20
-893.666802
 10
491.079664
 20
-896.308873
 10
493.358475
 20
-898.968924
 10
495.64521
 20
-901.640065
 10
497.933841
 20
-904.315405
 10
500.219159
 20
-906.989086
 10
502.499244
 20
-909.659361
 10
504.772995
 20
-912.325516
 10
507.039313
 20
-914.986834
 10
509.297098
 20
-917.6426
 10
511.54525
 20
-920.292098
 10
513.782669
 20
-922.934612
 10
516.008254
 20
-925.569427
 10
518.220908
 20
-928.195827
 10
520.419529
 20
-930.813097
 10
522.603017
 20
-933.420519
 10
524.770273
 20
-936.01738
 10
526.920197
 20
-938.602962
 10
529.051689
 20
-941.176551
 10
531.163649
 20
-943.737431
 10
533.254978
 20
-946.284886
 10
535.324575
 20
-948.8182
 10
537.37134
 20
-951.336657
 10
539.394174
 20
-953.839542
 10
541.391978
 20
-956.326139
 10
543.363332
 20
-958.795032
 10
545.305554
 20
-961.242001
 10
547.215639
 20
-963.662126
 10
549.090587
 20
-966.050486
 10
550.927393
 20
-968.402162
 10
552.723055
 20
-970.712233
 10
554.474572
 20
-972.975778
 10
556.178941
 20
-975.187878
 10
557.833159
 20
-977.343613
 10
559.434223
 20
-979.438061
 10
560.979132
 20
-981.466303
 10
562.464882
 20
-983.423419
 10
563.888472
 20
-985.304487
 10
565.246898
 20
-987.104589
 10
566.537159
 20
-988.818803
 10
567.756252
 20
-990.44221
 10
568.901174
 20
-991.969889
 10
569.968922
 20
-993.396919
 10
570.956496
 20
-994.718382
 10
577.60626
 20
-1003.623283
 10
578.322714
 20
-1004.628643
 10
578.435254
 20
-1004.786874
 10
578.556734
 20
-1004.959502
 10
578.685348
 20
-1005.145845
 10
578.819289
 20
-1005.345221
 10
578.956751
 20
-1005.556946
 10
579.095926
 20
-1005.780338
 10
579.235008
 20
-1006.014715
 10
579.372191
 20
-1006.259393
 10
579.505667
 20
-1006.51369
 10
579.633631
 20
-1006.776924
 10
579.754275
 20
-1007.048411
 10
579.865794
 20
-1007.327469
 10
579.96638
 20
-1007.613416
 10
580.054226
 20
-1007.905568
 10
580.127527
 20
-1008.203243
 10
580.184475
 20
-1008.505759
 10
580.223265
 20
-1008.812432
 10
580.242088
 20
-1009.12258
 10
580.239139
 20
-1009.43552
 10
580.212612
 20
-1009.750569
 10
580.161197
 20
-1010.066975
 10
580.085578
 20
-1010.3837
 10
579.986937
 20
-1010.699636
 10
579.866456
 20
-1011.013675
 10
579.725317
 20
-1011.324709
 10
579.564701
 20
-1011.63163
 10
579.38579
 20
-1011.933331
 10
579.189767
 20
-1012.228703
 10
578.977812
 20
-1012.516639
 10
578.751108
 20
-1012.79603
 10
578.510836
 20
-1013.065769
 10
578.258179
 20
-1013.324747
 10
577.994318
 20
-1013.571858
 10
577.720434
 20
-1013.805992
 10
577.43771
 20
-1014.026042
 10
577.147327
 20
-1014.2309
 10
576.850468
 20
-1014.419459
 10
576.548314
 20
-1014.590609
 10
576.242046
 20
-1014.743244
 10
575.932847
 20
-1014.876255
 10
575.621853
 20
-1014.988927
 10
575.310015
 20
-1015.082115
 10
574.998242
 20
-1015.157068
 10
574.68744
 20
-1015.215032
 10
574.378517
 20
-1015.257255
 10
574.072378
 20
-1015.284986
 10
573.76993
 20
-1015.299472
 10
573.472082
 20
-1015.301962
 10
573.179739
 20
-1015.293701
 10
572.893808
 20
-1015.27594
 10
572.615197
 20
-1015.249925
 10
572.344812
 20
-1015.216904
 10
572.08356
 20
-1015.178125
 10
571.832348
 20
-1015.134835
 10
571.592084
 20
-1015.088283
 10
571.363673
 20
-1015.039717
 10
571.148023
 20
-1014.990383
 10
570.94604
 20
-1014.941531
 10
570.758632
 20
-1014.894407
 10
569.494149
 20
-1014.56864
 10
569.491212
 20
-1014.567842
 10
569.470654
 20
-1014.562259
 10
569.414853
 20
-1014.547105
 10
569.306188
 20
-1014.517594
 10
569.127037
 20
-1014.46894
 10
568.859779
 20
-1014.396359
 10
568.486793
 20
-1014.295065
 10
567.990457
 20
-1014.160271
 10
567.35315
 20
-1013.987193
 10
566.55725
 20
-1013.771045
 10
565.585137
 20
-1013.507041
 10
564.419188
 20
-1013.190396
 10
563.041782
 20
-1012.816324
 10
561.435298
 20
-1012.38004
 10
559.582115
 20
-1011.876758
 10
557.464611
 20
-1011.301692
 10
555.065164
 20
-1010.650058
 10
552.366154
 20
-1009.917068
 10
549.349958
 20
-1009.097939
 10
545.998956
 20
-1008.187884
 10
542.304337
 20
-1007.18451
 10
538.292533
 20
-1006.094996
 10
533.998787
 20
-1004.928912
 10
529.458341
 20
-1003.695831
 10
524.706438
 20
-1002.405323
 10
519.778321
 20
-1001.06696
 10
514.709233
 20
-999.690312
 10
509.534417
 20
-998.28495
 10
504.289115
 20
-996.860446
 10
499.008571
 20
-995.426371
 10
493.728026
 20
-993.992296
 10
488.482724
 20
-992.567793
 10
483.307908
 20
-991.162431
 10
478.23882
 20
-989.785783
 10
473.310703
 20
-988.447419
 10
468.558801
 20
-987.156911
 10
464.018355
 20
-985.92383
 10
459.724608
 20
-984.757747
 10
455.712804
 20
-983.668233
 10
452.018185
 20
-982.664859
 10
448.667183
 20
-981.754804
 10
445.650987
 20
-980.935674
 10
442.951977
 20
-980.202685
 10
440.552531
 20
-979.55105
 10
438.435026
 20
-978.975985
 10
436.581843
 20
-978.472702
 10
434.975359
 20
-978.036418
 10
433.597954
 20
-977.662346
 10
432.432005
 20
-977.345701
 10
431.459891
 20
-977.081698
 10
430.663991
 20
-976.865549
 10
430.026684
 20
-976.692471
 10
429.530348
 20
-976.557678
 10
429.157362
 20
-976.456383
 10
428.890104
 20
-976.383802
 10
428.710953
 20
-976.335149
 10
428.602288
 20
-976.305638
 10
428.546487
 20
-976.290484
 10
428.525929
 20
-976.284901
 10
428.522992
 20
-976.284103
 10
427.511022
 20
-976.040215
 10
427.351846
 20
-976.001803
 10
427.178746
 20
-975.959728
 10
426.992978
 20
-975.91399
 10
426.795798
 20
-975.864583
 10
426.588462
 20
-975.811506
 10
426.372225
 20
-975.754756
 10
426.148343
 20
-975.694328
 10
425.918072
 20
-975.63022
 10
425.682668
 20
-975.562429
 10
425.443386
 20
-975.490952
 10
425.201482
 20
-975.415786
 10
424.958213
 20
-975.336927
 10
424.714833
 20
-975.254373
 10
424.472599
 20
-975.168121
 10
424.232767
 20
-975.078166
 10
423.996591
 20
-974.984507
 10
423.765329
 20
-974.88714
 10
423.540235
 20
-974.786062
 10
423.322566
 20
-974.68127
 10
423.113577
 20
-974.572761
 10
422.914308
 20
-974.460535
 10
422.72493
 20
-974.344605
 10
422.5454
 20
-974.224988
 10
422.375672
 20
-974.101701
 10
422.215703
 20
-973.974761
 10
422.065448
 20
-973.844183
 10
421.924862
 20
-973.709985
 10
421.793902
 20
-973.572183
 10
421.672522
 20
-973.430794
 10
421.560679
 20
-973.285835
 10
421.458328
 20
-973.137322
 10
421.365424
 20
-972.985271
 10
421.281923
 20
-972.8297
 10
421.20778
 20
-972.670626
 10
421.142952
 20
-972.508064
 10
421.087394
 20
-972.342031
 10
421.041061
 20
-972.172545
 10
421.003909
 20
-971.999621
 10
420.975894
 20
-971.823277
 10
420.956971
 20
-971.643528
 10
420.946995
 20
-971.460508
 10
420.945425
 20
-971.274807
 10
420.951618
 20
-971.087135
 10
420.96493
 20
-970.898198
 10
420.984719
 20
-970.708705
 10
421.010344
 20
-970.519362
 10
421.04116
 20
-970.330879
 10
421.076526
 20
-970.143961
 10
421.115799
 20
-969.959317
 10
421.158336
 20
-969.777656
 10
421.203495
 20
-969.599683
 10
421.250633
 20
-969.426107
 10
421.299107
 20
-969.257636
 10
421.348276
 20
-969.094977
 10
421.397495
 20
-968.938838
 10
421.446124
 20
-968.789927
 10
421.493519
 20
-968.648951
 10
421.539037
 20
-968.516618
 10
421.582036
 20
-968.393635
 10
421.87549
 20
-967.562983
  0
LWPOLYLINE
  5
3E
330
1F
100
AcDbEntity
  8
0
100
AcDbPolyline
 90
      264
 70
   128
 43
0.0
 10
341.475117
 20
-434.489236
 10
341.475128
 20
-434.160344
 10
341.475163
 20
-434.108592
 10
341.475397
 20
-434.0522
 10
341.476032
 20
-433.991461
 10
341.477267
 20
-433.92667
 10
341.479302
 20
-433.858119
 10
341.482337
 20
-433.786101
 10
341.486571
 20
-433.710909
 10
341.492205
 20
-433.632839
 10
341.499439
 20
-433.552182
 10
341.50847
 20
-433.469231
 10
341.519503
 20
-433.384282
 10
341.532734
 20
-433.297626
 10
341.548364
 20
-433.209557
 10
341.566594
 20
-433.120369
 10
341.587621
 20
-433.030355
 10
341.611649
 20
-432.939808
 10
341.638874
 20
-432.849022
 10
341.669499
 20
-432.75829
 10
341.703721
 20
-432.667905
 10
341.741743
 20
-432.578161
 10
341.783704
 20
-432.489328
 10
341.829511
 20
-432.401583
 10
341.879009
 20
-432.315079
 10
341.932046
 20
-432.229968
 10
341.988469
 20
-432.146404
 10
342.048123
 20
-432.064541
 10
342.110857
 20
-431.984531
 10
342.176516
 20
-431.906528
 10
342.244948
 20
-431.830686
 10
342.315999
 20
-431.757157
 10
342.389517
 20
-431.686094
 10
342.465347
 20
-431.617651
 10
342.543336
 20
-431.551981
 10
342.623331
 20
-431.489238
 10
342.705181
 20
-431.429574
 10
342.78873
 20
-431.373142
 10
342.873825
 20
-431.320097
 10
342.960313
 20
-431.270592
 10
343.048043
 20
-431.224778
 10
343.136858
 20
-431.18281
 10
343.226584
 20
-431.144782
 10
343.31695
 20
-431.110553
 10
343.407664
 20
-431.079924
 10
343.498431
 20
-431.052693
 10
343.588958
 20
-431.028662
 10
343.678953
 20
-431.007629
 10
343.768122
 20
-430.989396
 10
343.856171
 20
-430.973763
 10
343.942807
 20
-430.960529
 10
344.027738
 20
-430.949494
 10
344.110669
 20
-430.94046
 10
344.191308
 20
-430.933224
 10
344.26936
 20
-430.927589
 10
344.344534
 20
-430.923353
 10
344.416535
 20
-430.920317
 10
344.48507
 20
-430.918281
 10
344.549847
 20
-430.917045
 10
344.61057
 20
-430.916409
 10
344.666949
 20
-430.916173
 10
344.718688
 20
-430.916137
 10
344.765627
 20
-430.916135
 10
344.808126
 20
-430.916133
 10
344.846679
 20
-430.916131
 10
344.881781
 20
-430.91613
 10
344.913922
 20
-430.916128
 10
344.943597
 20
-430.916126
 10
344.9713
 20
-430.916125
 10
344.997523
 20
-430.916124
 10
345.02276
 20
-430.916123
 10
345.047503
 20
-430.916122
 10
345.072246
 20
-430.916121
 10
345.097483
 20
-430.91612
 10
345.123706
 20
-430.916118
 10
345.151408
 20
-430.916117
 10
345.181084
 20
-430.916116
 10
345.213225
 20
-430.916115
 10
345.248327
 20
-430.916113
 10
345.28688
 20
-430.916111
 10
345.32938
 20
-430.916108
 10
345.376317
 20
-430.916107
 10
345.428057
 20
-430.916138
 10
345.484435
 20
-430.916367
 10
345.545159
 20
-430.916999
 10
345.609936
 20
-430.918228
 10
345.678471
 20
-430.920258
 10
345.750473
 20
-430.923287
 10
345.825647
 20
-430.927515
 10
345.903701
 20
-430.933143
 10
345.984341
 20
-430.94037
 10
346.067273
 20
-430.949397
 10
346.152205
 20
-430.960423
 10
346.238843
 20
-430.973648
 10
346.326894
 20
-430.989272
 10
346.416066
 20
-431.007496
 10
346.506064
 20
-431.028519
 10
346.596595
 20
-431.05254
 10
346.687366
 20
-431.079761
 10
346.778084
 20
-431.110381
 10
346.868455
 20
-431.1446
 10
346.958186
 20
-431.182617
 10
347.047008
 20
-431.224574
 10
347.134743
 20
-431.270377
 10
347.22124
 20
-431.319873
 10
347.306343
 20
-431.372907
 10
347.389899
 20
-431.429328
 10
347.471757
 20
-431.488981
 10
347.551761
 20
-431.551714
 10
347.62976
 20
-431.617372
 10
347.705599
 20
-431.685805
 10
347.779126
 20
-431.756856
 10
347.850187
 20
-431.830375
 10
347.918629
 20
-431.906207
 10
347.984299
 20
-431.984199
 10
348.047042
 20
-432.064197
 10
348.106708
 20
-432.14605
 10
348.163141
 20
-432.229604
 10
348.216188
 20
-432.314704
 10
348.265697
 20
-432.401199
 10
348.311514
 20
-432.488935
 10
348.353485
 20
-432.577758
 10
348.391518
 20
-432.667492
 10
348.42575
 20
-432.757867
 10
348.456385
 20
-432.84859
 10
348.483621
 20
-432.939368
 10
348.507658
 20
-433.029905
 10
348.528696
 20
-433.119911
 10
348.546934
 20
-433.209091
 10
348.562573
 20
-433.297152
 10
348.575813
 20
-433.3838
 10
348.586853
 20
-433.468742
 10
348.595893
 20
-433.551685
 10
348.603135
 20
-433.632335
 10
348.608776
 20
-433.7104
 10
348.613017
 20
-433.785585
 10
348.616058
 20
-433.857597
 10
348.6181
 20
-433.926143
 10
348.619341
 20
-433.990929
 10
348.619981
 20
-434.051663
 10
348.620223
 20
-434.10805
 10
348.620304
 20
-434.488664
 10
348.620385
 20
-434.817414
 10
348.620364
 20
-434.869143
 10
348.620144
 20
-434.92551
 10
348.619526
 20
-434.986223
 10
348.618308
 20
-435.050986
 10
348.616292
 20
-435.11951
 10
348.613275
 20
-435.191499
 10
348.60906
 20
-435.26666
 10
348.603445
 20
-435.3447
 10
348.596231
 20
-435.425327
 10
348.587217
 20
-435.508247
 10
348.576203
 20
-435.593167
 10
348.562988
 20
-435.679795
 10
348.547375
 20
-435.767836
 10
348.529161
 20
-435.856997
 10
348.508147
 20
-435.946986
 10
348.484132
 20
-436.037509
 10
348.456918
 20
-436.128275
 10
348.426303
 20
-436.218989
 10
348.392087
 20
-436.309357
 10
348.354071
 20
-436.399087
 10
348.312112
 20
-436.48791
 10
348.266306
 20
-436.575648
 10
348.216806
 20
-436.662149
 10
348.163766
 20
-436.747258
 10
348.107339
 20
-436.830821
 10
348.047678
 20
-436.912688
 10
347.984936
 20
-436.992702
 10
347.919267
 20
-437.070711
 10
347.850825
 20
-437.146563
 10
347.779762
 20
-437.220102
 10
347.706233
 20
-437.291176
 10
347.63039
 20
-437.359632
 10
347.552387
 20
-437.425315
 10
347.472378
 20
-437.488073
 10
347.390515
 20
-437.547752
 10
347.306952
 20
-437.604199
 10
347.221844
 20
-437.65726
 10
347.135342
 20
-437.706781
 10
347.0476
 20
-437.752611
 10
346.958773
 20
-437.794595
 10
346.869034
 20
-437.832639
 10
346.778658
 20
-437.866882
 10
346.687935
 20
-437.897527
 10
346.597158
 20
-437.924771
 10
346.506622
 20
-437.948817
 10
346.41662
 20
-437.969862
 10
346.327443
 20
-437.988107
 10
346.239388
 20
-438.003754
 10
346.152745
 20
-438.017
 10
346.067809
 20
-438.028045
 10
345.984872
 20
-438.037092
 10
345.904229
 20
-438.044337
 10
345.826172
 20
-438.049983
 10
345.750994
 20
-438.054229
 10
345.67899
 20
-438.057274
 10
345.610451
 20
-438.059318
 10
345.545672
 20
-438.060562
 10
345.484945
 20
-438.061205
 10
345.428565
 20
-438.061448
 10
345.047996
 20
-438.061544
 10
344.719182
 20
-438.061559
 10
344.667442
 20
-438.061528
 10
344.611064
 20
-438.061298
 10
344.55034
 20
-438.060667
 10
344.485562
 20
-438.059437
 10
344.417027
 20
-438.057407
 10
344.345025
 20
-438.054378
 10
344.269851
 20
-438.050149
 10
344.191796
 20
-438.044519
 10
344.111156
 20
-438.037291
 10
344.028223
 20
-438.028263
 10
343.94329
 20
-438.017234
 10
343.856649
 20
-438.004007
 10
343.768596
 20
-437.988378
 10
343.679424
 20
-437.970152
 10
343.589424
 20
-437.949125
 10
343.49889
 20
-437.925099
 10
343.408117
 20
-437.897873
 10
343.317396
 20
-437.867246
 10
343.227022
 20
-437.833021
 10
343.137286
 20
-437.794996
 10
343.04846
 20
-437.753031
 10
342.960721
 20
-437.707219
 10
342.87422
 20
-437.657714
 10
342.789112
 20
-437.60467
 10
342.70555
 20
-437.54824
 10
342.623688
 20
-437.488576
 10
342.543678
 20
-437.425834
 10
342.465673
 20
-437.360166
 10
342.389829
 20
-437.291724
 10
342.316297
 20
-437.220664
 10
342.24523
 20
-437.147137
 10
342.176783
 20
-437.071299
 10
342.111109
 20
-436.9933
 10
342.04836
 20
-436.913296
 10
341.98869
 20
-436.831439
 10
341.932253
 20
-436.747883
 10
341.879202
 20
-436.662782
 10
341.829689
 20
-436.576289
 10
341.78387
 20
-436.488556
 10
341.741897
 20
-436.399737
 10
341.703862
 20
-436.31001
 10
341.669629
 20
-436.219644
 10
341.638993
 20
-436.128933
 10
341.611758
 20
-436.038167
 10
341.58772
 20
-435.947642
 10
341.566684
 20
-435.857652
 10
341.548447
 20
-435.768489
 10
341.532809
 20
-435.680444
 10
341.51957
 20
-435.593814
 10
341.508532
 20
-435.508891
 10
341.499493
 20
-435.425966
 10
341.492254
 20
-435.345335
 10
341.486615
 20
-435.26729
 10
341.482376
 20
-435.192124
 10
341.479337
 20
-435.120131
 10
341.477298
 20
-435.051602
 10
341.476059
 20
-434.986834
 10
341.475421
 20
-434.926116
 10
341.475183
 20
-434.869745
 10
341.475117
 20
-434.489236
  0
LWPOLYLINE
  5
3F
330
1F
100
AcDbEntity
  8
0
100
AcDbPolyline
 90
      245
 70
   128
 43
0.0
 10
411.202709
 20
-452.343172
 10
411.202642
 20
-452.014384
 10
411.202664
 20
-451.962648
 10
411.202886
 20
-451.906274
 10
411.203507
 20
-451.845555
 10
411.204727
 20
-451.780783
 10
411.206746
 20
-451.712252
 10
411.209764
 20
-451.640256
 10
411.213981
 20
-451.565085
 10
411.219599
 20
-451.487036
 10
411.226815
 20
-451.4064
 10
411.235831
 20
-451.323471
 10
411.246846
 20
-451.238541
 10
411.260061
 20
-451.151904
 10
411.275675
 20
-451.063855
 10
411.293889
 20
-450.974683
 10
411.314903
 20
-450.884685
 10
411.338917
 20
-450.794152
 10
411.36613
 20
-450.703378
 10
411.396743
 20
-450.612655
 10
411.430956
 20
-450.522279
 10
411.468969
 20
-450.432541
 10
411.510923
 20
-450.34371
 10
411.556724
 20
-450.255965
 10
411.606218
 20
-450.169458
 10
411.659252
 20
-450.084343
 10
411.715673
 20
-450.000772
 10
411.775327
 20
-449.918901
 10
411.838061
 20
-449.838881
 10
411.903721
 20
-449.760867
 10
411.972155
 20
-449.685013
 10
412.043209
 20
-449.61147
 10
412.11673
 20
-449.540393
 10
412.192563
 20
-449.471936
 10
412.270556
 20
-449.406251
 10
412.350557
 20
-449.343492
 10
412.432411
 20
-449.283814
 10
412.515964
 20
-449.227366
 10
412.601064
 20
-449.174307
 10
412.687557
 20
-449.124786
 10
412.775291
 20
-449.07896
 10
412.864111
 20
-449.03698
 10
412.95384
 20
-448.99894
 10
413.04421
 20
-448.964702
 10
413.134927
 20
-448.934063
 10
413.225697
 20
-448.906825
 10
413.316226
 20
-448.882786
 10
413.406223
 20
-448.861748
 10
413.495394
 20
-448.84351
 10
413.583444
 20
-448.827871
 10
413.670082
 20
-448.814634
 10
413.755013
 20
-448.803596
 10
413.837946
 20
-448.794558
 10
413.918585
 20
-448.787321
 10
413.996638
 20
-448.781683
 10
414.071813
 20
-448.777447
 10
414.143814
 20
-448.77441
 10
414.212349
 20
-448.772373
 10
414.277125
 20
-448.771137
 10
414.33785
 20
-448.770501
 10
414.394228
 20
-448.770264
 10
414.774781
 20
-448.770214
 10
415.10361
 20
-448.770159
 10
415.155352
 20
-448.770183
 10
415.211731
 20
-448.770408
 10
415.272459
 20
-448.771031
 10
415.337238
 20
-448.772254
 10
415.405776
 20
-448.774276
 10
415.477781
 20
-448.777297
 10
415.552959
 20
-448.781519
 10
415.631018
 20
-448.787139
 10
415.711662
 20
-448.79436
 10
415.7946
 20
-448.80338
 10
415.879537
 20
-448.814399
 10
415.966182
 20
-448.827619
 10
416.05424
 20
-448.843239
 10
416.143419
 20
-448.861458
 10
416.233424
 20
-448.882478
 10
416.323964
 20
-448.906497
 10
416.414744
 20
-448.933717
 10
416.505472
 20
-448.964338
 10
416.595854
 20
-448.998558
 10
416.685596
 20
-449.036579
 10
416.77443
 20
-449.07854
 10
416.862178
 20
-449.124349
 10
416.948688
 20
-449.173853
 10
417.033805
 20
-449.226896
 10
417.117375
 20
-449.283326
 10
417.199247
 20
-449.342989
 10
417.279265
 20
-449.405733
 10
417.357278
 20
-449.471405
 10
417.433133
 20
-449.539848
 10
417.506673
 20
-449.610913
 10
417.577748
 20
-449.684444
 10
417.646203
 20
-449.760289
 10
417.711884
 20
-449.838294
 10
417.77464
 20
-449.918305
 10
417.834316
 20
-450.000171
 10
417.890759
 20
-450.083736
 10
417.943815
 20
-450.168847
 10
417.993331
 20
-450.255352
 10
418.039154
 20
-450.343097
 10
418.08113
 20
-450.431929
 10
418.119165
 20
-450.521671
 10
418.153401
 20
-450.612052
 10
418.184035
 20
-450.70278
 10
418.21127
 20
-450.793561
 10
418.235304
 20
-450.884103
 10
418.256339
 20
-450.974111
 10
418.274573
 20
-451.063293
 10
418.290208
 20
-451.151354
 10
418.303442
 20
-451.238003
 10
418.314476
 20
-451.322944
 10
418.32351
 20
-451.405887
 10
418.330745
 20
-451.486536
 10
418.336379
 20
-451.564599
 10
418.340612
 20
-451.639782
 10
418.343646
 20
-451.711792
 10
418.34568
 20
-451.780335
 10
418.346915
 20
-451.845119
 10
418.347548
 20
-451.905851
 10
418.347782
 20
-451.962236
 10
418.347818
 20
-452.342836
 10
418.347833
 20
-452.67165
 10
418.347802
 20
-452.723389
 10
418.347571
 20
-452.779768
 10
418.346941
 20
-452.840492
 10
418.345711
 20
-452.905268
 10
418.343681
 20
-452.973804
 10
418.340652
 20
-453.045806
 10
418.336424
 20
-453.12098
 10
418.330796
 20
-453.199033
 10
418.323568
 20
-453.279672
 10
418.314543
 20
-453.362605
 10
418.303516
 20
-453.447538
 10
418.290291
 20
-453.534176
 10
418.274666
 20
-453.622227
 10
418.256443
 20
-453.711399
 10
418.23542
 20
-453.801396
 10
418.211399
 20
-453.891927
 10
418.184178
 20
-453.982698
 10
418.153558
 20
-454.073416
 10
418.11934
 20
-454.163787
 10
418.081322
 20
-454.253519
 10
418.039365
 20
-454.34234
 10
417.993561
 20
-454.430076
 10
417.944067
 20
-454.516571
 10
417.891031
 20
-454.601674
 10
417.834611
 20
-454.685231
 10
417.774958
 20
-454.767087
 10
417.712224
 20
-454.847091
 10
417.646565
 20
-454.925089
 10
417.578133
 20
-455.000927
 10
417.50708
 20
-455.074452
 10
417.43356
 20
-455.145511
 10
417.357727
 20
-455.21395
 10
417.279733
 20
-455.279616
 10
417.199732
 20
-455.342357
 10
417.117877
 20
-455.402018
 10
417.034322
 20
-455.458447
 10
416.949219
 20
-455.511489
 10
416.862721
 20
-455.560992
 10
416.774982
 20
-455.606802
 10
416.686156
 20
-455.648765
 10
416.596417
 20
-455.68679
 10
416.506037
 20
-455.721013
 10
416.41531
 20
-455.751639
 10
416.324528
 20
-455.778864
 10
416.233984
 20
-455.80289
 10
416.143973
 20
-455.823917
 10
416.054787
 20
-455.842144
 10
415.966721
 20
-455.857771
 10
415.880067
 20
-455.871
 10
415.795119
 20
-455.882028
 10
415.71217
 20
-455.891057
 10
415.631515
 20
-455.898287
 10
415.553444
 20
-455.903917
 10
415.478254
 20
-455.908146
 10
415.406236
 20
-455.911177
 10
415.337685
 20
-455.913207
 10
415.272893
 20
-455.914439
 10
415.212156
 20
-455.91507
 10
415.155763
 20
-455.915301
 10
414.775119
 20
-455.915321
 10
414.446344
 20
-455.915351
 10
414.394611
 20
-455.915321
 10
414.338239
 20
-455.915093
 10
414.277522
 20
-455.914465
 10
414.212752
 20
-455.913238
 10
414.144225
 20
-455.91121
 10
414.072231
 20
-455.908184
 10
413.997065
 20
-455.903959
 10
413.919018
 20
-455.898333
 10
413.838386
 20
-455.891108
 10
413.755462
 20
-455.882085
 10
413.670537
 20
-455.871061
 10
413.583905
 20
-455.857837
 10
413.49586
 20
-455.842215
 10
413.406694
 20
-455.823994
 10
413.316702
 20
-455.802973
 10
413.226175
 20
-455.778952
 10
413.135408
 20
-455.751733
 10
413.044692
 20
-455.721115
 10
412.954323
 20
-455.686897
 10
412.864592
 20
-455.648879
 10
412.77577
 20
-455.606921
 10
412.688033
 20
-455.561118
 10
412.601534
 20
-455.511622
 10
412.516429
 20
-455.458586
 10
412.432868
 20
-455.402165
 10
412.351006
 20
-455.342511
 10
412.270997
 20
-455.279777
 10
412.192993
 20
-455.214117
 10
412.117149
 20
-455.145685
 10
412.043617
 20
-455.074633
 10
411.972551
 20
-455.001115
 10
411.904105
 20
-454.925283
 10
411.838431
 20
-454.847293
 10
411.775683
 20
-454.767295
 10
411.716015
 20
-454.685446
 10
411.659581
 20
-454.601896
 10
411.606533
 20
-454.516799
 10
411.557024
 20
-454.43031
 10
411.511209
 20
-454.34258
 10
411.469241
 20
-454.253765
 10
411.431213
 20
-454.164039
 10
411.396986
 20
-454.073673
 10
411.366359
 20
-453.982961
 10
411.339132
 20
-453.892195
 10
411.315106
 20
-453.801669
 10
411.294078
 20
-453.711675
 10
411.275851
 20
-453.622509
 10
411.260224
 20
-453.534461
 10
411.246997
 20
-453.447827
 10
411.235969
 20
-453.3629
 10
411.226942
 20
-453.279971
 10
411.219714
 20
-453.199335
 10
411.214087
 20
-453.121284
 10
411.209859
 20
-453.046113
 10
411.20683
 20
-452.974115
 10
411.204802
 20
-452.905583
 10
411.203573
 20
-452.840808
 10
411.202944
 20
-452.780087
 10
411.202715
 20
-452.723711
 10
411.202709
 20
-452.343172
  0
LWPOLYLINE
  5
40
330
1F
100
AcDbEntity
  8
0
100
AcDbPolyline
 90
      488
 70
   128
 43
0.0
 10
334.581459
 20
-710.82019
 10
338.516984
 20
-695.392568
 10
339.135862
 20
-692.964685
 10
339.807961
 20
-690.317199
 10
340.527472
 20
-687.461917
 10
341.288586
 20
-684.41065
 10
342.085491
 20
-681.175206
 10
342.912377
 20
-677.767396
 10
343.763434
 20
-674.19903
 10
344.632851
 20
-670.481917
 10
345.514819
 20
-666.627866
 10
346.403527
 20
-662.648689
 10
347.293164
 20
-658.556192
 10
348.17792
 20
-654.362187
 10
349.051985
 20
-650.078484
 10
349.909549
 20
-645.716891
 10
350.7448
 20
-641.289218
 10
351.55193
 20
-636.807276
 10
352.325126
 20
-632.282873
 10
353.058581
 20
-627.727819
 10
353.746481
 20
-623.153925
 10
354.383018
 20
-618.572998
 10
354.963303
 20
-613.994886
 10
355.486133
 20
-609.421576
 10
355.951227
 20
-604.85309
 10
356.358304
 20
-600.289454
 10
356.707082
 20
-595.730691
 10
356.997281
 20
-591.176824
 10
357.22862
 20
-586.627878
 10
357.400817
 20
-582.083875
 10
357.513592
 20
-577.544839
 10
357.566663
 20
-573.010795
 10
357.55975
 20
-568.481765
 10
357.492571
 20
-563.957774
 10
357.364845
 20
-559.438845
 10
357.176291
 20
-554.925002
 10
356.926628
 20
-550.416269
 10
356.615574
 20
-545.912668
 10
356.24285
 20
-541.414223
 10
355.808174
 20
-536.92096
 10
355.311264
 20
-532.432901
 10
354.75184
 20
-527.95007
 10
354.130699
 20
-523.474287
 10
353.452947
 20
-519.014561
 10
352.724774
 20
-514.581701
 10
351.952365
 20
-510.186513
 10
351.141908
 20
-505.839802
 10
350.299588
 20
-501.552377
 10
349.431592
 20
-497.335043
 10
348.544107
 20
-493.198606
 10
347.643318
 20
-489.153875
 10
346.735414
 20
-485.211655
 10
345.826581
 20
-481.382753
 10
344.923005
 20
-477.677976
 10
344.030872
 20
-474.10813
 10
343.156369
 20
-470.684022
 10
342.305683
 20
-467.41646
 10
341.485001
 20
-464.316248
 10
340.700509
 20
-461.394195
 10
339.958394
 20
-458.661107
 10
339.264842
 20
-456.12779
 10
334.563606
 20
-439.046066
 10
334.197302
 20
-437.715291
 10
334.139843
 20
-437.505835
 10
334.078284
 20
-437.277264
 10
334.014024
 20
-437.030425
 10
333.948457
 20
-436.766164
 10
333.882982
 20
-436.485328
 10
333.818993
 20
-436.188763
 10
333.757889
 20
-435.877316
 10
333.701063
 20
-435.551833
 10
333.649913
 20
-435.213162
 10
333.605835
 20
-434.862149
 10
333.570226
 20
-434.499642
 10
333.544481
 20
-434.126485
 10
333.529997
 20
-433.743525
 10
333.528171
 20
-433.351609
 10
333.540398
 20
-432.951586
 10
333.568076
 20
-432.544298
 10
333.612598
 20
-432.130597
 10
333.675365
 20
-431.711325
 10
333.757769
 20
-431.287331
 10
333.861209
 20
-430.85946
 10
333.986644
 20
-430.42867
 10
334.133293
 20
-429.996349
 10
334.299941
 20
-429.563999
 10
334.485368
 20
-429.133116
 10
334.68836
 20
-428.705201
 10
334.907697
 20
-428.281754
 10
335.142165
 20
-427.864273
 10
335.390544
 20
-427.454259
 10
335.651619
 20
-427.05321
 10
335.924173
 20
-426.662626
 10
336.206987
 20
-426.284006
 10
336.498846
 20
-425.918849
 10
336.798534
 20
-425.568655
 10
337.10483
 20
-425.234924
 10
337.416521
 20
-424.919154
 10
337.732389
 20
-424.622844
 10
338.051217
 20
-424.347494
 10
338.371786
 20
-424.094605
 10
338.692881
 20
-423.865673
 10
339.013285
 20
-423.662201
 10
339.331873
 20
-423.485178
 10
339.647898
 20
-423.333566
 10
339.960702
 20
-423.20582
 10
340.269631
 20
-423.100393
 10
340.574025
 20
-423.015738
 10
340.873232
 20
-422.950309
 10
341.166595
 20
-422.902562
 10
341.453456
 20
-422.870947
 10
341.733162
 20
-422.853921
 10
342.005056
 20
-422.849938
 10
342.26848
 20
-422.857449
 10
342.522781
 20
-422.874909
 10
342.767301
 20
-422.900772
 10
343.001384
 20
-422.933493
 10
343.224375
 20
-422.971524
 10
343.435618
 20
-423.01332
 10
343.634456
 20
-423.057333
 10
343.820235
 20
-423.102019
 10
343.992295
 20
-423.145831
 10
345.15188
 20
-423.45166
 10
348.858246
 20
-424.429959
 10
349.441546
 20
-424.583919
 10
350.077729
 20
-424.751821
 10
350.764078
 20
-424.932928
 10
351.497884
 20
-425.12651
 10
352.27643
 20
-425.331831
 10
353.097003
 20
-425.548159
 10
353.95689
 20
-425.774759
 10
354.853377
 20
-426.010897
 10
355.783749
 20
-426.255842
 10
356.745295
 20
-426.508857
 10
357.7353
 20
-426.769211
 10
358.751049
 20
-427.036169
 10
359.789832
 20
-427.308996
 10
360.848932
 20
-427.586962
 10
361.925636
 20
-427.869331
 10
363.017231
 20
-428.155369
 10
364.121003
 20
-428.444343
 10
365.234239
 20
-428.735519
 10
366.354225
 20
-429.028164
 10
367.478247
 20
-429.321545
 10
368.604021
 20
-429.615048
 10
369.730987
 20
-429.908553
 10
370.85901
 20
-430.202058
 10
371.987958
 20
-430.495565
 10
373.117701
 20
-430.789072
 10
374.248105
 20
-431.08258
 10
375.379038
 20
-431.376088
 10
376.510367
 20
-431.669596
 10
377.641962
 20
-431.963104
 10
378.773688
 20
-432.256613
 10
379.905415
 20
-432.550121
 10
381.03701
 20
-432.843628
 10
382.16834
 20
-433.137134
 10
383.299273
 20
-433.430641
 10
384.429678
 20
-433.724146
 10
385.559422
 20
-434.01765
 10
386.688372
 20
-434.311153
 10
387.816396
 20
-434.604653
 10
388.943363
 20
-434.898154
 10
390.06914
 20
-435.191651
 10
391.193163
 20
-435.485025
 10
392.313152
 20
-435.777664
 10
393.426389
 20
-436.068833
 10
394.530165
 20
-436.357799
 10
395.621762
 20
-436.64383
 10
396.698469
 20
-436.92619
 10
397.757572
 20
-437.204147
 10
398.796357
 20
-437.476967
 10
399.812111
 20
-437.743916
 10
400.802117
 20
-438.00426
 10
401.763666
 20
-438.257267
 10
402.694043
 20
-438.502203
 10
403.590532
 20
-438.738333
 10
404.450421
 20
-438.964925
 10
405.270997
 20
-439.181243
 10
406.049546
 20
-439.386557
 10
406.783354
 20
-439.580131
 10
407.469706
 20
-439.761232
 10
408.105891
 20
-439.929126
 10
412.395573
 20
-441.06134
 10
413.397154
 20
-441.325673
 10
413.55477
 20
-441.367353
 10
413.726612
 20
-441.413285
 10
413.911883
 20
-441.463756
 10
414.109784
 20
-441.519053
 10
414.319518
 20
-441.579464
 10
414.540289
 20
-441.645275
 10
414.771296
 20
-441.716772
 10
415.011743
 20
-441.794244
 10
415.260834
 20
-441.877977
 10
415.517769
 20
-441.968259
 10
415.781752
 20
-442.065375
 10
416.051983
 20
-442.169615
 10
416.327666
 20
-442.281263
 10
416.608004
 20
-442.400607
 10
416.892198
 20
-442.527935
 10
417.179451
 20
-442.663534
 10
417.468965
 20
-442.807689
 10
417.759943
 20
-442.96069
 10
418.051586
 20
-443.122822
 10
418.343099
 20
-443.294372
 10
418.633693
 20
-443.475564
 10
418.922634
 20
-443.666358
 10
419.209198
 20
-443.866657
 10
419.492659
 20
-444.076355
 10
419.772294
 20
-444.295354
 10
420.047381
 20
-444.523552
 10
420.317192
 20
-444.760846
 10
420.581005
 20
-445.007136
 10
420.838096
 20
-445.262319
 10
421.087741
 20
-445.526295
 10
421.329214
 20
-445.798962
 10
421.561792
 20
-446.080218
 10
421.784753
 20
-446.369963
 10
421.997369
 20
-446.668093
 10
422.198919
 20
-446.974509
 10
422.388677
 20
-447.28911
 10
422.565919
 20
-447.611792
 10
422.729923
 20
-447.942455
 10
422.879963
 20
-448.280998
 10
423.015315
 20
-448.627318
 10
423.135515
 20
-448.98109
 10
423.241139
 20
-449.341088
 10
423.333025
 20
-449.705859
 10
423.412009
 20
-450.073953
 10
423.478926
 20
-450.443919
 10
423.534614
 20
-450.814305
 10
423.579908
 20
-451.183662
 10
423.615646
 20
-451.550536
 10
423.642665
 20
-451.913478
 10
423.661798
 20
-452.271034
 10
423.673886
 20
-452.621757
 10
423.679763
 20
-452.964193
 10
423.680265
 20
-453.296891
 10
423.676229
 20
-453.618399
 10
423.668493
 20
-453.927269
 10
423.657891
 20
-454.222047
 10
423.645261
 20
-454.501282
 10
423.63144
 20
-454.763524
 10
423.617264
 20
-455.007322
 10
423.515726
 20
-456.654357
 10
422.693205
 20
-469.962897
 10
422.563863
 20
-472.057307
 10
422.423418
 20
-474.34124
 10
422.273104
 20
-476.804586
 10
422.114156
 20
-479.43724
 10
421.947807
 20
-482.229096
 10
421.775292
 20
-485.170046
 10
421.597847
 20
-488.249984
 10
421.416704
 20
-491.458803
 10
421.233099
 20
-494.786396
 10
421.048265
 20
-498.222657
 10
420.863438
 20
-501.757478
 10
420.679852
 20
-505.380754
 10
420.49874
 20
-509.082377
 10
420.321338
 20
-512.85224
 10
420.14888
 20
-516.680238
 10
419.982601
 20
-520.556263
 10
419.823734
 20
-524.470208
 10
419.673514
 20
-528.411968
 10
419.533175
 20
-532.371434
 10
419.403953
 20
-536.3385
 10
419.286875
 20
-540.304744
 10
419.182148
 20
-544.268482
 10
419.089771
 20
-548.229714
 10
419.009744
 20
-552.188438
 10
418.942068
 20
-556.144658
 10
418.886742
 20
-560.098369
 10
418.843766
 20
-564.049576
 10
418.81314
 20
-567.998274
 10
418.794866
 20
-571.944468
 10
418.788941
 20
-575.888154
 10
418.795367
 20
-579.829334
 10
418.814143
 20
-583.768008
 10
418.84527
 20
-587.704175
 10
418.888747
 20
-591.637836
 10
418.944574
 20
-595.56899
 10
419.012751
 20
-599.497638
 10
419.09328
 20
-603.42378
 10
419.186158
 20
-607.347414
 10
419.291387
 20
-611.268543
 10
419.408966
 20
-615.187165
 10
419.53869
 20
-619.101681
 10
419.679528
 20
-623.004084
 10
419.830245
 20
-626.88477
 10
419.989606
 20
-630.734132
 10
420.156374
 20
-634.542567
 10
420.329315
 20
-638.300468
 10
420.507192
 20
-641.99823
 10
420.688768
 20
-645.626247
 10
420.872811
 20
-649.174915
 10
421.058083
 20
-652.634628
 10
421.243348
 20
-655.995779
 10
421.427372
 20
-659.248764
 10
421.608919
 20
-662.383977
 10
421.786752
 20
-665.391814
 10
421.959635
 20
-668.262668
 10
422.126335
 20
-670.986933
 10
422.285614
 20
-673.555005
 10
422.436237
 20
-675.957279
 10
422.576969
 20
-678.184147
 10
423.530766
 20
-693.200356
 10
423.621163
 20
-694.623213
 10
423.635249
 20
-694.847071
 10
423.649784
 20
-695.090822
 10
423.66386
 20
-695.353014
 10
423.676567
 20
-695.632197
 10
423.687001
 20
-695.92692
 10
423.694252
 20
-696.235734
 10
423.697413
 20
-696.557186
 10
423.695576
 20
-696.889828
 10
423.687834
 20
-697.232207
 10
423.673279
 20
-697.582874
 10
423.651003
 20
-697.940377
 10
423.620098
 20
-698.303267
 10
423.579658
 20
-698.670093
 10
423.528774
 20
-699.039403
 10
423.46654
 20
-699.409748
 10
423.392046
 20
-699.779678
 10
423.304385
 20
-700.14774
 10
423.202649
 20
-700.512484
 10
423.085932
 20
-700.872461
 10
422.953326
 20
-701.226219
 10
422.804216
 20
-701.572534
 10
422.639169
 20
-701.911077
 10
422.459046
 20
-702.241746
 10
422.264706
 20
-702.564442
 10
422.057011
 20
-702.879062
 10
421.836819
 20
-703.185504
 10
421.604992
 20
-703.483666
 10
421.36239
 20
-703.773446
 10
421.109872
 20
-704.054745
 10
420.848301
 20
-704.327457
 10
420.578536
 20
-704.591482
 10
420.301435
 20
-704.846719
 10
420.017862
 20
-705.093066
 10
419.728675
 20
-705.330421
 10
419.434735
 20
-705.558682
 10
419.136903
 20
-705.777749
 10
418.836038
 20
-705.987517
 10
418.533001
 20
-706.187886
 10
418.228652
 20
-706.378754
 10
417.923852
 20
-706.560021
 10
417.619439
 20
-706.731647
 10
417.316166
 20
-706.893856
 10
417.014764
 20
-707.046934
 10
416.715965
 20
-707.191169
 10
416.420499
 20
-707.326845
 10
416.129098
 20
-707.454251
 10
415.842493
 20
-707.573674
 10
415.561415
 20
-707.685399
 10
415.286596
 20
-707.789714
 10
415.018766
 20
-707.886906
 10
414.758657
 20
-707.97726
 10
414.506999
 20
-708.061065
 10
414.264525
 20
-708.138605
 10
414.031964
 20
-708.21017
 10
413.810049
 20
-708.276045
 10
413.599511
 20
-708.336516
 10
413.401081
 20
-708.391871
 10
413.215489
 20
-708.442396
 10
413.043468
 20
-708.48838
 10
411.883578
 20
-708.794732
 10
411.882188
 20
-708.795099
 10
411.87246
 20
-708.797668
 10
411.846053
 20
-708.804643
 10
411.794629
 20
-708.818224
 10
411.70985
 20
-708.840614
 10
411.583376
 20
-708.874017
 10
411.406869
 20
-708.920633
 10
411.171989
 20
-708.982666
 10
410.870397
 20
-709.062318
 10
410.493754
 20
-709.161791
 10
410.033723
 20
-709.283288
 10
409.481963
 20
-709.42901
 10
408.830136
 20
-709.60116
 10
408.069902
 20
-709.801941
 10
407.192924
 20
-710.033555
 10
406.19086
 20
-710.298205
 10
405.055374
 20
-710.598091
 10
403.778126
 20
-710.935418
 10
402.350777
 20
-711.312387
 10
400.764988
 20
-711.731201
 10
399.01659
 20
-712.192961
 10
397.11809
 20
-712.694363
 10
395.086168
 20
-713.231002
 10
392.9375
 20
-713.798476
 10
390.688766
 20
-714.392376
 10
388.356641
 20
-715.0083
 10
385.957805
 20
-715.641843
 10
383.508936
 20
-716.2886
 10
381.026711
 20
-716.944167
 10
378.527807
 20
-717.604138
 10
376.028904
 20
-718.264111
 10
373.546679
 20
-718.919676
 10
371.09781
 20
-719.566435
 10
368.698974
 20
-720.199977
 10
366.366849
 20
-720.815902
 10
364.118115
 20
-721.409802
 10
361.969447
 20
-721.977275
 10
359.937524
 20
-722.513915
 10
358.039025
 20
-723.015317
 10
356.290627
 20
-723.477077
 10
354.704838
 20
-723.895891
 10
353.277489
 20
-724.27286
 10
352.000241
 20
-724.610187
 10
350.864754
 20
-724.910073
 10
349.862691
 20
-725.174723
 10
348.985713
 20
-725.406337
 10
348.225479
 20
-725.607118
 10
347.573652
 20
-725.779268
 10
347.021892
 20
-725.92499
 10
346.561861
 20
-726.046487
 10
346.185218
 20
-726.14596
 10
345.883626
 20
-726.225611
 10
345.648746
 20
-726.287644
 10
345.472238
 20
-726.334261
 10
345.345765
 20
-726.367664
 10
345.260985
 20
-726.390054
 10
345.209562
 20
-726.403635
 10
345.183155
 20
-726.410609
 10
345.173427
 20
-726.413178
 10
345.172036
 20
-726.413546
 10
344.169906
 20
-726.678186
 10
344.012183
 20
-726.71961
 10
343.840101
 20
-726.763467
 10
343.654336
 20
-726.80822
 10
343.45556
 20
-726.852331
 10
343.244449
 20
-726.894264
 10
343.021676
 20
-726.932482
 10
342.787914
 20
-726.965449
 10
342.543838
 20
-726.991625
 10
342.290122
 20
-727.009476
 10
342.027439
 20
-727.017462
 10
341.756465
 20
-727.01405
 10
341.477872
 20
-726.997699
 10
341.192335
 20
-726.966876
 10
340.900527
 20
-726.92004
 10
340.603123
 20
-726.855657
 10
340.300796
 20
-726.772189
 10
339.994221
 20
-726.668099
 10
339.684071
 20
-726.54185
 10
339.371022
 20
-726.391905
 10
339.055744
 20
-726.216728
 10
338.738996
 20
-726.015281
 10
338.421859
 20
-725.788537
 10
338.105498
 20
-725.537964
 10
337.791076
 20
-725.265033
 10
337.479756
 20
-724.971217
 10
337.172703
 20
-724.657984
 10
336.871081
 20
-724.326808
 10
336.576052
 20
-723.979157
 10
336.288782
 20
-723.616503
 10
336.010435
 20
-723.240317
 10
335.742173
 20
-722.85207
 10
335.485163
 20
-722.453234
 10
335.240564
 20
-722.045277
 10
335.009544
 20
-721.629672
 10
334.793266
 20
-721.207889
 10
334.592892
 20
-720.7814
 10
334.409588
 20
-720.351673
 10
334.244517
 20
-719.920183
 10
334.098843
 20
-719.488398
 10
333.973729
 20
-719.057789
 10
333.869923
 20
-718.62973
 10
333.786498
 20
-718.205192
 10
333.722112
 20
-717.785052
 10
333.67542
 20
-717.370186
 10
333.64508
 20
-716.961468
 10
333.629748
 20
-716.559775
 10
333.628082
 20
-716.16598
 10
333.638737
 20
-715.780959
 10
333.660372
 20
-715.405589
 10
333.691642
 20
-715.040743
 10
333.731205
 20
-714.687297
 10
333.777717
 20
-714.346126
 10
333.829834
 20
-714.018106
 10
333.886214
 20
-713.704112
 10
333.945512
 20
-713.405019
 10
334.006388
 20
-713.121703
 10
334.067496
 20
-712.855038
 10
334.127494
 20
-712.6059
 10
334.185038
 20
-712.375165
 10
334.581459
 20
-710.82019
  0
LWPOLYLINE
  5
41
330
1F
100
AcDbEntity
  8
0
100
AcDbPolyline
 90
      488
 70
   128
 43
0.0
 10
450.205448
 20
-691.088399
 10
454.140963
 20
-677.90099
 10
454.759838
 20
-675.825655
 10
455.431936
 20
-673.562605
 10
456.151445
 20
-671.121932
 10
456.912556
 20
-668.513733
 10
457.70946
 20
-665.748101
 10
458.536344
 20
-662.835132
 10
459.387398
 20
-659.784921
 10
460.256813
 20
-656.607562
 10
461.138779
 20
-653.31315
 10
462.027484
 20
-649.91178
 10
462.917119
 20
-646.413547
 10
463.801873
 20
-642.828544
 10
464.675935
 20
-639.166869
 10
465.533496
 20
-635.438613
 10
466.368745
 20
-631.653873
 10
467.175873
 20
-627.822744
 10
467.949067
 20
-623.955321
 10
468.68252
 20
-620.061697
 10
469.370419
 20
-616.151968
 10
470.006954
 20
-612.236228
 10
470.587237
 20
-608.322894
 10
471.110066
 20
-604.413664
 10
471.575159
 20
-600.508559
 10
471.982234
 20
-596.607598
 10
472.331011
 20
-592.710804
 10
472.62121
 20
-588.818195
 10
472.852548
 20
-584.929791
 10
473.024745
 20
-581.045613
 10
473.13752
 20
-577.165681
 10
473.19059
 20
-573.290016
 10
473.183677
 20
-569.418637
 10
473.116498
 20
-565.551565
 10
472.988773
 20
-561.68882
 10
472.800219
 20
-557.830423
 10
472.550557
 20
-553.976393
 10
472.239504
 20
-550.12675
 10
471.866781
 20
-546.281516
 10
471.432106
 20
-542.44071
 10
470.935197
 20
-538.604352
 10
470.375775
 20
-534.772464
 10
469.754635
 20
-530.946599
 10
469.076886
 20
-527.134461
 10
468.348714
 20
-523.345288
 10
467.576308
 20
-519.588316
 10
466.765853
 20
-515.872781
 10
465.923535
 20
-512.207924
 10
465.055541
 20
-508.60298
 10
464.168058
 20
-505.067186
 10
463.267272
 20
-501.609782
 10
462.359371
 20
-498.240003
 10
461.45054
 20
-494.967088
 10
460.546966
 20
-491.800274
 10
459.654835
 20
-488.748798
 10
458.780335
 20
-485.821898
 10
457.929651
 20
-483.028811
 10
457.108971
 20
-480.378775
 10
456.324482
 20
-477.881027
 10
455.582368
 20
-475.544805
 10
454.888818
 20
-473.379345
 10
450.187595
 20
-458.778023
 10
449.821292
 20
-457.640486
 10
449.763833
 20
-457.461445
 10
449.702275
 20
-457.266064
 10
449.638014
 20
-457.055068
 10
449.572448
 20
-456.82918
 10
449.506973
 20
-456.589124
 10
449.442984
 20
-456.335622
 10
449.38188
 20
-456.0694
 10
449.325054
 20
-455.79118
 10
449.273904
 20
-455.501687
 10
449.229827
 20
-455.201644
 10
449.194217
 20
-454.891775
 10
449.168472
 20
-454.572803
 10
449.153989
 20
-454.245453
 10
449.152163
 20
-453.910446
 10
449.16439
 20
-453.568509
 10
449.192067
 20
-453.220363
 10
449.23659
 20
-452.866734
 10
449.299356
 20
-452.508344
 10
449.38176
 20
-452.145917
 10
449.4852
 20
-451.780177
 10
449.610635
 20
-451.41194
 10
449.757284
 20
-451.042396
 10
449.923931
 20
-450.672826
 10
450.109358
 20
-450.304511
 10
450.312348
 20
-449.938733
 10
450.531686
 20
-449.576773
 10
450.766152
 20
-449.219914
 10
451.014531
 20
-448.869438
 10
451.275605
 20
-448.526624
 10
451.548158
 20
-448.192756
 10
451.830972
 20
-447.869115
 10
452.12283
 20
-447.556981
 10
452.422517
 20
-447.257638
 10
452.728813
 20
-446.972367
 10
453.040503
 20
-446.702449
 10
453.35637
 20
-446.449166
 10
453.675197
 20
-446.2138
 10
453.995765
 20
-445.997631
 10
454.316859
 20
-445.801942
 10
454.637262
 20
-445.628016
 10
454.95585
 20
-445.476698
 10
455.271873
 20
-445.347102
 10
455.584677
 20
-445.237905
 10
455.893604
 20
-445.147787
 10
456.197998
 20
-445.075425
 10
456.497204
 20
-445.019497
 10
456.790566
 20
-444.978682
 10
457.077427
 20
-444.951659
 10
457.357132
 20
-444.937105
 10
457.629025
 20
-444.9337
 10
457.892448
 20
-444.94012
 10
458.146748
 20
-444.955045
 10
458.391268
 20
-444.977153
 10
458.62535
 20
-445.005122
 10
458.848341
 20
-445.037631
 10
459.059583
 20
-445.073357
 10
459.258421
 20
-445.11098
 10
459.444199
 20
-445.149177
 10
459.616259
 20
-445.186627
 10
460.77584
 20
-445.448048
 10
464.482196
 20
-446.28429
 10
465.065495
 20
-446.415894
 10
465.701676
 20
-446.559414
 10
466.388024
 20
-446.714224
 10
467.121828
 20
-446.879696
 10
467.900371
 20
-447.055203
 10
468.720942
 20
-447.240118
 10
469.580827
 20
-447.433814
 10
470.477311
 20
-447.635663
 10
471.407681
 20
-447.84504
 10
472.369224
 20
-448.061315
 10
473.359227
 20
-448.283863
 10
474.374974
 20
-448.512057
 10
475.413754
 20
-448.745268
 10
476.472851
 20
-448.982871
 10
477.549552
 20
-449.224238
 10
478.641144
 20
-449.46874
 10
479.744913
 20
-449.715754
 10
480.858146
 20
-449.964649
 10
481.978128
 20
-450.214799
 10
483.102148
 20
-450.465579
 10
484.227919
 20
-450.716463
 10
485.354881
 20
-450.967348
 10
486.482902
 20
-451.218235
 10
487.611847
 20
-451.469122
 10
488.741587
 20
-451.720009
 10
489.871987
 20
-451.970898
 10
491.002918
 20
-452.221786
 10
492.134244
 20
-452.472674
 10
493.265835
 20
-452.723563
 10
494.397558
 20
-452.974451
 10
495.529283
 20
-453.22534
 10
496.660874
 20
-453.476227
 10
497.792201
 20
-453.727114
 10
498.923131
 20
-453.978001
 10
500.053534
 20
-454.228887
 10
501.183274
 20
-454.479772
 10
502.312221
 20
-454.730656
 10
503.440242
 20
-454.981538
 10
504.567206
 20
-455.23242
 10
505.69298
 20
-455.483299
 10
506.817
 20
-455.734073
 10
507.936986
 20
-455.984218
 10
509.050221
 20
-456.233107
 10
510.153993
 20
-456.480113
 10
511.245587
 20
-456.72461
 10
512.322292
 20
-456.965969
 10
513.381392
 20
-457.203565
 10
514.420174
 20
-457.436769
 10
515.435925
 20
-457.664955
 10
516.425929
 20
-457.887495
 10
517.387475
 20
-458.103763
 10
518.317849
 20
-458.313133
 10
519.214336
 20
-458.514975
 10
520.074223
 20
-458.708664
 10
520.894797
 20
-458.893571
 10
521.673343
 20
-459.069071
 10
522.407149
 20
-459.234537
 10
523.0935
 20
-459.389341
 10
523.729683
 20
-459.532856
 10
528.019353
 20
-460.500663
 10
529.020931
 20
-460.726612
 10
529.178547
 20
-460.76224
 10
529.350389
 20
-460.801502
 10
529.535659
 20
-460.844645
 10
529.73356
 20
-460.891912
 10
529.943293
 20
-460.943551
 10
530.164063
 20
-460.999806
 10
530.39507
 20
-461.060921
 10
530.635517
 20
-461.127143
 10
530.884607
 20
-461.198718
 10
531.141541
 20
-461.27589
 10
531.405523
 20
-461.358904
 10
531.675753
 20
-461.448007
 10
531.951436
 20
-461.543443
 10
532.231773
 20
-461.645458
 10
532.515966
 20
-461.754297
 10
532.803218
 20
-461.870206
 10
533.092732
 20
-461.993428
 10
533.383708
 20
-462.124212
 10
533.675351
 20
-462.262801
 10
533.966863
 20
-462.409441
 10
534.257457
 20
-462.564322
 10
534.546397
 20
-462.727412
 10
534.83296
 20
-462.898626
 10
535.11642
 20
-463.077874
 10
535.396055
 20
-463.265073
 10
535.671141
 20
-463.460134
 10
535.940951
 20
-463.662971
 10
536.204764
 20
-463.873498
 10
536.461854
 20
-464.091627
 10
536.711497
 20
-464.317271
 10
536.95297
 20
-464.550345
 10
537.185548
 20
-464.79076
 10
537.408508
 20
-465.038432
 10
537.621124
 20
-465.293271
 10
537.822672
 20
-465.555193
 10
538.012431
 20
-465.824112
 10
538.189672
 20
-466.099938
 10
538.353675
 20
-466.382586
 10
538.503715
 20
-466.67197
 10
538.639067
 20
-466.968001
 10
538.759266
 20
-467.270403
 10
538.86489
 20
-467.578126
 10
538.956776
 20
-467.889929
 10
539.035759
 20
-468.204573
 10
539.102676
 20
-468.520817
 10
539.158364
 20
-468.837421
 10
539.203659
 20
-469.153144
 10
539.239396
 20
-469.466745
 10
539.266415
 20
-469.776984
 10
539.285548
 20
-470.082621
 10
539.297636
 20
-470.382416
 10
539.303513
 20
-470.675127
 10
539.304015
 20
-470.959515
 10
539.299979
 20
-471.234338
 10
539.292243
 20
-471.498357
 10
539.281641
 20
-471.750331
 10
539.269011
 20
-471.98902
 10
539.25519
 20
-472.213182
 10
539.241014
 20
-472.421578
 10
539.139476
 20
-473.829451
 10
538.316957
 20
-485.205486
 10
538.187616
 20
-486.995771
 10
538.047171
 20
-488.948059
 10
537.896858
 20
-491.053707
 10
537.73791
 20
-493.30408
 10
537.571561
 20
-495.690536
 10
537.399047
 20
-498.204437
 10
537.221603
 20
-500.837144
 10
537.04046
 20
-503.580016
 10
536.856855
 20
-506.424417
 10
536.672022
 20
-509.361705
 10
536.487195
 20
-512.383243
 10
536.30361
 20
-515.48039
 10
536.122498
 20
-518.644508
 10
535.945097
 20
-521.866958
 10
535.77264
 20
-525.1391
 10
535.60636
 20
-528.452295
 10
535.447494
 20
-531.797905
 10
535.297274
 20
-535.16729
 10
535.156936
 20
-538.551811
 10
535.027714
 20
-541.942827
 10
534.910637
 20
-545.333142
 10
534.80591
 20
-548.721313
 10
534.713533
 20
-552.107343
 10
534.633507
 20
-555.491229
 10
534.565831
 20
-558.872975
 10
534.510504
 20
-562.252576
 10
534.467529
 20
-565.630036
 10
534.436903
 20
-569.005353
 10
534.418629
 20
-572.378528
 10
534.412704
 20
-575.74956
 10
534.41913
 20
-579.11845
 10
534.437906
 20
-582.485197
 10
534.469033
 20
-585.849801
 10
534.51251
 20
-589.212264
 10
534.568337
 20
-592.572583
 10
534.636514
 20
-595.93076
 10
534.717042
 20
-599.286796
 10
534.80992
 20
-602.640687
 10
534.915149
 20
-605.992437
 10
535.032727
 20
-609.342044
 10
535.162451
 20
-612.688141
 10
535.303288
 20
-616.023885
 10
535.454005
 20
-619.341065
 10
535.613366
 20
-622.631469
 10
535.780134
 20
-625.886889
 10
535.953074
 20
-629.099113
 10
536.13095
 20
-632.259932
 10
536.312526
 20
-635.361132
 10
536.496569
 20
-638.394505
 10
536.68184
 20
-641.35184
 10
536.867105
 20
-644.224925
 10
537.051128
 20
-647.005551
 10
537.232674
 20
-649.685507
 10
537.410507
 20
-652.256583
 10
537.58339
 20
-654.710565
 10
537.750089
 20
-657.039246
 10
537.909368
 20
-659.234414
 10
538.059991
 20
-661.287858
 10
538.200722
 20
-663.191368
 10
539.154517
 20
-676.027104
 10
539.244913
 20
-677.243352
 10
539.258999
 20
-677.434703
 10
539.273534
 20
-677.64306
 10
539.287609
 20
-677.867179
 10
539.300317
 20
-678.105823
 10
539.310751
 20
-678.35775
 10
539.318002
 20
-678.621721
 10
539.321163
 20
-678.896497
 10
539.319326
 20
-679.180836
 10
539.311584
 20
-679.473499
 10
539.297029
 20
-679.773246
 10
539.274753
 20
-680.078837
 10
539.243848
 20
-680.389033
 10
539.203409
 20
-680.702593
 10
539.152525
 20
-681.018276
 10
539.09029
 20
-681.334844
 10
539.015796
 20
-681.651057
 10
538.928136
 20
-681.965673
 10
538.8264
 20
-682.277454
 10
538.709684
 20
-682.58516
 10
538.577078
 20
-682.887549
 10
538.427968
 20
-683.183576
 10
538.262922
 20
-683.47296
 10
538.082799
 20
-683.755614
 10
537.88846
 20
-684.031452
 10
537.680765
 20
-684.300386
 10
537.460574
 20
-684.56233
 10
537.228748
 20
-684.817197
 10
536.986146
 20
-685.064899
 10
536.733629
 20
-685.30535
 10
536.472058
 20
-685.538462
 10
536.202294
 20
-685.764149
 10
535.925194
 20
-685.982324
 10
535.641622
 20
-686.1929
 10
535.352435
 20
-686.395788
 10
535.058496
 20
-686.590904
 10
534.760665
 20
-686.77816
 10
534.459801
 20
-686.957469
 10
534.156765
 20
-687.128743
 10
533.852417
 20
-687.291895
 10
533.547618
 20
-687.44684
 10
533.243205
 20
-687.593545
 10
532.939933
 20
-687.7322
 10
532.638532
 20
-687.86305
 10
532.339734
 20
-687.986341
 10
532.044268
 20
-688.102316
 10
531.752868
 20
-688.211222
 10
531.466264
 20
-688.313303
 10
531.185187
 20
-688.408805
 10
530.910368
 20
-688.497973
 10
530.642539
 20
-688.581051
 10
530.38243
 20
-688.658285
 10
530.130773
 20
-688.729921
 10
529.8883
 20
-688.796202
 10
529.65574
 20
-688.857375
 10
529.433825
 20
-688.913684
 10
529.223288
 20
-688.965375
 10
529.024858
 20
-689.012692
 10
528.839267
 20
-689.05588
 10
528.667247
 20
-689.095187
 10
527.50736
 20
-689.357054
 10
527.50597
 20
-689.357368
 10
527.496241
 20
-689.359564
 10
527.469834
 20
-689.365526
 10
527.418411
 20
-689.377135
 10
527.333632
 20
-689.396274
 10
527.207159
 20
-689.424826
 10
527.030652
 20
-689.464673
 10
526.795772
 20
-689.517699
 10
526.494181
 20
-689.585784
 10
526.11754
 20
-689.670813
 10
525.65751
 20
-689.774667
 10
525.105751
 20
-689.899229
 10
524.453926
 20
-690.046382
 10
523.693694
 20
-690.218008
 10
522.816718
 20
-690.41599
 10
521.814657
 20
-690.64221
 10
520.679174
 20
-690.898551
 10
519.401929
 20
-691.186896
 10
517.974584
 20
-691.509126
 10
516.3888
 20
-691.867124
 10
514.640406
 20
-692.261833
 10
512.741912
 20
-692.690428
 10
510.709995
 20
-693.149143
 10
508.561333
 20
-693.634215
 10
506.312604
 20
-694.141876
 10
503.980486
 20
-694.668363
 10
501.581656
 20
-695.209911
 10
499.132794
 20
-695.762754
 10
496.650575
 20
-696.323127
 10
494.151678
 20
-696.887265
 10
491.652782
 20
-697.451404
 10
489.170563
 20
-698.011777
 10
486.721701
 20
-698.56462
 10
484.322871
 20
-699.106168
 10
481.990753
 20
-699.632655
 10
479.742024
 20
-700.140317
 10
477.593362
 20
-700.625388
 10
475.561445
 20
-701.084103
 10
473.662951
 20
-701.512698
 10
471.914557
 20
-701.907407
 10
470.328773
 20
-702.265405
 10
468.901428
 20
-702.587635
 10
467.624183
 20
-702.87598
 10
466.4887
 20
-703.132321
 10
465.486639
 20
-703.358541
 10
464.609663
 20
-703.556523
 10
463.849431
 20
-703.728149
 10
463.197606
 20
-703.875302
 10
462.645847
 20
-703.999864
 10
462.185817
 20
-704.103718
 10
461.809176
 20
-704.188747
 10
461.507585
 20
-704.256832
 10
461.272705
 20
-704.309857
 10
461.096198
 20
-704.349705
 10
460.969725
 20
-704.378257
 10
460.884945
 20
-704.397396
 10
460.833522
 20
-704.409006
 10
460.807116
 20
-704.414966
 10
460.797387
 20
-704.417163
 10
460.795997
 20
-704.417477
 10
459.79387
 20
-704.643689
 10
459.636147
 20
-704.679098
 10
459.464065
 20
-704.716587
 10
459.278301
 20
-704.754841
 10
459.079525
 20
-704.792547
 10
458.868415
 20
-704.828391
 10
458.645642
 20
-704.86106
 10
458.411881
 20
-704.889239
 10
458.167806
 20
-704.911614
 10
457.91409
 20
-704.926873
 10
457.651408
 20
-704.9337
 10
457.380435
 20
-704.930783
 10
457.101843
 20
-704.916807
 10
456.816306
 20
-704.890459
 10
456.524499
 20
-704.850424
 10
456.227095
 20
-704.795391
 10
455.92477
 20
-704.724043
 10
455.618196
 20
-704.635067
 10
455.308046
 20
-704.527151
 10
454.994998
 20
-704.398979
 10
454.679721
 20
-704.249239
 10
454.362974
 20
-704.077044
 10
454.045838
 20
-703.883224
 10
453.729478
 20
-703.669037
 10
453.415056
 20
-703.435738
 10
453.103737
 20
-703.184585
 10
452.796685
 20
-702.916837
 10
452.495063
 20
-702.63375
 10
452.200036
 20
-702.33658
 10
451.912767
 20
-702.026587
 10
451.63442
 20
-701.705026
 10
451.366159
 20
-701.373156
 10
451.109149
 20
-701.032233
 10
450.864551
 20
-700.683515
 10
450.633532
 20
-700.328259
 10
450.417254
 20
-699.967723
 10
450.216881
 20
-699.603163
 10
450.033578
 20
-699.235836
 10
449.868506
 20
-698.867002
 10
449.722833
 20
-698.497915
 10
449.59772
 20
-698.129834
 10
449.493914
 20
-697.763932
 10
449.410489
 20
-697.401041
 10
449.346103
 20
-697.041909
 10
449.299411
 20
-696.687284
 10
449.269071
 20
-696.337915
 10
449.25374
 20
-695.994551
 10
449.252074
 20
-695.657939
 10
449.262729
 20
-695.328826
 10
449.284364
 20
-695.007962
 10
449.315634
 20
-694.696095
 10
449.355197
 20
-694.393972
 10
449.401708
 20
-694.102341
 10
449.453825
 20
-693.821953
 10
449.510204
 20
-693.553553
 10
449.569503
 20
-693.297891
 10
449.630378
 20
-693.055714
 10
449.691487
 20
-692.827771
 10
449.751484
 20
-692.614811
 10
449.809028
 20
-692.41758
 10
450.205448
 20
-691.088399
  0
LWPOLYLINE
  5
42
330
1F
100
AcDbEntity
  8
0
100
AcDbPolyline
 90
      264
 70
   128
 43
0.0
 10
456.324482
 20
-455.425651
 10
456.324493
 20
-455.096759
 10
456.324528
 20
-455.045007
 10
456.324763
 20
-454.988615
 10
456.325398
 20
-454.927877
 10
456.326632
 20
-454.863085
 10
456.328667
 20
-454.794534
 10
456.331702
 20
-454.722516
 10
456.335937
 20
-454.647325
 10
456.34157
 20
-454.569254
 10
456.348804
 20
-454.488597
 10
456.357836
 20
-454.405647
 10
456.368868
 20
-454.320697
 10
456.382099
 20
-454.234041
 10
456.39773
 20
-454.145972
 10
456.415959
 20
-454.056785
 10
456.436987
 20
-453.96677
 10
456.461014
 20
-453.876223
 10
456.488239
 20
-453.785438
 10
456.518864
 20
-453.694705
 10
456.553087
 20
-453.604321
 10
456.591108
 20
-453.514576
 10
456.63307
 20
-453.425743
 10
456.678876
 20
-453.337998
 10
456.728375
 20
-453.251494
 10
456.781412
 20
-453.166383
 10
456.837834
 20
-453.082819
 10
456.897488
 20
-453.000956
 10
456.960222
 20
-452.920946
 10
457.025882
 20
-452.842944
 10
457.094313
 20
-452.767101
 10
457.165364
 20
-452.693572
 10
457.238882
 20
-452.622509
 10
457.314712
 20
-452.554066
 10
457.392701
 20
-452.488396
 10
457.472697
 20
-452.425653
 10
457.554546
 20
-452.365989
 10
457.638095
 20
-452.309558
 10
457.723191
 20
-452.256512
 10
457.809679
 20
-452.207007
 10
457.897408
 20
-452.161193
 10
457.986223
 20
-452.119225
 10
458.075949
 20
-452.081197
 10
458.166315
 20
-452.046968
 10
458.257029
 20
-452.016339
 10
458.347796
 20
-451.989108
 10
458.438323
 20
-451.965077
 10
458.528319
 20
-451.944045
 10
458.617487
 20
-451.925811
 10
458.705537
 20
-451.910178
 10
458.792173
 20
-451.896944
 10
458.877103
 20
-451.885909
 10
458.960035
 20
-451.876875
 10
459.040673
 20
-451.86964
 10
459.118726
 20
-451.864004
 10
459.193899
 20
-451.859768
 10
459.265901
 20
-451.856732
 10
459.334436
 20
-451.854696
 10
459.399212
 20
-451.85346
 10
459.459936
 20
-451.852824
 10
459.516314
 20
-451.852588
 10
459.568054
 20
-451.852552
 10
459.614992
 20
-451.85255
 10
459.657491
 20
-451.852548
 10
459.696044
 20
-451.852546
 10
459.731146
 20
-451.852545
 10
459.763287
 20
-451.852543
 10
459.792963
 20
-451.852542
 10
459.820665
 20
-451.852541
 10
459.846889
 20
-451.852539
 10
459.872125
 20
-451.852538
 10
459.896868
 20
-451.852538
 10
459.921612
 20
-451.852536
 10
459.946848
 20
-451.852535
 10
459.973071
 20
-451.852534
 10
460.000774
 20
-451.852533
 10
460.030449
 20
-451.852531
 10
460.06259
 20
-451.85253
 10
460.097692
 20
-451.852528
 10
460.136245
 20
-451.852526
 10
460.178745
 20
-451.852524
 10
460.225683
 20
-451.852522
 10
460.277422
 20
-451.852553
 10
460.3338
 20
-451.852783
 10
460.394525
 20
-451.853414
 10
460.459301
 20
-451.854644
 10
460.527836
 20
-451.856673
 10
460.599838
 20
-451.859702
 10
460.675013
 20
-451.86393
 10
460.753066
 20
-451.869559
 10
460.833706
 20
-451.876786
 10
460.916638
 20
-451.885813
 10
461.00157
 20
-451.896838
 10
461.088209
 20
-451.910064
 10
461.17626
 20
-451.925688
 10
461.265431
 20
-451.943911
 10
461.35543
 20
-451.964934
 10
461.445961
 20
-451.988955
 10
461.536731
 20
-452.016177
 10
461.627449
 20
-452.046796
 10
461.71782
 20
-452.081015
 10
461.807552
 20
-452.119032
 10
461.896374
 20
-452.160989
 10
461.984109
 20
-452.206793
 10
462.070605
 20
-452.256289
 10
462.155708
 20
-452.309323
 10
462.239264
 20
-452.365743
 10
462.321122
 20
-452.425396
 10
462.401126
 20
-452.488129
 10
462.479125
 20
-452.553788
 10
462.554965
 20
-452.62222
 10
462.628492
 20
-452.693271
 10
462.699553
 20
-452.76679
 10
462.767995
 20
-452.842622
 10
462.833664
 20
-452.920614
 10
462.896408
 20
-453.000613
 10
462.956073
 20
-453.082466
 10
463.012506
 20
-453.166019
 10
463.065554
 20
-453.25112
 10
463.115062
 20
-453.337615
 10
463.160879
 20
-453.42535
 10
463.202851
 20
-453.514173
 10
463.240883
 20
-453.603907
 10
463.275116
 20
-453.694282
 10
463.30575
 20
-453.785005
 10
463.332986
 20
-453.875783
 10
463.357023
 20
-453.96632
 10
463.378061
 20
-454.056326
 10
463.396299
 20
-454.145506
 10
463.411938
 20
-454.233567
 10
463.425178
 20
-454.320215
 10
463.436218
 20
-454.405158
 10
463.445259
 20
-454.4881
 10
463.4525
 20
-454.568751
 10
463.458142
 20
-454.646815
 10
463.462382
 20
-454.722
 10
463.465424
 20
-454.794012
 10
463.467465
 20
-454.862558
 10
463.468707
 20
-454.927345
 10
463.469347
 20
-454.988078
 10
463.469588
 20
-455.044466
 10
463.469669
 20
-455.42508
 10
463.46975
 20
-455.75383
 10
463.469729
 20
-455.805558
 10
463.469509
 20
-455.861925
 10
463.468891
 20
-455.922638
 10
463.467673
 20
-455.987402
 10
463.465657
 20
-456.055925
 10
463.462641
 20
-456.127914
 10
463.458425
 20
-456.203075
 10
463.452811
 20
-456.281116
 10
463.445596
 20
-456.361742
 10
463.436582
 20
-456.444663
 10
463.425568
 20
-456.529583
 10
463.412354
 20
-456.61621
 10
463.396741
 20
-456.704251
 10
463.378526
 20
-456.793412
 10
463.357512
 20
-456.883402
 10
463.333498
 20
-456.973925
 10
463.306284
 20
-457.06469
 10
463.275668
 20
-457.155404
 10
463.241452
 20
-457.245772
 10
463.203436
 20
-457.335503
 10
463.161478
 20
-457.424326
 10
463.115671
 20
-457.512064
 10
463.066172
 20
-457.598564
 10
463.013132
 20
-457.683673
 10
462.956704
 20
-457.767236
 10
462.897043
 20
-457.849103
 10
462.834301
 20
-457.929118
 10
462.768633
 20
-458.007126
 10
462.70019
 20
-458.082978
 10
462.629127
 20
-458.156517
 10
462.555598
 20
-458.227591
 10
462.479756
 20
-458.296047
 10
462.401752
 20
-458.36173
 10
462.321743
 20
-458.424488
 10
462.23988
 20
-458.484168
 10
462.156318
 20
-458.540614
 10
462.071209
 20
-458.593675
 10
461.984707
 20
-458.643197
 10
461.896965
 20
-458.689027
 10
461.808138
 20
-458.731011
 10
461.7184
 20
-458.769054
 10
461.628023
 20
-458.803298
 10
461.5373
 20
-458.833942
 10
461.446523
 20
-458.861187
 10
461.355987
 20
-458.885232
 10
461.265985
 20
-458.906278
 10
461.176808
 20
-458.924523
 10
461.088753
 20
-458.940169
 10
461.00211
 20
-458.953415
 10
460.917174
 20
-458.964461
 10
460.834237
 20
-458.973507
 10
460.753594
 20
-458.980753
 10
460.675537
 20
-458.986398
 10
460.60036
 20
-458.990644
 10
460.528356
 20
-458.993689
 10
460.459816
 20
-458.995733
 10
460.395037
 20
-458.996977
 10
460.334311
 20
-458.99762
 10
460.27793
 20
-458.997863
 10
459.897361
 20
-458.997959
 10
459.568547
 20
-458.997975
 10
459.516807
 20
-458.997944
 10
459.460429
 20
-458.997714
 10
459.399705
 20
-458.997083
 10
459.334928
 20
-458.995853
 10
459.266392
 20
-458.993823
 10
459.19439
 20
-458.990794
 10
459.119216
 20
-458.986564
 10
459.041161
 20
-458.980935
 10
458.960522
 20
-458.973706
 10
458.877588
 20
-458.964678
 10
458.792655
 20
-458.95365
 10
458.706015
 20
-458.940422
 10
458.617962
 20
-458.924794
 10
458.528789
 20
-458.906567
 10
458.43879
 20
-458.88554
 10
458.348256
 20
-458.861514
 10
458.257482
 20
-458.834288
 10
458.166761
 20
-458.803662
 10
458.076387
 20
-458.769436
 10
457.986652
 20
-458.731412
 10
457.897826
 20
-458.689446
 10
457.810087
 20
-458.643634
 10
457.723585
 20
-458.594129
 10
457.638477
 20
-458.541085
 10
457.554916
 20
-458.484655
 10
457.473053
 20
-458.424992
 10
457.393043
 20
-458.36225
 10
457.315039
 20
-458.296581
 10
457.239194
 20
-458.228139
 10
457.165662
 20
-458.15708
 10
457.094595
 20
-458.083553
 10
457.026148
 20
-458.007714
 10
456.960474
 20
-457.929716
 10
456.897725
 20
-457.849711
 10
456.838056
 20
-457.767855
 10
456.781618
 20
-457.684299
 10
456.728567
 20
-457.599197
 10
456.679055
 20
-457.512705
 10
456.633236
 20
-457.424971
 10
456.591262
 20
-457.336153
 10
456.553228
 20
-457.246426
 10
456.518994
 20
-457.15606
 10
456.488359
 20
-457.065348
 10
456.461123
 20
-456.974582
 10
456.437086
 20
-456.884058
 10
456.416049
 20
-456.794068
 10
456.397812
 20
-456.704904
 10
456.382174
 20
-456.61686
 10
456.368935
 20
-456.53023
 10
456.357897
 20
-456.445306
 10
456.348858
 20
-456.362382
 10
456.34162
 20
-456.28175
 10
456.33598
 20
-456.203705
 10
456.331741
 20
-456.128539
 10
456.328702
 20
-456.056546
 10
456.326663
 20
-455.988018
 10
456.325424
 20
-455.923249
 10
456.324786
 20
-455.862532
 10
456.324548
 20
-455.80616
 10
456.324482
 20
-455.425651
  0
LWPOLYLINE
  5
43
330
1F
100
AcDbEntity
  8
0
100
AcDbPolyline
 90
      245
 70
   128
 43
0.0
 10
526.822464
 20
-472.15017
 10
526.822396
 20
-471.821382
 10
526.822418
 20
-471.769646
 10
526.82264
 20
-471.713272
 10
526.823261
 20
-471.652553
 10
526.824481
 20
-471.58778
 10
526.8265
 20
-471.51925
 10
526.829518
 20
-471.447253
 10
526.833736
 20
-471.372083
 10
526.839353
 20
-471.294034
 10
526.846569
 20
-471.213398
 10
526.855585
 20
-471.130468
 10
526.8666
 20
-471.045538
 10
526.879815
 20
-470.958902
 10
526.895429
 20
-470.870852
 10
526.913643
 20
-470.781681
 10
526.934658
 20
-470.691682
 10
526.958671
 20
-470.601149
 10
526.985884
 20
-470.510376
 10
527.016497
 20
-470.419653
 10
527.050711
 20
-470.329277
 10
527.088723
 20
-470.239538
 10
527.130678
 20
-470.150708
 10
527.176478
 20
-470.062963
 10
527.225973
 20
-469.976455
 10
527.279007
 20
-469.89134
 10
527.335427
 20
-469.80777
 10
527.395081
 20
-469.725898
 10
527.457815
 20
-469.645879
 10
527.523475
 20
-469.567865
 10
527.591909
 20
-469.492011
 10
527.662963
 20
-469.418467
 10
527.736484
 20
-469.347391
 10
527.812317
 20
-469.278934
 10
527.890311
 20
-469.213248
 10
527.970311
 20
-469.15049
 10
528.052165
 20
-469.090811
 10
528.135718
 20
-469.034364
 10
528.220819
 20
-468.981305
 10
528.307312
 20
-468.931784
 10
528.395045
 20
-468.885958
 10
528.483865
 20
-468.843977
 10
528.573594
 20
-468.805938
 10
528.663964
 20
-468.771699
 10
528.754681
 20
-468.741061
 10
528.845451
 20
-468.713822
 10
528.93598
 20
-468.689784
 10
529.025977
 20
-468.668745
 10
529.115148
 20
-468.650507
 10
529.203198
 20
-468.634869
 10
529.289836
 20
-468.621631
 10
529.374767
 20
-468.610593
 10
529.4577
 20
-468.601556
 10
529.538339
 20
-468.594319
 10
529.616392
 20
-468.588681
 10
529.691567
 20
-468.584444
 10
529.763568
 20
-468.581407
 10
529.832103
 20
-468.57937
 10
529.89688
 20
-468.578134
 10
529.957604
 20
-468.577498
 10
530.013982
 20
-468.577262
 10
530.394536
 20
-468.577212
 10
530.723364
 20
-468.577157
 10
530.775106
 20
-468.577181
 10
530.831486
 20
-468.577406
 10
530.892213
 20
-468.578029
 10
530.956992
 20
-468.579252
 10
531.025531
 20
-468.581274
 10
531.097535
 20
-468.584295
 10
531.172714
 20
-468.588516
 10
531.250772
 20
-468.594137
 10
531.331416
 20
-468.601357
 10
531.414354
 20
-468.610377
 10
531.499291
 20
-468.621397
 10
531.585937
 20
-468.634616
 10
531.673995
 20
-468.650236
 10
531.763173
 20
-468.668456
 10
531.853178
 20
-468.689476
 10
531.943718
 20
-468.713495
 10
532.034498
 20
-468.740715
 10
532.125226
 20
-468.771335
 10
532.215608
 20
-468.805556
 10
532.305351
 20
-468.843576
 10
532.394184
 20
-468.885538
 10
532.481933
 20
-468.931347
 10
532.568442
 20
-468.980851
 10
532.653559
 20
-469.033894
 10
532.737129
 20
-469.090324
 10
532.819001
 20
-469.149987
 10
532.89902
 20
-469.212731
 10
532.977032
 20
-469.278402
 10
533.052887
 20
-469.346846
 10
533.126427
 20
-469.417911
 10
533.197502
 20
-469.491442
 10
533.265957
 20
-469.567286
 10
533.331638
 20
-469.645292
 10
533.394394
 20
-469.725303
 10
533.454071
 20
-469.807169
 10
533.510513
 20
-469.890733
 10
533.563569
 20
-469.975845
 10
533.613085
 20
-470.06235
 10
533.658908
 20
-470.150095
 10
533.700885
 20
-470.238926
 10
533.738919
 20
-470.328668
 10
533.773155
 20
-470.419049
 10
533.803789
 20
-470.509777
 10
533.831024
 20
-470.600559
 10
533.855058
 20
-470.6911
 10
533.876093
 20
-470.781108
 10
533.894327
 20
-470.87029
 10
533.909962
 20
-470.958352
 10
533.923196
 20
-471.045
 10
533.93423
 20
-471.129942
 10
533.943265
 20
-471.212885
 10
533.950499
 20
-471.293534
 10
533.956133
 20
-471.371596
 10
533.960366
 20
-471.446779
 10
533.963401
 20
-471.518789
 10
533.965434
 20
-471.587333
 10
533.966669
 20
-471.652117
 10
533.967302
 20
-471.712849
 10
533.967536
 20
-471.769233
 10
533.967572
 20
-472.149833
 10
533.967587
 20
-472.478648
 10
533.967556
 20
-472.530386
 10
533.967326
 20
-472.586765
 10
533.966695
 20
-472.64749
 10
533.965466
 20
-472.712266
 10
533.963435
 20
-472.780802
 10
533.960406
 20
-472.852803
 10
533.956178
 20
-472.927978
 10
533.950551
 20
-473.006031
 10
533.943323
 20
-473.08667
 10
533.934297
 20
-473.169602
 10
533.92327
 20
-473.254535
 10
533.910045
 20
-473.341174
 10
533.894421
 20
-473.429225
 10
533.876197
 20
-473.518396
 10
533.855174
 20
-473.608394
 10
533.831153
 20
-473.698925
 10
533.803932
 20
-473.789695
 10
533.773312
 20
-473.880414
 10
533.739094
 20
-473.970784
 10
533.701076
 20
-474.060517
 10
533.659119
 20
-474.149338
 10
533.613316
 20
-474.237074
 10
533.563821
 20
-474.323569
 10
533.510786
 20
-474.408672
 10
533.454365
 20
-474.492228
 10
533.394712
 20
-474.574085
 10
533.331978
 20
-474.654088
 10
533.266319
 20
-474.732086
 10
533.197887
 20
-474.807925
 10
533.126834
 20
-474.88145
 10
533.053314
 20
-474.952509
 10
532.977481
 20
-475.020948
 10
532.899487
 20
-475.086614
 10
532.819486
 20
-475.149355
 10
532.737632
 20
-475.209016
 10
532.654076
 20
-475.265444
 10
532.568974
 20
-475.318487
 10
532.482476
 20
-475.367989
 10
532.394736
 20
-475.413799
 10
532.30591
 20
-475.455763
 10
532.216172
 20
-475.493787
 10
532.125792
 20
-475.528011
 10
532.035065
 20
-475.558636
 10
531.944282
 20
-475.585861
 10
531.853738
 20
-475.609888
 10
531.763727
 20
-475.630914
 10
531.674542
 20
-475.649141
 10
531.586475
 20
-475.664769
 10
531.499821
 20
-475.677998
 10
531.414873
 20
-475.689026
 10
531.331924
 20
-475.698055
 10
531.251269
 20
-475.705284
 10
531.173198
 20
-475.710914
 10
531.098008
 20
-475.715144
 10
531.02599
 20
-475.718174
 10
530.957439
 20
-475.720205
 10
530.892647
 20
-475.721436
 10
530.83191
 20
-475.722067
 10
530.775517
 20
-475.722299
 10
530.394873
 20
-475.722319
 10
530.066098
 20
-475.722348
 10
530.014365
 20
-475.722319
 10
529.957993
 20
-475.72209
 10
529.897276
 20
-475.721463
 10
529.832507
 20
-475.720235
 10
529.763979
 20
-475.718208
 10
529.691985
 20
-475.715182
 10
529.616819
 20
-475.710956
 10
529.538773
 20
-475.705331
 10
529.458141
 20
-475.698106
 10
529.375216
 20
-475.689082
 10
529.290291
 20
-475.678059
 10
529.203659
 20
-475.664835
 10
529.115614
 20
-475.649213
 10
529.026448
 20
-475.630991
 10
528.936456
 20
-475.60997
 10
528.845929
 20
-475.58595
 10
528.755162
 20
-475.558731
 10
528.664447
 20
-475.528112
 10
528.574077
 20
-475.493894
 10
528.484346
 20
-475.455876
 10
528.395524
 20
-475.413919
 10
528.307787
 20
-475.368116
 10
528.221289
 20
-475.31862
 10
528.136183
 20
-475.265584
 10
528.052622
 20
-475.209163
 10
527.97076
 20
-475.149508
 10
527.890751
 20
-475.086774
 10
527.812747
 20
-475.021115
 10
527.736903
 20
-474.952682
 10
527.663371
 20
-474.88163
 10
527.592305
 20
-474.808112
 10
527.523859
 20
-474.732281
 10
527.458185
 20
-474.65429
 10
527.395437
 20
-474.574293
 10
527.33577
 20
-474.492443
 10
527.279335
 20
-474.408894
 10
527.226287
 20
-474.323797
 10
527.176779
 20
-474.237307
 10
527.130964
 20
-474.149578
 10
527.088995
 20
-474.060762
 10
527.050968
 20
-473.971036
 10
527.01674
 20
-473.88067
 10
526.986114
 20
-473.789958
 10
526.958886
 20
-473.699193
 10
526.93486
 20
-473.608666
 10
526.913832
 20
-473.518673
 10
526.895605
 20
-473.429506
 10
526.879978
 20
-473.341459
 10
526.866751
 20
-473.254825
 10
526.855723
 20
-473.169898
 10
526.846696
 20
-473.086969
 10
526.839469
 20
-473.006332
 10
526.833841
 20
-472.928282
 10
526.829613
 20
-472.853111
 10
526.826584
 20
-472.781113
 10
526.824556
 20
-472.71258
 10
526.823327
 20
-472.647806
 10
526.822698
 20
-472.587084
 10
526.822469
 20
-472.530709
 10
526.822464
 20
-472.15017
  0
LWPOLYLINE
  5
44
330
1F
100
AcDbEntity
  8
0
100
AcDbPolyline
 90
      488
 70
   128
 43
0.0
 10
556.803384
 20
-673.218446
 10
560.513293
 20
-662.059869
 10
561.096691
 20
-660.303816
 10
561.73026
 20
-658.388927
 10
562.408524
 20
-656.323742
 10
563.126003
 20
-654.116805
 10
563.877224
 20
-651.776655
 10
564.656706
 20
-649.311835
 10
565.458973
 20
-646.730887
 10
566.278548
 20
-644.042353
 10
567.109955
 20
-641.254773
 10
567.947714
 20
-638.376691
 10
568.78635
 20
-635.416647
 10
569.620385
 20
-632.383184
 10
570.444341
 20
-629.284843
 10
571.252742
 20
-626.130165
 10
572.04011
 20
-622.927693
 10
572.800968
 20
-619.685968
 10
573.529838
 20
-616.413533
 10
574.221246
 20
-613.118928
 10
574.86971
 20
-609.810696
 10
575.469756
 20
-606.497377
 10
576.016773
 20
-603.186095
 10
576.509631
 20
-599.878285
 10
576.948062
 20
-596.573965
 10
577.331801
 20
-593.273153
 10
577.660585
 20
-589.975865
 10
577.934147
 20
-586.682118
 10
578.152224
 20
-583.391931
 10
578.314549
 20
-580.105319
 10
578.42086
 20
-576.822299
 10
578.470888
 20
-573.542891
 10
578.464371
 20
-570.267108
 10
578.401043
 20
-566.99497
 10
578.28064
 20
-563.726494
 10
578.102895
 20
-560.461696
 10
577.867545
 20
-557.200594
 10
577.574323
 20
-553.943204
 10
577.222967
 20
-550.689544
 10
576.81321
 20
-547.439631
 10
576.344786
 20
-544.193483
 10
575.817434
 20
-540.951115
 10
575.231901
 20
-537.713846
 10
574.593004
 20
-534.48819
 10
573.906576
 20
-531.281966
 10
573.178448
 20
-528.10299
 10
572.414453
 20
-524.959076
 10
571.620421
 20
-521.858043
 10
570.802186
 20
-518.807706
 10
569.965578
 20
-515.815881
 10
569.116431
 20
-512.890385
 10
568.260575
 20
-510.039034
 10
567.403844
 20
-507.269644
 10
566.552068
 20
-504.590032
 10
565.711079
 20
-502.008014
 10
564.88671
 20
-499.531406
 10
564.084792
 20
-497.168025
 10
563.311159
 20
-494.925686
 10
562.571641
 20
-492.812207
 10
561.872069
 20
-490.835404
 10
561.218277
 20
-489.003092
 10
556.786555
 20
-476.648127
 10
556.441251
 20
-475.685596
 10
556.387085
 20
-475.5341
 10
556.329056
 20
-475.368778
 10
556.268479
 20
-475.190243
 10
556.206672
 20
-474.999106
 10
556.14495
 20
-474.795981
 10
556.08463
 20
-474.58148
 10
556.027028
 20
-474.356216
 10
555.97346
 20
-474.120798
 10
555.925242
 20
-473.875843
 10
555.883692
 20
-473.62196
 10
555.850123
 20
-473.359764
 10
555.825854
 20
-473.089864
 10
555.812201
 20
-472.812875
 10
555.81048
 20
-472.529408
 10
555.822005
 20
-472.240077
 10
555.848097
 20
-471.945492
 10
555.890067
 20
-471.646267
 10
555.949235
 20
-471.343014
 10
556.026915
 20
-471.036345
 10
556.124425
 20
-470.726873
 10
556.242669
 20
-470.415288
 10
556.380911
 20
-470.102596
 10
556.538005
 20
-469.789884
 10
556.712803
 20
-469.478232
 10
556.904157
 20
-469.168728
 10
557.11092
 20
-468.862454
 10
557.331946
 20
-468.560497
 10
557.566086
 20
-468.263939
 10
557.812194
 20
-467.973866
 10
558.069123
 20
-467.691363
 10
558.335724
 20
-467.417512
 10
558.610851
 20
-467.153399
 10
558.893358
 20
-466.900109
 10
559.182096
 20
-466.658726
 10
559.475918
 20
-466.430334
 10
559.773677
 20
-466.216017
 10
560.074227
 20
-466.016861
 10
560.376419
 20
-465.833949
 10
560.679106
 20
-465.668367
 10
560.981142
 20
-465.521198
 10
561.281466
 20
-465.39316
 10
561.579373
 20
-465.283502
 10
561.874245
 20
-465.191104
 10
562.165463
 20
-465.11485
 10
562.452408
 20
-465.053621
 10
562.734461
 20
-465.006297
 10
563.011006
 20
-464.971762
 10
563.281422
 20
-464.948896
 10
563.545093
 20
-464.936581
 10
563.8014
 20
-464.9337
 10
564.049722
 20
-464.939132
 10
564.289444
 20
-464.951761
 10
564.519946
 20
-464.970468
 10
564.74061
 20
-464.994134
 10
564.950818
 20
-465.021642
 10
565.14995
 20
-465.051872
 10
565.337389
 20
-465.083706
 10
565.512518
 20
-465.116027
 10
565.674714
 20
-465.147715
 10
566.767822
 20
-465.368917
 10
570.261709
 20
-466.076507
 10
570.811569
 20
-466.187864
 10
571.411281
 20
-466.309304
 10
572.058283
 20
-466.440297
 10
572.750021
 20
-466.580312
 10
573.483934
 20
-466.728818
 10
574.257465
 20
-466.885284
 10
575.068057
 20
-467.049181
 10
575.913149
 20
-467.219976
 10
576.790185
 20
-467.397141
 10
577.696607
 20
-467.580143
 10
578.629857
 20
-467.768454
 10
579.587375
 20
-467.961541
 10
580.566607
 20
-468.158873
 10
581.56499
 20
-468.359921
 10
582.579969
 20
-468.564155
 10
583.608984
 20
-468.771042
 10
584.649479
 20
-468.980053
 10
585.698895
 20
-469.190656
 10
586.754674
 20
-469.402322
 10
587.814258
 20
-469.61452
 10
588.875494
 20
-469.826807
 10
589.937852
 20
-470.039095
 10
591.001208
 20
-470.251383
 10
592.065436
 20
-470.463672
 10
593.130413
 20
-470.675962
 10
594.196012
 20
-470.888252
 10
595.262111
 20
-471.100542
 10
596.328583
 20
-471.312832
 10
597.395305
 20
-471.525122
 10
598.462152
 20
-471.737413
 10
599.528999
 20
-471.949703
 10
600.595721
 20
-472.161992
 10
601.662194
 20
-472.374281
 10
602.728293
 20
-472.58657
 10
603.793894
 20
-472.798859
 10
604.858871
 20
-473.011146
 10
605.923101
 20
-473.223432
 10
606.986458
 20
-473.435717
 10
608.048818
 20
-473.648001
 10
609.110055
 20
-473.860284
 10
610.16964
 20
-474.072477
 10
611.225422
 20
-474.284138
 10
612.27484
 20
-474.494737
 10
613.315338
 20
-474.703742
 10
614.344356
 20
-474.910624
 10
615.359337
 20
-475.114851
 10
616.357724
 20
-475.315893
 10
617.336957
 20
-475.51322
 10
618.294479
 20
-475.706301
 10
619.227731
 20
-475.894604
 10
620.134156
 20
-476.0776
 10
621.011195
 20
-476.254758
 10
621.856291
 20
-476.425548
 10
622.666884
 20
-476.589439
 10
623.440418
 20
-476.745899
 10
624.174333
 20
-476.894399
 10
624.866073
 20
-477.034409
 10
625.513078
 20
-477.165396
 10
626.112792
 20
-477.286832
 10
630.156554
 20
-478.105746
 10
631.100716
 20
-478.296933
 10
631.249297
 20
-478.32708
 10
631.411287
 20
-478.360302
 10
631.585937
 20
-478.396807
 10
631.772493
 20
-478.436803
 10
631.970203
 20
-478.480497
 10
632.178317
 20
-478.528097
 10
632.396081
 20
-478.57981
 10
632.622744
 20
-478.635844
 10
632.857555
 20
-478.696407
 10
633.099761
 20
-478.761707
 10
633.348609
 20
-478.83195
 10
633.603349
 20
-478.907345
 10
633.863228
 20
-478.988098
 10
634.127494
 20
-479.074418
 10
634.395395
 20
-479.166513
 10
634.666181
 20
-479.264589
 10
634.939098
 20
-479.368855
 10
635.213394
 20
-479.479518
 10
635.488318
 20
-479.596786
 10
635.763119
 20
-479.720865
 10
636.037054
 20
-479.851919
 10
636.309431
 20
-479.989918
 10
636.579566
 20
-480.134791
 10
636.846777
 20
-480.286463
 10
637.110381
 20
-480.444862
 10
637.369697
 20
-480.609914
 10
637.624041
 20
-480.781545
 10
637.87273
 20
-480.959683
 10
638.115082
 20
-481.144253
 10
638.350415
 20
-481.335183
 10
638.578045
 20
-481.532399
 10
638.79729
 20
-481.735828
 10
639.007469
 20
-481.945396
 10
639.207897
 20
-482.16103
 10
639.397891
 20
-482.382656
 10
639.576772
 20
-482.610202
 10
639.743853
 20
-482.843594
 10
639.898454
 20
-483.082757
 10
640.039892
 20
-483.327621
 10
640.167485
 20
-483.578109
 10
640.280794
 20
-483.833987
 10
640.380363
 20
-484.094368
 10
640.466982
 20
-484.358202
 10
640.541437
 20
-484.624439
 10
640.604518
 20
-484.89203
 10
640.657014
 20
-485.159925
 10
640.699712
 20
-485.427076
 10
640.7334
 20
-485.69243
 10
640.75887
 20
-485.954941
 10
640.776906
 20
-486.213556
 10
640.788301
 20
-486.467229
 10
640.793841
 20
-486.714908
 10
640.794314
 20
-486.955544
 10
640.79051
 20
-487.188086
 10
640.783218
 20
-487.411487
 10
640.773224
 20
-487.624695
 10
640.761318
 20
-487.826663
 10
640.748289
 20
-488.016339
 10
640.734925
 20
-488.192674
 10
640.639208
 20
-489.383951
 10
639.863841
 20
-499.009827
 10
639.741914
 20
-500.524683
 10
639.60952
 20
-502.176619
 10
639.467824
 20
-503.958322
 10
639.317988
 20
-505.862483
 10
639.161175
 20
-507.881792
 10
638.998551
 20
-510.008939
 10
638.831278
 20
-512.236614
 10
638.66052
 20
-514.557506
 10
638.48744
 20
-516.964306
 10
638.313203
 20
-519.449704
 10
638.138971
 20
-522.00639
 10
637.96591
 20
-524.627053
 10
637.795181
 20
-527.304384
 10
637.627949
 20
-530.031072
 10
637.465378
 20
-532.799808
 10
637.308631
 20
-535.603281
 10
637.158872
 20
-538.434181
 10
637.017263
 20
-541.285199
 10
636.88497
 20
-544.149024
 10
636.763156
 20
-547.018346
 10
636.65279
 20
-549.887074
 10
636.554067
 20
-552.753988
 10
636.466985
 20
-555.61909
 10
636.391547
 20
-558.482379
 10
636.32775
 20
-561.343856
 10
636.275596
 20
-564.203519
 10
636.235084
 20
-567.061369
 10
636.206214
 20
-569.917406
 10
636.188987
 20
-572.771631
 10
636.183402
 20
-575.624043
 10
636.189459
 20
-578.474642
 10
636.207159
 20
-581.323428
 10
636.236501
 20
-584.170401
 10
636.277486
 20
-587.015562
 10
636.330113
 20
-589.858909
 10
636.394381
 20
-592.700443
 10
636.470293
 20
-595.540165
 10
636.557847
 20
-598.378074
 10
636.657044
 20
-601.21417
 10
636.767881
 20
-604.048453
 10
636.890169
 20
-606.879766
 10
637.022932
 20
-609.702318
 10
637.165009
 20
-612.509162
 10
637.315235
 20
-615.293351
 10
637.472442
 20
-618.047937
 10
637.635469
 20
-620.765973
 10
637.803148
 20
-623.440511
 10
637.974315
 20
-626.064604
 10
638.147807
 20
-628.631304
 10
638.322458
 20
-631.133665
 10
638.497102
 20
-633.564737
 10
638.670576
 20
-635.917574
 10
638.841715
 20
-638.185229
 10
639.009354
 20
-640.360754
 10
639.172326
 20
-642.437201
 10
639.329468
 20
-644.407623
 10
639.479617
 20
-646.265073
 10
639.621605
 20
-648.002603
 10
639.754269
 20
-649.613265
 10
640.653387
 20
-660.474273
 10
640.738601
 20
-661.503405
 10
640.751879
 20
-661.665318
 10
640.765581
 20
-661.84162
 10
640.77885
 20
-662.031259
 10
640.790829
 20
-662.233189
 10
640.800664
 20
-662.446358
 10
640.8075
 20
-662.669718
 10
640.81048
 20
-662.90222
 10
640.808748
 20
-663.142815
 10
640.80145
 20
-663.390453
 10
640.787729
 20
-663.644085
 10
640.76673
 20
-663.902662
 10
640.737597
 20
-664.165135
 10
640.699476
 20
-664.430455
 10
640.651509
 20
-664.697572
 10
640.592842
 20
-664.965437
 10
640.522619
 20
-665.233002
 10
640.439983
 20
-665.499216
 10
640.34408
 20
-665.76303
 10
640.234054
 20
-666.023397
 10
640.10905
 20
-666.279265
 10
639.968488
 20
-666.529749
 10
639.812903
 20
-666.774612
 10
639.643106
 20
-667.013781
 10
639.459907
 20
-667.247182
 10
639.264119
 20
-667.474742
 10
639.05655
 20
-667.696387
 10
638.838014
 20
-667.912044
 10
638.609319
 20
-668.121637
 10
638.371278
 20
-668.325096
 10
638.124702
 20
-668.522345
 10
637.870402
 20
-668.713311
 10
637.609187
 20
-668.89792
 10
637.341871
 20
-669.0761
 10
637.069262
 20
-669.247775
 10
636.792173
 20
-669.412873
 10
636.511416
 20
-669.57132
 10
636.227799
 20
-669.723043
 10
635.942134
 20
-669.867967
 10
635.655233
 20
-670.006019
 10
635.367907
 20
-670.137127
 10
635.080945
 20
-670.261261
 10
634.795058
 20
-670.378585
 10
634.510935
 20
-670.489304
 10
634.229266
 20
-670.593627
 10
633.950738
 20
-670.691759
 10
633.676043
 20
-670.783911
 10
633.405868
 20
-670.870287
 10
633.140904
 20
-670.951096
 10
632.88184
 20
-671.026546
 10
632.629364
 20
-671.096844
 10
632.384166
 20
-671.162195
 10
632.146936
 20
-671.22281
 10
631.918362
 20
-671.278894
 10
631.699134
 20
-671.330656
 10
631.489941
 20
-671.378302
 10
631.291472
 20
-671.42204
 10
631.104418
 20
-671.462077
 10
630.929466
 20
-671.498622
 10
630.767307
 20
-671.531881
 10
629.673911
 20
-671.753461
 10
629.672601
 20
-671.753727
 10
629.66343
 20
-671.755585
 10
629.638537
 20
-671.760629
 10
629.590061
 20
-671.770453
 10
629.510143
 20
-671.786647
 10
629.390919
 20
-671.810807
 10
629.224531
 20
-671.844523
 10
629.003116
 20
-671.889391
 10
628.718813
 20
-671.947002
 10
628.363763
 20
-672.01895
 10
627.930105
 20
-672.106826
 10
627.409976
 20
-672.212225
 10
626.795517
 20
-672.336739
 10
626.078866
 20
-672.481961
 10
625.252163
 20
-672.649484
 10
624.307547
 20
-672.840901
 10
623.237156
 20
-673.057805
 10
622.03313
 20
-673.301789
 10
620.687608
 20
-673.574445
 10
619.19273
 20
-673.877367
 10
617.544564
 20
-674.211351
 10
615.754902
 20
-674.574008
 10
613.839467
 20
-674.962152
 10
611.813978
 20
-675.372597
 10
609.69416
 20
-675.802157
 10
607.495731
 20
-676.247646
 10
605.234416
 20
-676.705878
 10
602.925937
 20
-677.173668
 10
600.586013
 20
-677.64783
 10
598.230367
 20
-678.125178
 10
595.874722
 20
-678.602527
 10
593.534798
 20
-679.076688
 10
591.226318
 20
-679.544479
 10
588.965003
 20
-680.002711
 10
586.766575
 20
-680.4482
 10
584.646756
 20
-680.87776
 10
582.621267
 20
-681.288205
 10
580.705832
 20
-681.676349
 10
578.91617
 20
-682.039006
 10
577.268004
 20
-682.37299
 10
575.773126
 20
-682.675912
 10
574.427604
 20
-682.948568
 10
573.223578
 20
-683.192552
 10
572.153188
 20
-683.409456
 10
571.208571
 20
-683.600873
 10
570.381868
 20
-683.768396
 10
569.665217
 20
-683.913618
 10
569.050758
 20
-684.038132
 10
568.530629
 20
-684.143531
 10
568.096971
 20
-684.231407
 10
567.741921
 20
-684.303355
 10
567.457619
 20
-684.360966
 10
567.236203
 20
-684.405833
 10
567.069815
 20
-684.43955
 10
566.950592
 20
-684.46371
 10
566.870672
 20
-684.479904
 10
566.822197
 20
-684.489728
 10
566.797304
 20
-684.494771
 10
566.788133
 20
-684.49663
 10
566.786823
 20
-684.496896
 10
565.842143
 20
-684.688306
 10
565.693462
 20
-684.718268
 10
565.531245
 20
-684.749989
 10
565.35613
 20
-684.782358
 10
565.168749
 20
-684.814263
 10
564.969741
 20
-684.844593
 10
564.759739
 20
-684.872235
 10
564.539378
 20
-684.896079
 10
564.309295
 20
-684.915012
 10
564.070124
 20
-684.927923
 10
563.8225
 20
-684.9337
 10
563.56706
 20
-684.931232
 10
563.304439
 20
-684.919406
 10
563.035271
 20
-684.897112
 10
562.760191
 20
-684.863236
 10
562.479837
 20
-684.816669
 10
562.194843
 20
-684.756298
 10
561.905843
 20
-684.681011
 10
561.613473
 20
-684.589697
 10
561.31837
 20
-684.481244
 10
561.021167
 20
-684.35454
 10
560.722577
 20
-684.208837
 10
560.423622
 20
-684.044836
 10
560.125397
 20
-683.8636
 10
559.829
 20
-683.666194
 10
559.535527
 20
-683.45368
 10
559.246077
 20
-683.227123
 10
558.961746
 20
-682.987588
 10
558.683631
 20
-682.736137
 10
558.41283
 20
-682.473835
 10
558.15044
 20
-682.201745
 10
557.897557
 20
-681.920932
 10
557.65528
 20
-681.632459
 10
557.424704
 20
-681.33739
 10
557.206928
 20
-681.036789
 10
557.003049
 20
-680.731719
 10
556.814162
 20
-680.423246
 10
556.641367
 20
-680.112431
 10
556.485758
 20
-679.80034
 10
556.348436
 20
-679.488036
 10
556.230495
 20
-679.176583
 10
556.132639
 20
-678.866974
 10
556.053997
 20
-678.559911
 10
555.993302
 20
-678.25603
 10
555.949287
 20
-677.955964
 10
555.920686
 20
-677.660344
 10
555.906234
 20
-677.369805
 10
555.904663
 20
-677.084979
 10
555.914707
 20
-676.806499
 10
555.935102
 20
-676.534999
 10
555.96458
 20
-676.271111
 10
556.001874
 20
-676.015469
 10
556.045719
 20
-675.768704
 10
556.094849
 20
-675.531453
 10
556.147996
 20
-675.304345
 10
556.203896
 20
-675.088016
 10
556.261281
 20
-674.883097
 10
556.318886
 20
-674.690222
 10
556.375444
 20
-674.510024
 10
556.42969
 20
-674.343137
 10
556.803384
 20
-673.218446
  0
LWPOLYLINE
  5
45
330
1F
100
AcDbEntity
  8
0
100
AcDbPolyline
 90
      264
 70
   128
 43
0.0
 10
561.282409
 20
-474.442499
 10
561.28242
 20
-474.113607
 10
561.282455
 20
-474.061855
 10
561.28269
 20
-474.005463
 10
561.283325
 20
-473.944725
 10
561.284559
 20
-473.879933
 10
561.286595
 20
-473.811382
 10
561.28963
 20
-473.739364
 10
561.293864
 20
-473.664173
 10
561.299497
 20
-473.586102
 10
561.306731
 20
-473.505445
 10
561.315763
 20
-473.422495
 10
561.326795
 20
-473.337545
 10
561.340027
 20
-473.250889
 10
561.355657
 20
-473.16282
 10
561.373886
 20
-473.073633
 10
561.394914
 20
-472.983618
 10
561.418941
 20
-472.893071
 10
561.446166
 20
-472.802286
 10
561.476791
 20
-472.711553
 10
561.511014
 20
-472.621168
 10
561.549035
 20
-472.531424
 10
561.590997
 20
-472.442591
 10
561.636803
 20
-472.354846
 10
561.686302
 20
-472.268342
 10
561.739339
 20
-472.183231
 10
561.795761
 20
-472.099667
 10
561.855415
 20
-472.017804
 10
561.918149
 20
-471.937794
 10
561.983809
 20
-471.859792
 10
562.05224
 20
-471.783949
 10
562.123291
 20
-471.71042
 10
562.196809
 20
-471.639357
 10
562.272639
 20
-471.570914
 10
562.350628
 20
-471.505244
 10
562.430624
 20
-471.442501
 10
562.512474
 20
-471.382837
 10
562.596022
 20
-471.326406
 10
562.681118
 20
-471.27336
 10
562.767606
 20
-471.223855
 10
562.855335
 20
-471.178041
 10
562.94415
 20
-471.136073
 10
563.033877
 20
-471.098045
 10
563.124243
 20
-471.063816
 10
563.214956
 20
-471.033187
 10
563.305723
 20
-471.005956
 10
563.396251
 20
-470.981925
 10
563.486246
 20
-470.960892
 10
563.575414
 20
-470.942659
 10
563.663464
 20
-470.927026
 10
563.7501
 20
-470.913792
 10
563.83503
 20
-470.902757
 10
563.917962
 20
-470.893723
 10
563.9986
 20
-470.886488
 10
564.076653
 20
-470.880852
 10
564.151827
 20
-470.876616
 10
564.223828
 20
-470.87358
 10
564.292363
 20
-470.871544
 10
564.357139
 20
-470.870308
 10
564.417863
 20
-470.869672
 10
564.474241
 20
-470.869436
 10
564.525981
 20
-470.8694
 10
564.572919
 20
-470.869398
 10
564.615418
 20
-470.869396
 10
564.653972
 20
-470.869394
 10
564.689073
 20
-470.869393
 10
564.721214
 20
-470.869391
 10
564.75089
 20
-470.86939
 10
564.778592
 20
-470.869389
 10
564.804816
 20
-470.869387
 10
564.830052
 20
-470.869386
 10
564.854795
 20
-470.869386
 10
564.879539
 20
-470.869384
 10
564.904775
 20
-470.869383
 10
564.930998
 20
-470.869382
 10
564.958701
 20
-470.869381
 10
564.988376
 20
-470.869379
 10
565.020518
 20
-470.869378
 10
565.055619
 20
-470.869376
 10
565.094173
 20
-470.869374
 10
565.136672
 20
-470.869372
 10
565.18361
 20
-470.86937
 10
565.23535
 20
-470.869401
 10
565.291728
 20
-470.869631
 10
565.352452
 20
-470.870262
 10
565.417228
 20
-470.871492
 10
565.485764
 20
-470.873521
 10
565.557765
 20
-470.87655
 10
565.63294
 20
-470.880778
 10
565.710993
 20
-470.886407
 10
565.791633
 20
-470.893634
 10
565.874565
 20
-470.902661
 10
565.959497
 20
-470.913686
 10
566.046136
 20
-470.926912
 10
566.134187
 20
-470.942536
 10
566.223358
 20
-470.960759
 10
566.313357
 20
-470.981782
 10
566.403888
 20
-471.005803
 10
566.494659
 20
-471.033025
 10
566.585376
 20
-471.063644
 10
566.675748
 20
-471.097863
 10
566.765479
 20
-471.13588
 10
566.854301
 20
-471.177837
 10
566.942036
 20
-471.223641
 10
567.028532
 20
-471.273136
 10
567.113635
 20
-471.326171
 10
567.197192
 20
-471.382591
 10
567.279049
 20
-471.442244
 10
567.359054
 20
-471.504977
 10
567.437052
 20
-471.570636
 10
567.512892
 20
-471.639068
 10
567.586419
 20
-471.710119
 10
567.65748
 20
-471.783638
 10
567.725922
 20
-471.85947
 10
567.791591
 20
-471.937462
 10
567.854335
 20
-472.017461
 10
567.914
 20
-472.099314
 10
567.970433
 20
-472.182867
 10
568.023481
 20
-472.267968
 10
568.072989
 20
-472.354463
 10
568.118806
 20
-472.442198
 10
568.160778
 20
-472.531021
 10
568.19881
 20
-472.620755
 10
568.233043
 20
-472.71113
 10
568.263677
 20
-472.801853
 10
568.290913
 20
-472.892631
 10
568.31495
 20
-472.983168
 10
568.335988
 20
-473.073174
 10
568.354226
 20
-473.162354
 10
568.369865
 20
-473.250415
 10
568.383105
 20
-473.337063
 10
568.394145
 20
-473.422006
 10
568.403186
 20
-473.504948
 10
568.410427
 20
-473.585599
 10
568.416069
 20
-473.663663
 10
568.42031
 20
-473.738848
 10
568.423351
 20
-473.81086
 10
568.425393
 20
-473.879406
 10
568.426634
 20
-473.944193
 10
568.427274
 20
-474.004926
 10
568.427515
 20
-474.061314
 10
568.427596
 20
-474.441927
 10
568.427677
 20
-474.770678
 10
568.427656
 20
-474.822406
 10
568.427436
 20
-474.878773
 10
568.426818
 20
-474.939486
 10
568.4256
 20
-475.00425
 10
568.423584
 20
-475.072773
 10
568.420568
 20
-475.144762
 10
568.416352
 20
-475.219923
 10
568.410738
 20
-475.297963
 10
568.403523
 20
-475.37859
 10
568.394509
 20
-475.461511
 10
568.383495
 20
-475.546431
 10
568.370281
 20
-475.633058
 10
568.354668
 20
-475.721099
 10
568.336453
 20
-475.81026
 10
568.315439
 20
-475.90025
 10
568.291425
 20
-475.990773
 10
568.264211
 20
-476.081538
 10
568.233595
 20
-476.172252
 10
568.199379
 20
-476.26262
 10
568.161363
 20
-476.352351
 10
568.119405
 20
-476.441174
 10
568.073598
 20
-476.528912
 10
568.024099
 20
-476.615412
 10
567.971059
 20
-476.700521
 10
567.914631
 20
-476.784084
 10
567.85497
 20
-476.865951
 10
567.792228
 20
-476.945966
 10
567.72656
 20
-477.023974
 10
567.658117
 20
-477.099826
 10
567.587054
 20
-477.173365
 10
567.513525
 20
-477.244439
 10
567.437683
 20
-477.312895
 10
567.35968
 20
-477.378578
 10
567.27967
 20
-477.441336
 10
567.197807
 20
-477.501016
 10
567.114245
 20
-477.557462
 10
567.029136
 20
-477.610523
 10
566.942635
 20
-477.660045
 10
566.854892
 20
-477.705875
 10
566.766065
 20
-477.747859
 10
566.676327
 20
-477.785902
 10
566.58595
 20
-477.820146
 10
566.495227
 20
-477.85079
 10
566.404451
 20
-477.878035
 10
566.313914
 20
-477.90208
 10
566.223912
 20
-477.923126
 10
566.134735
 20
-477.941371
 10
566.04668
 20
-477.957017
 10
565.960037
 20
-477.970263
 10
565.875101
 20
-477.981309
 10
565.792164
 20
-477.990355
 10
565.711521
 20
-477.9976
 10
565.633465
 20
-478.003246
 10
565.558287
 20
-478.007492
 10
565.486283
 20
-478.010537
 10
565.417744
 20
-478.012581
 10
565.352964
 20
-478.013825
 10
565.292238
 20
-478.014468
 10
565.235857
 20
-478.014711
 10
564.855288
 20
-478.014807
 10
564.526474
 20
-478.014823
 10
564.474734
 20
-478.014791
 10
564.418356
 20
-478.014562
 10
564.357632
 20
-478.013931
 10
564.292855
 20
-478.012701
 10
564.224319
 20
-478.010671
 10
564.152317
 20
-478.007642
 10
564.077143
 20
-478.003412
 10
563.999089
 20
-477.997783
 10
563.918449
 20
-477.990554
 10
563.835515
 20
-477.981526
 10
563.750582
 20
-477.970498
 10
563.663942
 20
-477.95727
 10
563.575889
 20
-477.941642
 10
563.486716
 20
-477.923415
 10
563.396717
 20
-477.902388
 10
563.306183
 20
-477.878362
 10
563.215409
 20
-477.851136
 10
563.124688
 20
-477.82051
 10
563.034314
 20
-477.786284
 10
562.944579
 20
-477.74826
 10
562.855753
 20
-477.706294
 10
562.768014
 20
-477.660482
 10
562.681512
 20
-477.610977
 10
562.596404
 20
-477.557933
 10
562.512843
 20
-477.501503
 10
562.43098
 20
-477.44184
 10
562.350971
 20
-477.379098
 10
562.272966
 20
-477.313429
 10
562.197121
 20
-477.244987
 10
562.123589
 20
-477.173927
 10
562.052522
 20
-477.100401
 10
561.984075
 20
-477.024562
 10
561.918401
 20
-476.946564
 10
561.855652
 20
-476.866559
 10
561.795983
 20
-476.784702
 10
561.739545
 20
-476.701147
 10
561.686494
 20
-476.616045
 10
561.636982
 20
-476.529553
 10
561.591163
 20
-476.441819
 10
561.549189
 20
-476.353001
 10
561.511155
 20
-476.263274
 10
561.476921
 20
-476.172908
 10
561.446286
 20
-476.082196
 10
561.41905
 20
-475.99143
 10
561.395013
 20
-475.900906
 10
561.373976
 20
-475.810916
 10
561.355739
 20
-475.721752
 10
561.340101
 20
-475.633708
 10
561.326862
 20
-475.547078
 10
561.315824
 20
-475.462154
 10
561.306785
 20
-475.37923
 10
561.299547
 20
-475.298598
 10
561.293907
 20
-475.220553
 10
561.289668
 20
-475.145387
 10
561.286629
 20
-475.073394
 10
561.284591
 20
-475.004866
 10
561.283351
 20
-474.940097
 10
561.282714
 20
-474.87938
 10
561.282475
 20
-474.823008
 10
561.282409
 20
-474.442499
  0
LWPOLYLINE
  5
46
330
1F
100
AcDbEntity
  8
0
100
AcDbPolyline
 90
      245
 70
   128
 43
0.0
 10
628.808389
 20
-486.187643
 10
628.808321
 20
-485.858855
 10
628.808343
 20
-485.807119
 10
628.808565
 20
-485.750745
 10
628.809186
 20
-485.690026
 10
628.810406
 20
-485.625254
 10
628.812425
 20
-485.556723
 10
628.815443
 20
-485.484726
 10
628.819661
 20
-485.409556
 10
628.825278
 20
-485.331507
 10
628.832494
 20
-485.250871
 10
628.84151
 20
-485.167941
 10
628.852525
 20
-485.083012
 10
628.86574
 20
-484.996375
 10
628.881354
 20
-484.908325
 10
628.899569
 20
-484.819154
 10
628.920583
 20
-484.729155
 10
628.944596
 20
-484.638622
 10
628.971809
 20
-484.547849
 10
629.002422
 20
-484.457126
 10
629.036636
 20
-484.36675
 10
629.074648
 20
-484.277011
 10
629.116603
 20
-484.188181
 10
629.162403
 20
-484.100436
 10
629.211898
 20
-484.013928
 10
629.264932
 20
-483.928813
 10
629.321352
 20
-483.845243
 10
629.381006
 20
-483.763371
 10
629.44374
 20
-483.683352
 10
629.5094
 20
-483.605338
 10
629.577834
 20
-483.529484
 10
629.648888
 20
-483.455941
 10
629.722409
 20
-483.384864
 10
629.798243
 20
-483.316407
 10
629.876236
 20
-483.250721
 10
629.956236
 20
-483.187963
 10
630.03809
 20
-483.128284
 10
630.121643
 20
-483.071837
 10
630.206744
 20
-483.018778
 10
630.293237
 20
-482.969257
 10
630.38097
 20
-482.923431
 10
630.46979
 20
-482.88145
 10
630.559519
 20
-482.843411
 10
630.649889
 20
-482.809172
 10
630.740606
 20
-482.778534
 10
630.831376
 20
-482.751295
 10
630.921905
 20
-482.727257
 10
631.011902
 20
-482.706219
 10
631.101073
 20
-482.68798
 10
631.189123
 20
-482.672342
 10
631.275761
 20
-482.659104
 10
631.360693
 20
-482.648066
 10
631.443625
 20
-482.639029
 10
631.524265
 20
-482.631792
 10
631.602317
 20
-482.626154
 10
631.677492
 20
-482.621917
 10
631.749493
 20
-482.61888
 10
631.818028
 20
-482.616843
 10
631.882805
 20
-482.615607
 10
631.943529
 20
-482.614971
 10
631.999907
 20
-482.614735
 10
632.380461
 20
-482.614685
 10
632.709289
 20
-482.61463
 10
632.761031
 20
-482.614654
 10
632.817411
 20
-482.614879
 10
632.878138
 20
-482.615502
 10
632.942917
 20
-482.616725
 10
633.011456
 20
-482.618747
 10
633.08346
 20
-482.621768
 10
633.158639
 20
-482.625989
 10
633.236697
 20
-482.63161
 10
633.317341
 20
-482.63883
 10
633.400279
 20
-482.64785
 10
633.485216
 20
-482.65887
 10
633.571862
 20
-482.672089
 10
633.65992
 20
-482.687709
 10
633.749098
 20
-482.705929
 10
633.839104
 20
-482.726949
 10
633.929644
 20
-482.750968
 10
634.020423
 20
-482.778188
 10
634.111151
 20
-482.808808
 10
634.201533
 20
-482.843029
 10
634.291276
 20
-482.881049
 10
634.38011
 20
-482.923011
 10
634.467858
 20
-482.96882
 10
634.554367
 20
-483.018324
 10
634.639484
 20
-483.071367
 10
634.723055
 20
-483.127797
 10
634.804926
 20
-483.18746
 10
634.884945
 20
-483.250204
 10
634.962958
 20
-483.315875
 10
635.038812
 20
-483.384319
 10
635.112352
 20
-483.455384
 10
635.183427
 20
-483.528915
 10
635.251882
 20
-483.604759
 10
635.317563
 20
-483.682765
 10
635.380319
 20
-483.762776
 10
635.439996
 20
-483.844642
 10
635.496438
 20
-483.928206
 10
635.549494
 20
-484.013318
 10
635.59901
 20
-484.099823
 10
635.644833
 20
-484.187568
 10
635.68681
 20
-484.276399
 10
635.724844
 20
-484.366142
 10
635.75908
 20
-484.456522
 10
635.789714
 20
-484.54725
 10
635.816949
 20
-484.638032
 10
635.840983
 20
-484.728573
 10
635.862018
 20
-484.818581
 10
635.880252
 20
-484.907763
 10
635.895888
 20
-484.995825
 10
635.909121
 20
-485.082473
 10
635.920155
 20
-485.167415
 10
635.92919
 20
-485.250358
 10
635.936424
 20
-485.331007
 10
635.942058
 20
-485.409069
 10
635.946292
 20
-485.484252
 10
635.949326
 20
-485.556262
 10
635.95136
 20
-485.624806
 10
635.952594
 20
-485.68959
 10
635.953227
 20
-485.750322
 10
635.953461
 20
-485.806706
 10
635.953497
 20
-486.187306
 10
635.953513
 20
-486.516121
 10
635.953481
 20
-486.56786
 10
635.953251
 20
-486.624239
 10
635.952621
 20
-486.684963
 10
635.951391
 20
-486.749739
 10
635.949361
 20
-486.818275
 10
635.946331
 20
-486.890276
 10
635.942103
 20
-486.965451
 10
635.936476
 20
-487.043504
 10
635.929248
 20
-487.124143
 10
635.920222
 20
-487.207075
 10
635.909195
 20
-487.292008
 10
635.89597
 20
-487.378647
 10
635.880346
 20
-487.466698
 10
635.862122
 20
-487.555869
 10
635.841099
 20
-487.645867
 10
635.817078
 20
-487.736398
 10
635.789857
 20
-487.827169
 10
635.759237
 20
-487.917887
 10
635.725019
 20
-488.008258
 10
635.687001
 20
-488.09799
 10
635.645044
 20
-488.186811
 10
635.599241
 20
-488.274547
 10
635.549746
 20
-488.361042
 10
635.496711
 20
-488.446145
 10
635.440291
 20
-488.529701
 10
635.380637
 20
-488.611558
 10
635.317903
 20
-488.691562
 10
635.252244
 20
-488.769559
 10
635.183812
 20
-488.845398
 10
635.112759
 20
-488.918923
 10
635.039239
 20
-488.989982
 10
634.963406
 20
-489.058421
 10
634.885412
 20
-489.124087
 10
634.805412
 20
-489.186828
 10
634.723557
 20
-489.246489
 10
634.640001
 20
-489.302917
 10
634.554899
 20
-489.35596
 10
634.468401
 20
-489.405462
 10
634.380661
 20
-489.451272
 10
634.291835
 20
-489.493236
 10
634.202097
 20
-489.53126
 10
634.111717
 20
-489.565484
 10
634.02099
 20
-489.59611
 10
633.930207
 20
-489.623334
 10
633.839664
 20
-489.647361
 10
633.749652
 20
-489.668387
 10
633.660467
 20
-489.686614
 10
633.5724
 20
-489.702242
 10
633.485746
 20
-489.715471
 10
633.400798
 20
-489.726499
 10
633.317849
 20
-489.735528
 10
633.237194
 20
-489.742757
 10
633.159123
 20
-489.748387
 10
633.083933
 20
-489.752617
 10
633.011915
 20
-489.755647
 10
632.943364
 20
-489.757678
 10
632.878572
 20
-489.758909
 10
632.817835
 20
-489.75954
 10
632.761442
 20
-489.759772
 10
632.380798
 20
-489.759792
 10
632.052023
 20
-489.759821
 10
632.00029
 20
-489.759792
 10
631.943918
 20
-489.759563
 10
631.883201
 20
-489.758936
 10
631.818432
 20
-489.757708
 10
631.749904
 20
-489.755681
 10
631.67791
 20
-489.752655
 10
631.602744
 20
-489.748429
 10
631.524698
 20
-489.742804
 10
631.444066
 20
-489.735579
 10
631.361141
 20
-489.726555
 10
631.276216
 20
-489.715532
 10
631.189584
 20
-489.702308
 10
631.101539
 20
-489.686686
 10
631.012373
 20
-489.668465
 10
630.922381
 20
-489.647443
 10
630.831854
 20
-489.623423
 10
630.741087
 20
-489.596204
 10
630.650372
 20
-489.565586
 10
630.560002
 20
-489.531367
 10
630.470271
 20
-489.49335
 10
630.381449
 20
-489.451392
 10
630.293712
 20
-489.405589
 10
630.207214
 20
-489.356093
 10
630.122108
 20
-489.303057
 10
630.038547
 20
-489.246636
 10
629.956685
 20
-489.186981
 10
629.876676
 20
-489.124248
 10
629.798672
 20
-489.058588
 10
629.722828
 20
-488.990155
 10
629.649296
 20
-488.919103
 10
629.57823
 20
-488.845585
 10
629.509784
 20
-488.769754
 10
629.44411
 20
-488.691763
 10
629.381362
 20
-488.611766
 10
629.321695
 20
-488.529916
 10
629.265261
 20
-488.446367
 10
629.212212
 20
-488.36127
 10
629.162704
 20
-488.27478
 10
629.116889
 20
-488.187051
 10
629.07492
 20
-488.098235
 10
629.036893
 20
-488.008509
 10
629.002665
 20
-487.918143
 10
628.972039
 20
-487.827431
 10
628.944811
 20
-487.736666
 10
628.920785
 20
-487.646139
 10
628.899757
 20
-487.556146
 10
628.88153
 20
-487.466979
 10
628.865903
 20
-487.378932
 10
628.852676
 20
-487.292298
 10
628.841648
 20
-487.207371
 10
628.832621
 20
-487.124442
 10
628.825394
 20
-487.043805
 10
628.819766
 20
-486.965755
 10
628.815538
 20
-486.890584
 10
628.812509
 20
-486.818586
 10
628.810481
 20
-486.750054
 10
628.809252
 20
-486.685279
 10
628.808623
 20
-486.624558
 10
628.808394
 20
-486.568182
 10
628.808389
 20
-486.187643
  0
LWPOLYLINE
  5
47
330
1F
100
AcDbEntity
  8
0
100
AcDbPolyline
 90
      245
 70
   128
 43
0.0
 10
410.289206
 20
-697.649161
 10
410.289139
 20
-697.97795
 10
410.289161
 20
-698.029685
 10
410.289383
 20
-698.086059
 10
410.290004
 20
-698.146778
 10
410.291224
 20
-698.211551
 10
410.293243
 20
-698.280081
 10
410.296261
 20
-698.352078
 10
410.300479
 20
-698.427248
 10
410.306096
 20
-698.505298
 10
410.313312
 20
-698.585933
 10
410.322328
 20
-698.668863
 10
410.333343
 20
-698.753793
 10
410.346558
 20
-698.840429
 10
410.362172
 20
-698.928479
 10
410.380386
 20
-699.017651
 10
410.4014
 20
-699.107649
 10
410.425414
 20
-699.198182
 10
410.452627
 20
-699.288956
 10
410.48324
 20
-699.379678
 10
410.517453
 20
-699.470054
 10
410.555466
 20
-699.559793
 10
410.597421
 20
-699.648624
 10
410.643221
 20
-699.736369
 10
410.692715
 20
-699.822876
 10
410.74575
 20
-699.907991
 10
410.80217
 20
-699.991561
 10
410.861824
 20
-700.073433
 10
410.924558
 20
-700.153452
 10
410.990218
 20
-700.231466
 10
411.058652
 20
-700.307321
 10
411.129706
 20
-700.380864
 10
411.203227
 20
-700.451941
 10
411.27906
 20
-700.520398
 10
411.357053
 20
-700.586083
 10
411.437054
 20
-700.648842
 10
411.518908
 20
-700.70852
 10
411.602461
 20
-700.764967
 10
411.687561
 20
-700.818027
 10
411.774054
 20
-700.867547
 10
411.861788
 20
-700.913373
 10
411.950608
 20
-700.955354
 10
412.040337
 20
-700.993393
 10
412.130707
 20
-701.027632
 10
412.221424
 20
-701.05827
 10
412.312194
 20
-701.085509
 10
412.402723
 20
-701.109547
 10
412.49272
 20
-701.130586
 10
412.581891
 20
-701.148824
 10
412.669941
 20
-701.164462
 10
412.756579
 20
-701.1777
 10
412.84151
 20
-701.188738
 10
412.924443
 20
-701.197775
 10
413.005082
 20
-701.205012
 10
413.083135
 20
-701.21065
 10
413.15831
 20
-701.214887
 10
413.230311
 20
-701.217924
 10
413.298846
 20
-701.219961
 10
413.363622
 20
-701.221197
 10
413.424347
 20
-701.221833
 10
413.480725
 20
-701.222069
 10
413.861278
 20
-701.22212
 10
414.190107
 20
-701.222174
 10
414.241849
 20
-701.22215
 10
414.298228
 20
-701.221925
 10
414.358956
 20
-701.221302
 10
414.423735
 20
-701.22008
 10
414.492273
 20
-701.218057
 10
414.564278
 20
-701.215036
 10
414.639456
 20
-701.210815
 10
414.717515
 20
-701.205195
 10
414.798159
 20
-701.197974
 10
414.881097
 20
-701.188954
 10
414.966034
 20
-701.177934
 10
415.052679
 20
-701.164715
 10
415.140737
 20
-701.149095
 10
415.229916
 20
-701.130875
 10
415.319921
 20
-701.109855
 10
415.410461
 20
-701.085836
 10
415.501241
 20
-701.058616
 10
415.591969
 20
-701.027996
 10
415.682351
 20
-700.993776
 10
415.772093
 20
-700.955755
 10
415.860927
 20
-700.913793
 10
415.948675
 20
-700.867984
 10
416.035185
 20
-700.818481
 10
416.120302
 20
-700.765437
 10
416.203872
 20
-700.709007
 10
416.285744
 20
-700.649344
 10
416.365762
 20
-700.5866
 10
416.443775
 20
-700.520929
 10
416.51963
 20
-700.452485
 10
416.59317
 20
-700.38142
 10
416.664245
 20
-700.307889
 10
416.7327
 20
-700.232045
 10
416.798381
 20
-700.154039
 10
416.861137
 20
-700.074028
 10
416.920813
 20
-699.992162
 10
416.977256
 20
-699.908598
 10
417.030312
 20
-699.823486
 10
417.079828
 20
-699.736981
 10
417.125651
 20
-699.649236
 10
417.167627
 20
-699.560405
 10
417.205662
 20
-699.470663
 10
417.239898
 20
-699.380282
 10
417.270532
 20
-699.289554
 10
417.297767
 20
-699.198772
 10
417.321801
 20
-699.108231
 10
417.342836
 20
-699.018223
 10
417.36107
 20
-698.929041
 10
417.376705
 20
-698.84098
 10
417.389939
 20
-698.754331
 10
417.400973
 20
-698.669389
 10
417.410007
 20
-698.586446
 10
417.417242
 20
-698.505797
 10
417.422876
 20
-698.427735
 10
417.427109
 20
-698.352552
 10
417.430143
 20
-698.280542
 10
417.432177
 20
-698.211998
 10
417.433412
 20
-698.147214
 10
417.434045
 20
-698.086482
 10
417.434279
 20
-698.030098
 10
417.434315
 20
-697.649498
 10
417.43433
 20
-697.320683
 10
417.434299
 20
-697.268945
 10
417.434068
 20
-697.212566
 10
417.433438
 20
-697.151841
 10
417.432208
 20
-697.087065
 10
417.430178
 20
-697.01853
 10
417.427149
 20
-696.946528
 10
417.422921
 20
-696.871354
 10
417.417293
 20
-696.7933
 10
417.410065
 20
-696.712661
 10
417.40104
 20
-696.629729
 10
417.390013
 20
-696.544796
 10
417.376788
 20
-696.458157
 10
417.361163
 20
-696.370106
 10
417.34294
 20
-696.280935
 10
417.321917
 20
-696.190937
 10
417.297896
 20
-696.100406
 10
417.270675
 20
-696.009636
 10
417.240055
 20
-695.918917
 10
417.205837
 20
-695.828547
 10
417.167819
 20
-695.738814
 10
417.125862
 20
-695.649993
 10
417.080058
 20
-695.562257
 10
417.030564
 20
-695.475762
 10
416.977529
 20
-695.390659
 10
416.921108
 20
-695.307103
 10
416.861455
 20
-695.225246
 10
416.798721
 20
-695.145243
 10
416.733062
 20
-695.067245
 10
416.66463
 20
-694.991406
 10
416.593577
 20
-694.917881
 10
416.520057
 20
-694.846822
 10
416.444224
 20
-694.778383
 10
416.36623
 20
-694.712717
 10
416.286229
 20
-694.649976
 10
416.204374
 20
-694.590315
 10
416.120819
 20
-694.533887
 10
416.035716
 20
-694.480844
 10
415.949218
 20
-694.431342
 10
415.861479
 20
-694.385532
 10
415.772653
 20
-694.343568
 10
415.682914
 20
-694.305544
 10
415.592534
 20
-694.27132
 10
415.501807
 20
-694.240695
 10
415.411025
 20
-694.21347
 10
415.320481
 20
-694.189444
 10
415.23047
 20
-694.168417
 10
415.141284
 20
-694.15019
 10
415.053218
 20
-694.134562
 10
414.966564
 20
-694.121333
 10
414.881616
 20
-694.110306
 10
414.798667
 20
-694.101276
 10
414.718012
 20
-694.094047
 10
414.639941
 20
-694.088417
 10
414.564751
 20
-694.084187
 10
414.492733
 20
-694.081157
 10
414.424182
 20
-694.079126
 10
414.35939
 20
-694.077895
 10
414.298653
 20
-694.077264
 10
414.24226
 20
-694.077032
 10
413.861616
 20
-694.077012
 10
413.532841
 20
-694.076983
 10
413.481108
 20
-694.077012
 10
413.424736
 20
-694.077241
 10
413.364019
 20
-694.077868
 10
413.299249
 20
-694.079096
 10
413.230722
 20
-694.081123
 10
413.158728
 20
-694.084149
 10
413.083562
 20
-694.088375
 10
413.005515
 20
-694.094
 10
412.924883
 20
-694.101225
 10
412.841959
 20
-694.110249
 10
412.757034
 20
-694.121272
 10
412.670402
 20
-694.134496
 10
412.582357
 20
-694.150118
 10
412.493191
 20
-694.16834
 10
412.403199
 20
-694.189361
 10
412.312672
 20
-694.213381
 10
412.221905
 20
-694.2406
 10
412.131189
 20
-694.271219
 10
412.04082
 20
-694.305437
 10
411.951089
 20
-694.343455
 10
411.862267
 20
-694.385412
 10
411.77453
 20
-694.431215
 10
411.688031
 20
-694.480711
 10
411.602926
 20
-694.533747
 10
411.519365
 20
-694.590168
 10
411.437503
 20
-694.649823
 10
411.357494
 20
-694.712557
 10
411.27949
 20
-694.778216
 10
411.203646
 20
-694.846649
 10
411.130114
 20
-694.917701
 10
411.059048
 20
-694.991219
 10
410.990602
 20
-695.06705
 10
410.924928
 20
-695.145041
 10
410.86218
 20
-695.225038
 10
410.802512
 20
-695.306888
 10
410.746078
 20
-695.390438
 10
410.69303
 20
-695.475534
 10
410.643521
 20
-695.562024
 10
410.597706
 20
-695.649753
 10
410.555738
 20
-695.738569
 10
410.517711
 20
-695.828295
 10
410.483483
 20
-695.918661
 10
410.452857
 20
-696.009373
 10
410.425629
 20
-696.100138
 10
410.401603
 20
-696.190665
 10
410.380575
 20
-696.280658
 10
410.362348
 20
-696.369825
 10
410.346721
 20
-696.457872
 10
410.333494
 20
-696.544506
 10
410.322466
 20
-696.629434
 10
410.313439
 20
-696.712362
 10
410.306211
 20
-696.792999
 10
410.300584
 20
-696.871049
 10
410.296356
 20
-696.94622
 10
410.293327
 20
-697.018218
 10
410.291299
 20
-697.086751
 10
410.29007
 20
-697.151525
 10
410.289441
 20
-697.212247
 10
410.289212
 20
-697.268622
 10
410.289206
 20
-697.649161
  0
LWPOLYLINE
  5
48
330
1F
100
AcDbEntity
  8
0
100
AcDbPolyline
 90
      264
 70
   128
 43
0.0
 10
455.410979
 20
-694.566682
 10
455.41099
 20
-694.895575
 10
455.411025
 20
-694.947326
 10
455.41126
 20
-695.003718
 10
455.411895
 20
-695.064457
 10
455.413129
 20
-695.129248
 10
455.415164
 20
-695.1978
 10
455.418199
 20
-695.269817
 10
455.422434
 20
-695.345009
 10
455.428067
 20
-695.423079
 10
455.435301
 20
-695.503736
 10
455.444333
 20
-695.586687
 10
455.455365
 20
-695.671637
 10
455.468596
 20
-695.758292
 10
455.484227
 20
-695.846361
 10
455.502456
 20
-695.935549
 10
455.523484
 20
-696.025563
 10
455.547511
 20
-696.11611
 10
455.574736
 20
-696.206896
 10
455.605361
 20
-696.297629
 10
455.639584
 20
-696.388013
 10
455.677605
 20
-696.477757
 10
455.719567
 20
-696.56659
 10
455.765373
 20
-696.654335
 10
455.814872
 20
-696.74084
 10
455.867909
 20
-696.82595
 10
455.924331
 20
-696.909514
 10
455.983985
 20
-696.991377
 10
456.046719
 20
-697.071387
 10
456.112379
 20
-697.14939
 10
456.18081
 20
-697.225232
 10
456.251861
 20
-697.298761
 10
456.325379
 20
-697.369824
 10
456.401209
 20
-697.438267
 10
456.479198
 20
-697.503937
 10
456.559194
 20
-697.56668
 10
456.641044
 20
-697.626345
 10
456.724592
 20
-697.682776
 10
456.809688
 20
-697.735821
 10
456.896176
 20
-697.785327
 10
456.983905
 20
-697.831141
 10
457.07272
 20
-697.873108
 10
457.162447
 20
-697.911136
 10
457.252813
 20
-697.945365
 10
457.343526
 20
-697.975995
 10
457.434293
 20
-698.003225
 10
457.52482
 20
-698.027256
 10
457.614816
 20
-698.048289
 10
457.703984
 20
-698.066522
 10
457.792034
 20
-698.082155
 10
457.87867
 20
-698.095389
 10
457.9636
 20
-698.106424
 10
458.046532
 20
-698.115458
 10
458.12717
 20
-698.122694
 10
458.205223
 20
-698.128329
 10
458.280396
 20
-698.132565
 10
458.352398
 20
-698.135601
 10
458.420933
 20
-698.137637
 10
458.485709
 20
-698.138873
 10
458.546433
 20
-698.139509
 10
458.602811
 20
-698.139745
 10
458.654551
 20
-698.139781
 10
458.701489
 20
-698.139783
 10
458.743988
 20
-698.139786
 10
458.782542
 20
-698.139787
 10
458.817643
 20
-698.139788
 10
458.849784
 20
-698.13979
 10
458.87946
 20
-698.139792
 10
458.907162
 20
-698.139793
 10
458.933386
 20
-698.139794
 10
458.958622
 20
-698.139795
 10
458.983365
 20
-698.139796
 10
459.008109
 20
-698.139797
 10
459.033345
 20
-698.139799
 10
459.059568
 20
-698.1398
 10
459.087271
 20
-698.139801
 10
459.116946
 20
-698.139802
 10
459.149087
 20
-698.139804
 10
459.184189
 20
-698.139805
 10
459.222742
 20
-698.139807
 10
459.265242
 20
-698.13981
 10
459.31218
 20
-698.139812
 10
459.36392
 20
-698.13978
 10
459.420297
 20
-698.139551
 10
459.481022
 20
-698.13892
 10
459.545798
 20
-698.13769
 10
459.614334
 20
-698.135661
 10
459.686335
 20
-698.132632
 10
459.76151
 20
-698.128403
 10
459.839563
 20
-698.122775
 10
459.920203
 20
-698.115548
 10
460.003135
 20
-698.106521
 10
460.088067
 20
-698.095495
 10
460.174706
 20
-698.08227
 10
460.262757
 20
-698.066646
 10
460.351928
 20
-698.048422
 10
460.441927
 20
-698.027399
 10
460.532458
 20
-698.003378
 10
460.623228
 20
-697.976157
 10
460.713946
 20
-697.945537
 10
460.804317
 20
-697.911318
 10
460.894049
 20
-697.873302
 10
460.982871
 20
-697.831344
 10
461.070606
 20
-697.785541
 10
461.157102
 20
-697.736045
 10
461.242205
 20
-697.683011
 10
461.325761
 20
-697.626591
 10
461.407619
 20
-697.566937
 10
461.487623
 20
-697.504204
 10
461.565622
 20
-697.438546
 10
461.641462
 20
-697.370113
 10
461.714989
 20
-697.299062
 10
461.78605
 20
-697.225543
 10
461.854492
 20
-697.149711
 10
461.920161
 20
-697.071719
 10
461.982905
 20
-696.991721
 10
462.04257
 20
-696.909868
 10
462.099003
 20
-696.826314
 10
462.152051
 20
-696.741214
 10
462.201559
 20
-696.654719
 10
462.247376
 20
-696.566984
 10
462.289348
 20
-696.47816
 10
462.32738
 20
-696.388426
 10
462.361613
 20
-696.298051
 10
462.392247
 20
-696.207328
 10
462.419483
 20
-696.116551
 10
462.44352
 20
-696.026013
 10
462.464558
 20
-695.936007
 10
462.482796
 20
-695.846827
 10
462.498435
 20
-695.758766
 10
462.511675
 20
-695.672118
 10
462.522715
 20
-695.587176
 10
462.531756
 20
-695.504233
 10
462.538997
 20
-695.423583
 10
462.544639
 20
-695.345518
 10
462.548879
 20
-695.270333
 10
462.551921
 20
-695.198321
 10
462.553963
 20
-695.129775
 10
462.555204
 20
-695.064989
 10
462.555844
 20
-695.004255
 10
462.556085
 20
-694.947868
 10
462.556166
 20
-694.567254
 10
462.556247
 20
-694.238504
 10
462.556226
 20
-694.186775
 10
462.556006
 20
-694.130408
 10
462.555388
 20
-694.069695
 10
462.55417
 20
-694.004932
 10
462.552154
 20
-693.936408
 10
462.549138
 20
-693.86442
 10
462.544922
 20
-693.789258
 10
462.539308
 20
-693.711218
 10
462.532093
 20
-693.630591
 10
462.523079
 20
-693.547671
 10
462.512065
 20
-693.462751
 10
462.498851
 20
-693.376124
 10
462.483238
 20
-693.288083
 10
462.465023
 20
-693.198921
 10
462.444009
 20
-693.108932
 10
462.419995
 20
-693.018409
 10
462.392781
 20
-692.927643
 10
462.362165
 20
-692.836929
 10
462.327949
 20
-692.746561
 10
462.289933
 20
-692.656831
 10
462.247975
 20
-692.568008
 10
462.202168
 20
-692.48027
 10
462.152669
 20
-692.393769
 10
462.099629
 20
-692.308661
 10
462.043201
 20
-692.225097
 10
461.98354
 20
-692.14323
 10
461.920798
 20
-692.063216
 10
461.85513
 20
-691.985207
 10
461.786687
 20
-691.909356
 10
461.715624
 20
-691.835816
 10
461.642095
 20
-691.764743
 10
461.566253
 20
-691.696286
 10
461.488249
 20
-691.630603
 10
461.40824
 20
-691.567845
 10
461.326377
 20
-691.508166
 10
461.242815
 20
-691.45172
 10
461.157706
 20
-691.398658
 10
461.071204
 20
-691.349137
 10
460.983462
 20
-691.303307
 10
460.894635
 20
-691.261323
 10
460.804897
 20
-691.22328
 10
460.71452
 20
-691.189036
 10
460.623797
 20
-691.158391
 10
460.53302
 20
-691.131147
 10
460.442484
 20
-691.107101
 10
460.352482
 20
-691.086056
 10
460.263305
 20
-691.067811
 10
460.17525
 20
-691.052164
 10
460.088607
 20
-691.038919
 10
460.003671
 20
-691.027873
 10
459.920734
 20
-691.018826
 10
459.840091
 20
-691.011581
 10
459.762035
 20
-691.005935
 10
459.686857
 20
-691.001689
 10
459.614853
 20
-690.998644
 10
459.546313
 20
-690.996601
 10
459.481534
 20
-690.995356
 10
459.420808
 20
-690.994713
 10
459.364427
 20
-690.99447
 10
458.983858
 20
-690.994375
 10
458.655044
 20
-690.994359
 10
458.603304
 20
-690.99439
 10
458.546926
 20
-690.99462
 10
458.486202
 20
-690.995251
 10
458.421425
 20
-690.996481
 10
458.352889
 20
-690.998511
 10
458.280887
 20
-691.00154
 10
458.205713
 20
-691.005769
 10
458.127659
 20
-691.011399
 10
458.047019
 20
-691.018628
 10
457.964085
 20
-691.027655
 10
457.879152
 20
-691.038684
 10
457.792512
 20
-691.051911
 10
457.704459
 20
-691.06754
 10
457.615286
 20
-691.085766
 10
457.525287
 20
-691.106793
 10
457.434753
 20
-691.130819
 10
457.343979
 20
-691.158045
 10
457.253258
 20
-691.188672
 10
457.162884
 20
-691.222897
 10
457.073149
 20
-691.260922
 10
456.984323
 20
-691.302887
 10
456.896584
 20
-691.348699
 10
456.810082
 20
-691.398204
 10
456.724974
 20
-691.451248
 10
456.641413
 20
-691.507679
 10
456.55955
 20
-691.567342
 10
456.479541
 20
-691.630084
 10
456.401536
 20
-691.695752
 10
456.325691
 20
-691.764194
 10
456.252159
 20
-691.835254
 10
456.181092
 20
-691.908781
 10
456.112645
 20
-691.98462
 10
456.046971
 20
-692.062618
 10
455.984222
 20
-692.142622
 10
455.924553
 20
-692.224479
 10
455.868115
 20
-692.308035
 10
455.815064
 20
-692.393136
 10
455.765552
 20
-692.479629
 10
455.719733
 20
-692.567362
 10
455.677759
 20
-692.656181
 10
455.639725
 20
-692.745908
 10
455.605491
 20
-692.836274
 10
455.574856
 20
-692.926986
 10
455.54762
 20
-693.017751
 10
455.523583
 20
-693.108276
 10
455.502546
 20
-693.198266
 10
455.484309
 20
-693.287429
 10
455.468671
 20
-693.375474
 10
455.455432
 20
-693.462104
 10
455.444394
 20
-693.547027
 10
455.435355
 20
-693.629952
 10
455.428117
 20
-693.710583
 10
455.422477
 20
-693.788629
 10
455.418238
 20
-693.863794
 10
455.415199
 20
-693.935787
 10
455.41316
 20
-694.004316
 10
455.411921
 20
-694.069084
 10
455.411283
 20
-694.129802
 10
455.411045
 20
-694.186173
 10
455.410979
 20
-694.566682
  0
LWPOLYLINE
  5
49
330
1F
100
AcDbEntity
  8
0
100
AcDbPolyline
 90
      245
 70
   128
 43
0.0
 10
525.908961
 20
-677.842164
 10
525.908893
 20
-678.170952
 10
525.908915
 20
-678.222688
 10
525.909137
 20
-678.279062
 10
525.909758
 20
-678.339781
 10
525.910978
 20
-678.404553
 10
525.912997
 20
-678.473084
 10
525.916015
 20
-678.54508
 10
525.920233
 20
-678.62025
 10
525.92585
 20
-678.6983
 10
525.933066
 20
-678.778936
 10
525.942082
 20
-678.861865
 10
525.953097
 20
-678.946795
 10
525.966312
 20
-679.033431
 10
525.981926
 20
-679.121481
 10
526.00014
 20
-679.210653
 10
526.021155
 20
-679.300651
 10
526.045168
 20
-679.391184
 10
526.072381
 20
-679.481958
 10
526.102994
 20
-679.57268
 10
526.137208
 20
-679.663057
 10
526.17522
 20
-679.752795
 10
526.217175
 20
-679.841626
 10
526.262975
 20
-679.929371
 10
526.31247
 20
-680.015878
 10
526.365504
 20
-680.100993
 10
526.421924
 20
-680.184564
 10
526.481578
 20
-680.266435
 10
526.544312
 20
-680.346455
 10
526.609972
 20
-680.424469
 10
526.678406
 20
-680.500323
 10
526.74946
 20
-680.573866
 10
526.822981
 20
-680.644943
 10
526.898814
 20
-680.7134
 10
526.976808
 20
-680.779085
 10
527.056808
 20
-680.841844
 10
527.138662
 20
-680.901522
 10
527.222215
 20
-680.95797
 10
527.307316
 20
-681.011029
 10
527.393809
 20
-681.060549
 10
527.481542
 20
-681.106375
 10
527.570362
 20
-681.148356
 10
527.660091
 20
-681.186395
 10
527.750461
 20
-681.220634
 10
527.841178
 20
-681.251272
 10
527.931948
 20
-681.278511
 10
528.022477
 20
-681.302549
 10
528.112474
 20
-681.323588
 10
528.201645
 20
-681.341826
 10
528.289695
 20
-681.357464
 10
528.376333
 20
-681.370702
 10
528.461264
 20
-681.38174
 10
528.544197
 20
-681.390777
 10
528.624837
 20
-681.398015
 10
528.702889
 20
-681.403652
 10
528.778064
 20
-681.407889
 10
528.850065
 20
-681.410926
 10
528.9186
 20
-681.412963
 10
528.983377
 20
-681.414199
 10
529.044101
 20
-681.414835
 10
529.100479
 20
-681.415071
 10
529.481033
 20
-681.415122
 10
529.809861
 20
-681.415177
 10
529.861603
 20
-681.415153
 10
529.917983
 20
-681.414928
 10
529.97871
 20
-681.414305
 10
530.043489
 20
-681.413082
 10
530.112028
 20
-681.41106
 10
530.184032
 20
-681.408039
 10
530.259211
 20
-681.403817
 10
530.337269
 20
-681.398197
 10
530.417913
 20
-681.390976
 10
530.500851
 20
-681.381956
 10
530.585788
 20
-681.370937
 10
530.672434
 20
-681.357717
 10
530.760492
 20
-681.342097
 10
530.84967
 20
-681.323878
 10
530.939675
 20
-681.302858
 10
531.030215
 20
-681.278839
 10
531.120995
 20
-681.251619
 10
531.211723
 20
-681.220998
 10
531.302105
 20
-681.186778
 10
531.391848
 20
-681.148757
 10
531.480681
 20
-681.106796
 10
531.56843
 20
-681.060987
 10
531.654939
 20
-681.011483
 10
531.740056
 20
-680.95844
 10
531.823626
 20
-680.90201
 10
531.905498
 20
-680.842347
 10
531.985517
 20
-680.779603
 10
532.063529
 20
-680.713931
 10
532.139384
 20
-680.645487
 10
532.212924
 20
-680.574423
 10
532.283999
 20
-680.500892
 10
532.352454
 20
-680.425047
 10
532.418135
 20
-680.347042
 10
532.480891
 20
-680.26703
 10
532.540568
 20
-680.185165
 10
532.59701
 20
-680.1016
 10
532.650066
 20
-680.016489
 10
532.699582
 20
-679.929984
 10
532.745405
 20
-679.842239
 10
532.787382
 20
-679.753407
 10
532.825416
 20
-679.663665
 10
532.859652
 20
-679.573284
 10
532.890286
 20
-679.482556
 10
532.917521
 20
-679.391775
 10
532.941555
 20
-679.301233
 10
532.96259
 20
-679.211225
 10
532.980824
 20
-679.122043
 10
532.996459
 20
-679.033982
 10
533.009693
 20
-678.947333
 10
533.020727
 20
-678.862392
 10
533.029762
 20
-678.779449
 10
533.036996
 20
-678.6988
 10
533.04263
 20
-678.620737
 10
533.046864
 20
-678.545554
 10
533.049898
 20
-678.473544
 10
533.051932
 20
-678.405001
 10
533.053166
 20
-678.340216
 10
533.053799
 20
-678.279485
 10
533.054033
 20
-678.2231
 10
533.054069
 20
-677.8425
 10
533.054084
 20
-677.513686
 10
533.054053
 20
-677.461947
 10
533.053823
 20
-677.405568
 10
533.053192
 20
-677.344844
 10
533.051963
 20
-677.280068
 10
533.049932
 20
-677.211532
 10
533.046903
 20
-677.13953
 10
533.042675
 20
-677.064356
 10
533.037048
 20
-676.986302
 10
533.02982
 20
-676.905663
 10
533.020794
 20
-676.822731
 10
533.009767
 20
-676.737798
 10
532.996542
 20
-676.65116
 10
532.980918
 20
-676.563109
 10
532.962694
 20
-676.473937
 10
532.941671
 20
-676.38394
 10
532.91765
 20
-676.293409
 10
532.890429
 20
-676.202638
 10
532.859809
 20
-676.111919
 10
532.825591
 20
-676.021549
 10
532.787573
 20
-675.931817
 10
532.745616
 20
-675.842996
 10
532.699813
 20
-675.75526
 10
532.650318
 20
-675.668764
 10
532.597283
 20
-675.583662
 10
532.540862
 20
-675.500105
 10
532.481209
 20
-675.418249
 10
532.418475
 20
-675.338245
 10
532.352816
 20
-675.260247
 10
532.284384
 20
-675.184409
 10
532.213331
 20
-675.110884
 10
532.139811
 20
-675.039825
 10
532.063978
 20
-674.971386
 10
531.985984
 20
-674.90572
 10
531.905983
 20
-674.842979
 10
531.824129
 20
-674.783317
 10
531.740573
 20
-674.726889
 10
531.655471
 20
-674.673847
 10
531.568973
 20
-674.624344
 10
531.481233
 20
-674.578534
 10
531.392407
 20
-674.536571
 10
531.302669
 20
-674.498546
 10
531.212289
 20
-674.464322
 10
531.121562
 20
-674.433697
 10
531.030779
 20
-674.406472
 10
530.940236
 20
-674.382446
 10
530.850224
 20
-674.361419
 10
530.761039
 20
-674.343192
 10
530.672972
 20
-674.327565
 10
530.586318
 20
-674.314336
 10
530.50137
 20
-674.303308
 10
530.418421
 20
-674.294278
 10
530.337766
 20
-674.287049
 10
530.259695
 20
-674.281419
 10
530.184505
 20
-674.277189
 10
530.112487
 20
-674.274159
 10
530.043936
 20
-674.272128
 10
529.979144
 20
-674.270897
 10
529.918407
 20
-674.270266
 10
529.862014
 20
-674.270035
 10
529.48137
 20
-674.270015
 10
529.152595
 20
-674.269985
 10
529.100862
 20
-674.270014
 10
529.04449
 20
-674.270243
 10
528.983773
 20
-674.27087
 10
528.919004
 20
-674.272098
 10
528.850476
 20
-674.274126
 10
528.778482
 20
-674.277152
 10
528.703316
 20
-674.281377
 10
528.62527
 20
-674.287003
 10
528.544638
 20
-674.294227
 10
528.461713
 20
-674.303251
 10
528.376788
 20
-674.314275
 10
528.290156
 20
-674.327498
 10
528.202111
 20
-674.343121
 10
528.112945
 20
-674.361342
 10
528.022953
 20
-674.382363
 10
527.932426
 20
-674.406383
 10
527.841659
 20
-674.433603
 10
527.750944
 20
-674.464221
 10
527.660574
 20
-674.498439
 10
527.570843
 20
-674.536457
 10
527.482021
 20
-674.578414
 10
527.394284
 20
-674.624218
 10
527.307786
 20
-674.673714
 10
527.22268
 20
-674.72675
 10
527.139119
 20
-674.783171
 10
527.057257
 20
-674.842825
 10
526.977248
 20
-674.905559
 10
526.899244
 20
-674.971218
 10
526.8234
 20
-675.039651
 10
526.749868
 20
-675.110703
 10
526.678802
 20
-675.184221
 10
526.610356
 20
-675.260053
 10
526.544682
 20
-675.338043
 10
526.481934
 20
-675.418041
 10
526.422267
 20
-675.49989
 10
526.365832
 20
-675.58344
 10
526.312784
 20
-675.668536
 10
526.263276
 20
-675.755026
 10
526.217461
 20
-675.842756
 10
526.175492
 20
-675.931571
 10
526.137465
 20
-676.021297
 10
526.103237
 20
-676.111663
 10
526.072611
 20
-676.202375
 10
526.045383
 20
-676.293141
 10
526.021357
 20
-676.383667
 10
526.000329
 20
-676.47366
 10
525.982102
 20
-676.562827
 10
525.966475
 20
-676.650875
 10
525.953248
 20
-676.737508
 10
525.94222
 20
-676.822436
 10
525.933193
 20
-676.905365
 10
525.925966
 20
-676.986001
 10
525.920338
 20
-677.064052
 10
525.91611
 20
-677.139223
 10
525.913081
 20
-677.211221
 10
525.911053
 20
-677.279753
 10
525.909824
 20
-677.344527
 10
525.909195
 20
-677.405249
 10
525.908966
 20
-677.461625
 10
525.908961
 20
-677.842164
  0
LWPOLYLINE
  5
4A
330
1F
100
AcDbEntity
  8
0
100
AcDbPolyline
 90
      264
 70
   128
 43
0.0
 10
560.368906
 20
-675.549834
 10
560.368917
 20
-675.878727
 10
560.368952
 20
-675.930478
 10
560.369187
 20
-675.98687
 10
560.369822
 20
-676.047609
 10
560.371056
 20
-676.1124
 10
560.373092
 20
-676.180952
 10
560.376127
 20
-676.252969
 10
560.380361
 20
-676.328161
 10
560.385994
 20
-676.406231
 10
560.393228
 20
-676.486888
 10
560.40226
 20
-676.569839
 10
560.413292
 20
-676.654789
 10
560.426524
 20
-676.741444
 10
560.442154
 20
-676.829513
 10
560.460383
 20
-676.918701
 10
560.481411
 20
-677.008715
 10
560.505438
 20
-677.099262
 10
560.532663
 20
-677.190048
 10
560.563289
 20
-677.280781
 10
560.597511
 20
-677.371165
 10
560.635532
 20
-677.460909
 10
560.677494
 20
-677.549742
 10
560.7233
 20
-677.637487
 10
560.772799
 20
-677.723992
 10
560.825836
 20
-677.809102
 10
560.882258
 20
-677.892666
 10
560.941912
 20
-677.97453
 10
561.004646
 20
-678.054539
 10
561.070306
 20
-678.132542
 10
561.138738
 20
-678.208384
 10
561.209788
 20
-678.281913
 10
561.283306
 20
-678.352976
 10
561.359136
 20
-678.421419
 10
561.437125
 20
-678.487089
 10
561.517121
 20
-678.549832
 10
561.598971
 20
-678.609497
 10
561.682519
 20
-678.665928
 10
561.767615
 20
-678.718973
 10
561.854103
 20
-678.768479
 10
561.941832
 20
-678.814293
 10
562.030647
 20
-678.85626
 10
562.120374
 20
-678.894289
 10
562.21074
 20
-678.928517
 10
562.301453
 20
-678.959147
 10
562.39222
 20
-678.986377
 10
562.482748
 20
-679.010408
 10
562.572743
 20
-679.031441
 10
562.661911
 20
-679.049674
 10
562.749961
 20
-679.065307
 10
562.836597
 20
-679.078541
 10
562.921527
 20
-679.089576
 10
563.004459
 20
-679.09861
 10
563.085097
 20
-679.105846
 10
563.16315
 20
-679.111481
 10
563.238324
 20
-679.115717
 10
563.310325
 20
-679.118753
 10
563.37886
 20
-679.120789
 10
563.443636
 20
-679.122025
 10
563.50436
 20
-679.122661
 10
563.560738
 20
-679.122897
 10
563.612478
 20
-679.122933
 10
563.659417
 20
-679.122935
 10
563.701915
 20
-679.122938
 10
563.740469
 20
-679.122939
 10
563.77557
 20
-679.12294
 10
563.807711
 20
-679.122942
 10
563.837387
 20
-679.122944
 10
563.865089
 20
-679.122945
 10
563.891313
 20
-679.122946
 10
563.916549
 20
-679.122947
 10
563.941292
 20
-679.122948
 10
563.966036
 20
-679.122949
 10
563.991272
 20
-679.122951
 10
564.017495
 20
-679.122952
 10
564.045198
 20
-679.122953
 10
564.074873
 20
-679.122954
 10
564.107015
 20
-679.122956
 10
564.142116
 20
-679.122957
 10
564.18067
 20
-679.122959
 10
564.223169
 20
-679.122962
 10
564.270107
 20
-679.122964
 10
564.321847
 20
-679.122932
 10
564.378225
 20
-679.122703
 10
564.438949
 20
-679.122072
 10
564.503725
 20
-679.120842
 10
564.572261
 20
-679.118813
 10
564.644262
 20
-679.115784
 10
564.719437
 20
-679.111555
 10
564.79749
 20
-679.105927
 10
564.87813
 20
-679.0987
 10
564.961063
 20
-679.089673
 10
565.045994
 20
-679.078647
 10
565.132633
 20
-679.065422
 10
565.220684
 20
-679.049798
 10
565.309855
 20
-679.031574
 10
565.399854
 20
-679.010551
 10
565.490385
 20
-678.98653
 10
565.581156
 20
-678.959309
 10
565.671873
 20
-678.928689
 10
565.762245
 20
-678.89447
 10
565.851976
 20
-678.856454
 10
565.940798
 20
-678.814496
 10
566.028533
 20
-678.768693
 10
566.115029
 20
-678.719197
 10
566.200132
 20
-678.666163
 10
566.283689
 20
-678.609743
 10
566.365546
 20
-678.550089
 10
566.445551
 20
-678.487356
 10
566.523549
 20
-678.421698
 10
566.599389
 20
-678.353265
 10
566.672916
 20
-678.282214
 10
566.743977
 20
-678.208695
 10
566.812419
 20
-678.132863
 10
566.878088
 20
-678.054871
 10
566.940832
 20
-677.974873
 10
567.000497
 20
-677.89302
 10
567.05693
 20
-677.809466
 10
567.109978
 20
-677.724366
 10
567.159486
 20
-677.637871
 10
567.205303
 20
-677.550136
 10
567.247275
 20
-677.461312
 10
567.285307
 20
-677.371578
 10
567.31954
 20
-677.281203
 10
567.350174
 20
-677.19048
 10
567.37741
 20
-677.099703
 10
567.401447
 20
-677.009165
 10
567.422485
 20
-676.919159
 10
567.440723
 20
-676.829979
 10
567.456362
 20
-676.741918
 10
567.469602
 20
-676.65527
 10
567.480642
 20
-676.570328
 10
567.489683
 20
-676.487385
 10
567.496924
 20
-676.406735
 10
567.502566
 20
-676.32867
 10
567.506807
 20
-676.253485
 10
567.509848
 20
-676.181473
 10
567.51189
 20
-676.112927
 10
567.513131
 20
-676.048141
 10
567.513771
 20
-675.987407
 10
567.514012
 20
-675.93102
 10
567.514093
 20
-675.550406
 10
567.514174
 20
-675.221656
 10
567.514153
 20
-675.169927
 10
567.513933
 20
-675.11356
 10
567.513315
 20
-675.052847
 10
567.512097
 20
-674.988084
 10
567.510081
 20
-674.91956
 10
567.507065
 20
-674.847572
 10
567.502849
 20
-674.77241
 10
567.497235
 20
-674.69437
 10
567.49002
 20
-674.613743
 10
567.481006
 20
-674.530823
 10
567.469993
 20
-674.445903
 10
567.456778
 20
-674.359276
 10
567.441165
 20
-674.271235
 10
567.42295
 20
-674.182073
 10
567.401936
 20
-674.092084
 10
567.377922
 20
-674.001561
 10
567.350708
 20
-673.910795
 10
567.320092
 20
-673.820081
 10
567.285876
 20
-673.729713
 10
567.24786
 20
-673.639983
 10
567.205902
 20
-673.55116
 10
567.160095
 20
-673.463422
 10
567.110596
 20
-673.376921
 10
567.057556
 20
-673.291813
 10
567.001128
 20
-673.208249
 10
566.941467
 20
-673.126383
 10
566.878725
 20
-673.046368
 10
566.813057
 20
-672.968359
 10
566.744614
 20
-672.892508
 10
566.673551
 20
-672.818968
 10
566.600022
 20
-672.747895
 10
566.52418
 20
-672.679438
 10
566.446177
 20
-672.613755
 10
566.366167
 20
-672.550997
 10
566.284304
 20
-672.491318
 10
566.200742
 20
-672.434872
 10
566.115633
 20
-672.38181
 10
566.029132
 20
-672.332289
 10
565.941389
 20
-672.286459
 10
565.852562
 20
-672.244475
 10
565.762824
 20
-672.206432
 10
565.672447
 20
-672.172188
 10
565.581724
 20
-672.141543
 10
565.490948
 20
-672.114299
 10
565.400411
 20
-672.090253
 10
565.310409
 20
-672.069208
 10
565.221233
 20
-672.050963
 10
565.133177
 20
-672.035316
 10
565.046534
 20
-672.022071
 10
564.961598
 20
-672.011025
 10
564.878661
 20
-672.001978
 10
564.798018
 20
-671.994733
 10
564.719962
 20
-671.989087
 10
564.644784
 20
-671.984842
 10
564.57278
 20
-671.981796
 10
564.504241
 20
-671.979753
 10
564.439461
 20
-671.978508
 10
564.378735
 20
-671.977865
 10
564.322354
 20
-671.977622
 10
563.941785
 20
-671.977527
 10
563.612971
 20
-671.977511
 10
563.561231
 20
-671.977542
 10
563.504853
 20
-671.977772
 10
563.444129
 20
-671.978403
 10
563.379352
 20
-671.979633
 10
563.310816
 20
-671.981663
 10
563.238814
 20
-671.984692
 10
563.16364
 20
-671.988921
 10
563.085586
 20
-671.994551
 10
563.004946
 20
-672.00178
 10
562.922012
 20
-672.010807
 10
562.837079
 20
-672.021836
 10
562.750439
 20
-672.035063
 10
562.662386
 20
-672.050692
 10
562.573213
 20
-672.068918
 10
562.483214
 20
-672.089945
 10
562.39268
 20
-672.113971
 10
562.301906
 20
-672.141197
 10
562.211185
 20
-672.171824
 10
562.120811
 20
-672.206049
 10
562.031076
 20
-672.244074
 10
561.94225
 20
-672.286039
 10
561.854511
 20
-672.331851
 10
561.768009
 20
-672.381356
 10
561.682901
 20
-672.4344
 10
561.59934
 20
-672.490831
 10
561.517477
 20
-672.550494
 10
561.437468
 20
-672.613236
 10
561.359463
 20
-672.678904
 10
561.283618
 20
-672.747346
 10
561.210086
 20
-672.818406
 10
561.139019
 20
-672.891933
 10
561.070572
 20
-672.967772
 10
561.004898
 20
-673.04577
 10
560.942149
 20
-673.125774
 10
560.88248
 20
-673.207631
 10
560.826042
 20
-673.291187
 10
560.772991
 20
-673.376288
 10
560.723479
 20
-673.462781
 10
560.67766
 20
-673.550514
 10
560.635686
 20
-673.639333
 10
560.597652
 20
-673.72906
 10
560.563418
 20
-673.819426
 10
560.532783
 20
-673.910138
 10
560.505547
 20
-674.000903
 10
560.48151
 20
-674.091428
 10
560.460473
 20
-674.181418
 10
560.442236
 20
-674.270581
 10
560.426598
 20
-674.358626
 10
560.413359
 20
-674.445256
 10
560.402321
 20
-674.530179
 10
560.393282
 20
-674.613104
 10
560.386044
 20
-674.693735
 10
560.380404
 20
-674.771781
 10
560.376165
 20
-674.846946
 10
560.373126
 20
-674.918939
 10
560.371088
 20
-674.987468
 10
560.369848
 20
-675.052236
 10
560.369211
 20
-675.112954
 10
560.368972
 20
-675.169325
 10
560.368906
 20
-675.549834
  0
LWPOLYLINE
  5
4B
330
1F
100
AcDbEntity
  8
0
100
AcDbPolyline
 90
      245
 70
   128
 43
0.0
 10
627.894886
 20
-663.804691
 10
627.894818
 20
-664.133479
 10
627.89484
 20
-664.185215
 10
627.895062
 20
-664.241589
 10
627.895683
 20
-664.302308
 10
627.896903
 20
-664.36708
 10
627.898922
 20
-664.43561
 10
627.90194
 20
-664.507607
 10
627.906158
 20
-664.582777
 10
627.911775
 20
-664.660827
 10
627.918991
 20
-664.741463
 10
627.928007
 20
-664.824392
 10
627.939022
 20
-664.909322
 10
627.952237
 20
-664.995958
 10
627.967851
 20
-665.084008
 10
627.986066
 20
-665.17318
 10
628.00708
 20
-665.263178
 10
628.031093
 20
-665.353711
 10
628.058306
 20
-665.444485
 10
628.088919
 20
-665.535207
 10
628.123133
 20
-665.625584
 10
628.161145
 20
-665.715322
 10
628.2031
 20
-665.804153
 10
628.2489
 20
-665.891898
 10
628.298395
 20
-665.978405
 10
628.351429
 20
-666.06352
 10
628.407849
 20
-666.147091
 10
628.467503
 20
-666.228962
 10
628.530237
 20
-666.308982
 10
628.595897
 20
-666.386996
 10
628.664331
 20
-666.46285
 10
628.735385
 20
-666.536393
 10
628.808906
 20
-666.60747
 10
628.88474
 20
-666.675927
 10
628.962733
 20
-666.741612
 10
629.042733
 20
-666.804371
 10
629.124587
 20
-666.864049
 10
629.20814
 20
-666.920497
 10
629.293241
 20
-666.973556
 10
629.379734
 20
-667.023076
 10
629.467467
 20
-667.068902
 10
629.556287
 20
-667.110883
 10
629.646016
 20
-667.148922
 10
629.736386
 20
-667.183161
 10
629.827103
 20
-667.213799
 10
629.917873
 20
-667.241038
 10
630.008402
 20
-667.265076
 10
630.098399
 20
-667.286115
 10
630.18757
 20
-667.304353
 10
630.27562
 20
-667.319991
 10
630.362258
 20
-667.333229
 10
630.44719
 20
-667.344267
 10
630.530122
 20
-667.353304
 10
630.610762
 20
-667.360542
 10
630.688814
 20
-667.366179
 10
630.763989
 20
-667.370416
 10
630.83599
 20
-667.373453
 10
630.904525
 20
-667.37549
 10
630.969302
 20
-667.376726
 10
631.030026
 20
-667.377362
 10
631.086404
 20
-667.377598
 10
631.466958
 20
-667.377649
 10
631.795786
 20
-667.377704
 10
631.847528
 20
-667.37768
 10
631.903908
 20
-667.377455
 10
631.964635
 20
-667.376832
 10
632.029414
 20
-667.375609
 10
632.097953
 20
-667.373587
 10
632.169958
 20
-667.370566
 10
632.245136
 20
-667.366344
 10
632.323194
 20
-667.360724
 10
632.403838
 20
-667.353503
 10
632.486776
 20
-667.344483
 10
632.571713
 20
-667.333464
 10
632.658359
 20
-667.320244
 10
632.746417
 20
-667.304624
 10
632.835595
 20
-667.286405
 10
632.925601
 20
-667.265385
 10
633.016141
 20
-667.241365
 10
633.10692
 20
-667.214145
 10
633.197648
 20
-667.183525
 10
633.28803
 20
-667.149305
 10
633.377773
 20
-667.111284
 10
633.466607
 20
-667.069323
 10
633.554355
 20
-667.023514
 10
633.640864
 20
-666.97401
 10
633.725981
 20
-666.920967
 10
633.809552
 20
-666.864537
 10
633.891423
 20
-666.804873
 10
633.971442
 20
-666.74213
 10
634.049455
 20
-666.676458
 10
634.125309
 20
-666.608014
 10
634.198849
 20
-666.536949
 10
634.269924
 20
-666.463419
 10
634.338379
 20
-666.387574
 10
634.40406
 20
-666.309569
 10
634.466816
 20
-666.229557
 10
634.526493
 20
-666.147692
 10
634.582935
 20
-666.064127
 10
634.635991
 20
-665.979016
 10
634.685507
 20
-665.892511
 10
634.73133
 20
-665.804765
 10
634.773307
 20
-665.715934
 10
634.811341
 20
-665.626192
 10
634.845577
 20
-665.535811
 10
634.876211
 20
-665.445083
 10
634.903446
 20
-665.354301
 10
634.92748
 20
-665.26376
 10
634.948515
 20
-665.173752
 10
634.966749
 20
-665.08457
 10
634.982385
 20
-664.996509
 10
634.995618
 20
-664.90986
 10
635.006652
 20
-664.824919
 10
635.015687
 20
-664.741976
 10
635.022921
 20
-664.661327
 10
635.028555
 20
-664.583264
 10
635.032789
 20
-664.508081
 10
635.035823
 20
-664.436071
 10
635.037857
 20
-664.367528
 10
635.039091
 20
-664.302743
 10
635.039724
 20
-664.242012
 10
635.039958
 20
-664.185627
 10
635.039994
 20
-663.805027
 10
635.04001
 20
-663.476213
 10
635.039978
 20
-663.424474
 10
635.039748
 20
-663.368095
 10
635.039118
 20
-663.307371
 10
635.037888
 20
-663.242594
 10
635.035858
 20
-663.174059
 10
635.032829
 20
-663.102057
 10
635.0286
 20
-663.026883
 10
635.022973
 20
-662.948829
 10
635.015745
 20
-662.86819
 10
635.006719
 20
-662.785258
 10
634.995692
 20
-662.700325
 10
634.982467
 20
-662.613687
 10
634.966843
 20
-662.525636
 10
634.948619
 20
-662.436464
 10
634.927596
 20
-662.346467
 10
634.903575
 20
-662.255936
 10
634.876354
 20
-662.165165
 10
634.845734
 20
-662.074446
 10
634.811516
 20
-661.984076
 10
634.773498
 20
-661.894344
 10
634.731541
 20
-661.805523
 10
634.685738
 20
-661.717787
 10
634.636243
 20
-661.631291
 10
634.583208
 20
-661.546189
 10
634.526788
 20
-661.462632
 10
634.467134
 20
-661.380776
 10
634.4044
 20
-661.300772
 10
634.338741
 20
-661.222774
 10
634.270309
 20
-661.146936
 10
634.199256
 20
-661.073411
 10
634.125736
 20
-661.002352
 10
634.049903
 20
-660.933913
 10
633.971909
 20
-660.868247
 10
633.891909
 20
-660.805506
 10
633.810054
 20
-660.745844
 10
633.726498
 20
-660.689416
 10
633.641396
 20
-660.636374
 10
633.554898
 20
-660.586871
 10
633.467158
 20
-660.541061
 10
633.378332
 20
-660.499097
 10
633.288594
 20
-660.461073
 10
633.198214
 20
-660.426849
 10
633.107487
 20
-660.396224
 10
633.016704
 20
-660.368999
 10
632.926161
 20
-660.344973
 10
632.836149
 20
-660.323946
 10
632.746964
 20
-660.305719
 10
632.658897
 20
-660.290092
 10
632.572243
 20
-660.276863
 10
632.487295
 20
-660.265835
 10
632.404346
 20
-660.256805
 10
632.323691
 20
-660.249576
 10
632.24562
 20
-660.243946
 10
632.17043
 20
-660.239716
 10
632.098412
 20
-660.236686
 10
632.029861
 20
-660.234655
 10
631.96507
 20
-660.233424
 10
631.904332
 20
-660.232793
 10
631.847939
 20
-660.232562
 10
631.467295
 20
-660.232542
 10
631.13852
 20
-660.232512
 10
631.086787
 20
-660.232541
 10
631.030415
 20
-660.23277
 10
630.969698
 20
-660.233397
 10
630.904929
 20
-660.234625
 10
630.836401
 20
-660.236652
 10
630.764407
 20
-660.239679
 10
630.689241
 20
-660.243904
 10
630.611195
 20
-660.249529
 10
630.530563
 20
-660.256754
 10
630.447638
 20
-660.265778
 10
630.362713
 20
-660.276802
 10
630.276081
 20
-660.290025
 10
630.188036
 20
-660.305648
 10
630.09887
 20
-660.323869
 10
630.008878
 20
-660.34489
 10
629.918351
 20
-660.36891
 10
629.827584
 20
-660.39613
 10
629.736869
 20
-660.426748
 10
629.646499
 20
-660.460966
 10
629.556768
 20
-660.498984
 10
629.467946
 20
-660.540941
 10
629.380209
 20
-660.586745
 10
629.293711
 20
-660.63624
 10
629.208605
 20
-660.689277
 10
629.125044
 20
-660.745698
 10
629.043182
 20
-660.805352
 10
628.963173
 20
-660.868086
 10
628.885169
 20
-660.933745
 10
628.809325
 20
-661.002178
 10
628.735793
 20
-661.07323
 10
628.664727
 20
-661.146748
 10
628.596281
 20
-661.22258
 10
628.530607
 20
-661.30057
 10
628.467859
 20
-661.380568
 10
628.408192
 20
-661.462417
 10
628.351758
 20
-661.545967
 10
628.298709
 20
-661.631063
 10
628.249201
 20
-661.717553
 10
628.203386
 20
-661.805283
 10
628.161417
 20
-661.894098
 10
628.12339
 20
-661.983824
 10
628.089162
 20
-662.07419
 10
628.058536
 20
-662.164902
 10
628.031308
 20
-662.255668
 10
628.007282
 20
-662.346194
 10
627.986254
 20
-662.436187
 10
627.968027
 20
-662.525354
 10
627.9524
 20
-662.613401
 10
627.939173
 20
-662.700035
 10
627.928145
 20
-662.784963
 10
627.919118
 20
-662.867892
 10
627.911891
 20
-662.948528
 10
627.906263
 20
-663.026579
 10
627.902035
 20
-663.101749
 10
627.899006
 20
-663.173748
 10
627.896978
 20
-663.24228
 10
627.895749
 20
-663.307054
 10
627.89512
 20
-663.367776
 10
627.894891
 20
-663.424151
 10
627.894886
 20
-663.804691
  0
LWPOLYLINE
  5
4C
330
1F
100
AcDbEntity
  8
0
100
AcDbPolyline
 90
      264
 70
   128
 43
0.0
 10
340.561614
 20
-715.503097
 10
340.561625
 20
-715.83199
 10
340.56166
 20
-715.883742
 10
340.561894
 20
-715.940134
 10
340.562529
 20
-716.000872
 10
340.563764
 20
-716.065663
 10
340.565799
 20
-716.134215
 10
340.568834
 20
-716.206233
 10
340.573068
 20
-716.281424
 10
340.578702
 20
-716.359495
 10
340.585936
 20
-716.440152
 10
340.594967
 20
-716.523102
 10
340.606
 20
-716.608052
 10
340.619231
 20
-716.694707
 10
340.634861
 20
-716.782776
 10
340.653091
 20
-716.871964
 10
340.674119
 20
-716.961978
 10
340.698146
 20
-717.052526
 10
340.725371
 20
-717.143311
 10
340.755996
 20
-717.234044
 10
340.790218
 20
-717.324428
 10
340.82824
 20
-717.414173
 10
340.870201
 20
-717.503006
 10
340.916008
 20
-717.590751
 10
340.965506
 20
-717.677255
 10
341.018543
 20
-717.762366
 10
341.074966
 20
-717.845929
 10
341.13462
 20
-717.927793
 10
341.197354
 20
-718.007802
 10
341.263013
 20
-718.085805
 10
341.331445
 20
-718.161648
 10
341.402496
 20
-718.235177
 10
341.476014
 20
-718.30624
 10
341.551844
 20
-718.374683
 10
341.629833
 20
-718.440353
 10
341.709828
 20
-718.503096
 10
341.791678
 20
-718.56276
 10
341.875227
 20
-718.619191
 10
341.960322
 20
-718.672236
 10
342.04681
 20
-718.721742
 10
342.13454
 20
-718.767556
 10
342.223355
 20
-718.809524
 10
342.313081
 20
-718.847552
 10
342.403447
 20
-718.88178
 10
342.494161
 20
-718.91241
 10
342.584928
 20
-718.93964
 10
342.675455
 20
-718.963672
 10
342.76545
 20
-718.984704
 10
342.854619
 20
-719.002937
 10
342.942668
 20
-719.018571
 10
343.029304
 20
-719.031804
 10
343.114235
 20
-719.042839
 10
343.197166
 20
-719.051874
 10
343.277805
 20
-719.059109
 10
343.355857
 20
-719.064745
 10
343.431031
 20
-719.06898
 10
343.503032
 20
-719.072016
 10
343.571567
 20
-719.074052
 10
343.636344
 20
-719.075289
 10
343.697067
 20
-719.075924
 10
343.753446
 20
-719.076161
 10
343.805185
 20
-719.076197
 10
343.852124
 20
-719.076198
 10
343.894623
 20
-719.076201
 10
343.933176
 20
-719.076203
 10
343.968278
 20
-719.076204
 10
344.000419
 20
-719.076206
 10
344.030094
 20
-719.076207
 10
344.057797
 20
-719.076208
 10
344.08402
 20
-719.07621
 10
344.109257
 20
-719.076211
 10
344.134
 20
-719.076211
 10
344.158743
 20
-719.076213
 10
344.18398
 20
-719.076214
 10
344.210203
 20
-719.076215
 10
344.237905
 20
-719.076216
 10
344.267581
 20
-719.076218
 10
344.299722
 20
-719.076219
 10
344.334824
 20
-719.076221
 10
344.373377
 20
-719.076223
 10
344.415877
 20
-719.076225
 10
344.462814
 20
-719.076227
 10
344.514554
 20
-719.076196
 10
344.570932
 20
-719.075966
 10
344.631656
 20
-719.075335
 10
344.696433
 20
-719.074105
 10
344.764968
 20
-719.072076
 10
344.83697
 20
-719.069047
 10
344.912144
 20
-719.064818
 10
344.990198
 20
-719.05919
 10
345.070838
 20
-719.051963
 10
345.15377
 20
-719.042936
 10
345.238702
 20
-719.031911
 10
345.32534
 20
-719.018685
 10
345.413391
 20
-719.003061
 10
345.502563
 20
-718.984838
 10
345.592561
 20
-718.963815
 10
345.683092
 20
-718.939793
 10
345.773863
 20
-718.912572
 10
345.864581
 20
-718.881953
 10
345.954952
 20
-718.847734
 10
346.044683
 20
-718.809717
 10
346.133505
 20
-718.767759
 10
346.22124
 20
-718.721956
 10
346.307737
 20
-718.67246
 10
346.39284
 20
-718.619426
 10
346.476396
 20
-718.563006
 10
346.558254
 20
-718.503353
 10
346.638258
 20
-718.44062
 10
346.716257
 20
-718.374961
 10
346.792096
 20
-718.306528
 10
346.865623
 20
-718.235477
 10
346.936684
 20
-718.161958
 10
347.005126
 20
-718.086127
 10
347.070796
 20
-718.008135
 10
347.133539
 20
-717.928136
 10
347.193205
 20
-717.846283
 10
347.249638
 20
-717.76273
 10
347.302685
 20
-717.677629
 10
347.352194
 20
-717.591134
 10
347.398011
 20
-717.503399
 10
347.439982
 20
-717.414575
 10
347.478015
 20
-717.324841
 10
347.512248
 20
-717.234466
 10
347.542882
 20
-717.143744
 10
347.570118
 20
-717.052966
 10
347.594155
 20
-716.962429
 10
347.615193
 20
-716.872422
 10
347.633431
 20
-716.783243
 10
347.64907
 20
-716.695181
 10
347.66231
 20
-716.608534
 10
347.67335
 20
-716.523591
 10
347.68239
 20
-716.440648
 10
347.689632
 20
-716.359998
 10
347.695273
 20
-716.281934
 10
347.699514
 20
-716.206749
 10
347.702555
 20
-716.134737
 10
347.704597
 20
-716.066191
 10
347.705838
 20
-716.001404
 10
347.706478
 20
-715.940671
 10
347.70672
 20
-715.884283
 10
347.706801
 20
-715.503669
 10
347.706882
 20
-715.174919
 10
347.706861
 20
-715.12319
 10
347.706641
 20
-715.066824
 10
347.706023
 20
-715.00611
 10
347.704805
 20
-714.941347
 10
347.702789
 20
-714.872824
 10
347.699772
 20
-714.800835
 10
347.695557
 20
-714.725674
 10
347.689943
 20
-714.647633
 10
347.682728
 20
-714.567006
 10
347.673714
 20
-714.484086
 10
347.6627
 20
-714.399166
 10
347.649486
 20
-714.312539
 10
347.633872
 20
-714.224498
 10
347.615658
 20
-714.135336
 10
347.594644
 20
-714.045347
 10
347.570629
 20
-713.954824
 10
347.543415
 20
-713.864058
 10
347.5128
 20
-713.773345
 10
347.478584
 20
-713.682976
 10
347.440568
 20
-713.593246
 10
347.398609
 20
-713.504423
 10
347.352803
 20
-713.416685
 10
347.303303
 20
-713.330185
 10
347.250263
 20
-713.245076
 10
347.193836
 20
-713.161512
 10
347.134175
 20
-713.079646
 10
347.071433
 20
-712.999631
 10
347.005764
 20
-712.921622
 10
346.937322
 20
-712.845771
 10
346.866259
 20
-712.772232
 10
346.79273
 20
-712.701158
 10
346.716887
 20
-712.632702
 10
346.638884
 20
-712.567019
 10
346.558875
 20
-712.504261
 10
346.477012
 20
-712.444581
 10
346.393449
 20
-712.388135
 10
346.308341
 20
-712.335074
 10
346.221839
 20
-712.285552
 10
346.134097
 20
-712.239722
 10
346.04527
 20
-712.197738
 10
345.955531
 20
-712.159695
 10
345.865155
 20
-712.125451
 10
345.774432
 20
-712.094807
 10
345.683655
 20
-712.067562
 10
345.593119
 20
-712.043517
 10
345.503117
 20
-712.022471
 10
345.41394
 20
-712.004226
 10
345.325885
 20
-711.98858
 10
345.239242
 20
-711.975334
 10
345.154306
 20
-711.964288
 10
345.071369
 20
-711.955242
 10
344.990726
 20
-711.947996
 10
344.912669
 20
-711.942351
 10
344.837491
 20
-711.938105
 10
344.765487
 20
-711.93506
 10
344.696948
 20
-711.933016
 10
344.632169
 20
-711.931772
 10
344.571442
 20
-711.931129
 10
344.515062
 20
-711.930886
 10
344.134493
 20
-711.93079
 10
343.805679
 20
-711.930774
 10
343.753939
 20
-711.930805
 10
343.697561
 20
-711.931035
 10
343.636837
 20
-711.931666
 10
343.572059
 20
-711.932896
 10
343.503524
 20
-711.934926
 10
343.431522
 20
-711.937955
 10
343.356348
 20
-711.942185
 10
343.278293
 20
-711.947814
 10
343.197653
 20
-711.955043
 10
343.11472
 20
-711.964071
 10
343.029787
 20
-711.975099
 10
342.943146
 20
-711.988327
 10
342.855093
 20
-712.003955
 10
342.765921
 20
-712.022181
 10
342.675921
 20
-712.043208
 10
342.585387
 20
-712.067235
 10
342.494614
 20
-712.094461
 10
342.403893
 20
-712.125087
 10
342.313519
 20
-712.159312
 10
342.223783
 20
-712.197337
 10
342.134957
 20
-712.239303
 10
342.047218
 20
-712.285115
 10
341.960717
 20
-712.33462
 10
341.875609
 20
-712.387664
 10
341.792047
 20
-712.444094
 10
341.710185
 20
-712.503757
 10
341.630175
 20
-712.566499
 10
341.55217
 20
-712.632168
 10
341.476326
 20
-712.700609
 10
341.402794
 20
-712.771669
 10
341.331727
 20
-712.845196
 10
341.26328
 20
-712.921035
 10
341.197606
 20
-712.999033
 10
341.134857
 20
-713.079038
 10
341.075187
 20
-713.160894
 10
341.01875
 20
-713.24445
 10
340.965699
 20
-713.329551
 10
340.916186
 20
-713.416044
 10
340.870367
 20
-713.503778
 10
340.828394
 20
-713.592596
 10
340.790359
 20
-713.682323
 10
340.756126
 20
-713.772689
 10
340.72549
 20
-713.863401
 10
340.698255
 20
-713.954167
 10
340.674217
 20
-714.044691
 10
340.653181
 20
-714.134681
 10
340.634944
 20
-714.223845
 10
340.619306
 20
-714.311889
 10
340.606067
 20
-714.398519
 10
340.595029
 20
-714.483442
 10
340.58599
 20
-714.566367
 10
340.578751
 20
-714.646998
 10
340.573112
 20
-714.725044
 10
340.568873
 20
-714.80021
 10
340.565834
 20
-714.872203
 10
340.563795
 20
-714.940731
 10
340.562556
 20
-715.005499
 10
340.561918
 20
-715.066217
 10
340.56168
 20
-715.122589
 10
340.561614
 20
-715.503097
  0
LWPOLYLINE
  5
4D
330
1F
100
AcDbEntity
  8
0
100
AcDbPolyline
 90
      245
 70
   128
 43
0.0
 10
445.978586
 20
-863.803782
 10
445.769631
 20
-863.599449
 10
445.736772
 20
-863.567276
 10
445.70109
 20
-863.532093
 10
445.662895
 20
-863.493955
 10
445.622497
 20
-863.452917
 10
445.580208
 20
-863.409034
 10
445.536337
 20
-863.362362
 10
445.491197
 20
-863.312956
 10
445.445096
 20
-863.26087
 10
445.398346
 20
-863.206159
 10
445.351258
 20
-863.148879
 10
445.304142
 20
-863.089086
 10
445.257309
 20
-863.026832
 10
445.211069
 20
-862.962175
 10
445.165734
 20
-862.895169
 10
445.121613
 20
-862.825869
 10
445.079018
 20
-862.754331
 10
445.038259
 20
-862.680608
 10
444.999647
 20
-862.604757
 10
444.963492
 20
-862.526832
 10
444.930105
 20
-862.446889
 10
444.899745
 20
-862.365005
 10
444.872466
 20
-862.281351
 10
444.84827
 20
-862.196119
 10
444.827159
 20
-862.109502
 10
444.809135
 20
-862.021694
 10
444.7942
 20
-861.932886
 10
444.782357
 20
-861.843273
 10
444.773606
 20
-861.753046
 10
444.767951
 20
-861.6624
 10
444.765393
 20
-861.571525
 10
444.765934
 20
-861.480617
 10
444.769578
 20
-861.389867
 10
444.776324
 20
-861.299468
 10
444.786177
 20
-861.209614
 10
444.799137
 20
-861.120497
 10
444.815207
 20
-861.032309
 10
444.834389
 20
-860.945245
 10
444.856684
 20
-860.859497
 10
444.882096
 20
-860.775257
 10
444.910626
 20
-860.692719
 10
444.942225
 20
-860.612054
 10
444.976634
 20
-860.533346
 10
445.013545
 20
-860.456655
 10
445.052648
 20
-860.382046
 10
445.093635
 20
-860.309579
 10
445.136196
 20
-860.239316
 10
445.180021
 20
-860.171319
 10
445.224802
 20
-860.105651
 10
445.270229
 20
-860.042373
 10
445.315994
 20
-859.981547
 10
445.361786
 20
-859.923236
 10
445.407297
 20
-859.867501
 10
445.452217
 20
-859.814404
 10
445.496237
 20
-859.764007
 10
445.539048
 20
-859.716372
 10
445.58034
 20
-859.671561
 10
445.619805
 20
-859.629636
 10
445.657133
 20
-859.590659
 10
445.692015
 20
-859.554692
 10
445.928448
 20
-859.312873
 10
446.132781
 20
-859.103918
 10
446.164954
 20
-859.07106
 10
446.200137
 20
-859.035377
 10
446.238275
 20
-858.997182
 10
446.279312
 20
-858.956784
 10
446.323194
 20
-858.914494
 10
446.369866
 20
-858.870623
 10
446.419271
 20
-858.825482
 10
446.471356
 20
-858.77938
 10
446.526065
 20
-858.732629
 10
446.583342
 20
-858.685539
 10
446.643134
 20
-858.638421
 10
446.705384
 20
-858.591585
 10
446.770037
 20
-858.545342
 10
446.837039
 20
-858.500003
 10
446.906334
 20
-858.455878
 10
446.977867
 20
-858.413278
 10
447.051584
 20
-858.372513
 10
447.127428
 20
-858.333894
 10
447.205344
 20
-858.297732
 10
447.285279
 20
-858.264338
 10
447.367153
 20
-858.23397
 10
447.450796
 20
-858.206681
 10
447.536017
 20
-858.182476
 10
447.622622
 20
-858.161354
 10
447.710418
 20
-858.143319
 10
447.799213
 20
-858.128373
 10
447.888813
 20
-858.116518
 10
447.979027
 20
-858.107756
 10
448.069661
 20
-858.102089
 10
448.160522
 20
-858.09952
 10
448.251418
 20
-858.10005
 10
448.342155
 20
-858.103683
 10
448.432542
 20
-858.110419
 10
448.522385
 20
-858.120262
 10
448.611492
 20
-858.133212
 10
448.699669
 20
-858.149274
 10
448.786725
 20
-858.168448
 10
448.872465
 20
-858.190737
 10
448.956698
 20
-858.216143
 10
449.039231
 20
-858.244668
 10
449.119892
 20
-858.276263
 10
449.198598
 20
-858.31067
 10
449.275287
 20
-858.34758
 10
449.349896
 20
-858.386683
 10
449.422364
 20
-858.42767
 10
449.492628
 20
-858.470232
 10
449.560627
 20
-858.51406
 10
449.626299
 20
-858.558844
 10
449.68958
 20
-858.604274
 10
449.75041
 20
-858.650043
 10
449.808727
 20
-858.695839
 10
449.864467
 20
-858.741354
 10
449.91757
 20
-858.786279
 10
449.967973
 20
-858.830304
 10
450.015613
 20
-858.87312
 10
450.06043
 20
-858.914418
 10
450.102361
 20
-858.953888
 10
450.141343
 20
-858.991221
 10
450.177316
 20
-859.026107
 10
450.41917
 20
-859.262571
 10
450.628156
 20
-859.466932
 10
450.661019
 20
-859.499109
 10
450.696707
 20
-859.534297
 10
450.734908
 20
-859.57244
 10
450.775312
 20
-859.613483
 10
450.817607
 20
-859.657371
 10
450.861484
 20
-859.704049
 10
450.906632
 20
-859.753461
 10
450.952739
 20
-859.805554
 10
450.999496
 20
-859.86027
 10
451.046591
 20
-859.917556
 10
451.093714
 20
-859.977356
 10
451.140554
 20
-860.039615
 10
451.1868
 20
-860.104278
 10
451.232142
 20
-860.17129
 10
451.27627
 20
-860.240596
 10
451.318871
 20
-860.31214
 10
451.359636
 20
-860.385868
 10
451.398254
 20
-860.461724
 10
451.434415
 20
-860.539654
 10
451.467806
 20
-860.619601
 10
451.49817
 20
-860.701489
 10
451.525453
 20
-860.785147
 10
451.549653
 20
-860.870381
 10
451.570767
 20
-860.957001
 10
451.588794
 20
-861.044811
 10
451.603732
 20
-861.133621
 10
451.615578
 20
-861.223235
 10
451.624331
 20
-861.313463
 10
451.629989
 20
-861.40411
 10
451.632549
 20
-861.494984
 10
451.632009
 20
-861.585893
 10
451.628369
 20
-861.676642
 10
451.621624
 20
-861.767039
 10
451.611774
 20
-861.856892
 10
451.598816
 20
-861.946007
 10
451.582749
 20
-862.034192
 10
451.56357
 20
-862.121253
 10
451.541278
 20
-862.206998
 10
451.515869
 20
-862.291233
 10
451.487343
 20
-862.373767
 10
451.455749
 20
-862.454427
 10
451.421345
 20
-862.53313
 10
451.384439
 20
-862.609815
 10
451.34534
 20
-862.684418
 10
451.304359
 20
-862.756879
 10
451.261804
 20
-862.827136
 10
451.217985
 20
-862.895126
 10
451.17321
 20
-862.960787
 10
451.127788
 20
-863.024058
 10
451.08203
 20
-863.084877
 10
451.036244
 20
-863.143181
 10
450.99074
 20
-863.198909
 10
450.945826
 20
-863.252
 10
450.901811
 20
-863.30239
 10
450.859006
 20
-863.350018
 10
450.817719
 20
-863.394823
 10
450.778259
 20
-863.436742
 10
450.740936
 20
-863.475713
 10
450.706059
 20
-863.511675
 10
450.469658
 20
-863.753458
 10
450.265267
 20
-863.962416
 10
450.233084
 20
-863.995275
 10
450.197891
 20
-864.030958
 10
450.159743
 20
-864.069155
 10
450.118694
 20
-864.109553
 10
450.074801
 20
-864.151844
 10
450.028117
 20
-864.195716
 10
449.9787
 20
-864.240859
 10
449.926603
 20
-864.286962
 10
449.871882
 20
-864.333715
 10
449.814592
 20
-864.380807
 10
449.754789
 20
-864.427927
 10
449.692528
 20
-864.474765
 10
449.627863
 20
-864.52101
 10
449.560851
 20
-864.566352
 10
449.491546
 20
-864.61048
 10
449.420004
 20
-864.653083
 10
449.346279
 20
-864.693852
 10
449.270428
 20
-864.732474
 10
449.192506
 20
-864.76864
 10
449.112566
 20
-864.802039
 10
449.030689
 20
-864.832412
 10
448.947043
 20
-864.859706
 10
448.861821
 20
-864.883917
 10
448.775216
 20
-864.905044
 10
448.687421
 20
-864.923084
 10
448.598628
 20
-864.938036
 10
448.50903
 20
-864.949897
 10
448.418819
 20
-864.958665
 10
448.328188
 20
-864.964337
 10
448.237331
 20
-864.966911
 10
448.146439
 20
-864.966386
 10
448.055705
 20
-864.962759
 10
447.965322
 20
-864.956027
 10
447.875482
 20
-864.946188
 10
447.786379
 20
-864.933241
 10
447.698204
 20
-864.917183
 10
447.611152
 20
-864.898011
 10
447.525413
 20
-864.875724
 10
447.441181
 20
-864.850319
 10
447.358649
 20
-864.821794
 10
447.277988
 20
-864.790199
 10
447.19928
 20
-864.755791
 10
447.12259
 20
-864.71888
 10
447.047977
 20
-864.679774
 10
446.975506
 20
-864.638783
 10
446.905237
 20
-864.596218
 10
446.837234
 20
-864.552386
 10
446.771557
 20
-864.507598
 10
446.70827
 20
-864.462163
 10
446.647435
 20
-864.416389
 10
446.589112
 20
-864.370588
 10
446.533366
 20
-864.325067
 10
446.480257
 20
-864.280137
 10
446.429848
 20
-864.236106
 10
446.382201
 20
-864.193285
 10
446.337378
 20
-864.151982
 10
446.295442
 20
-864.112507
 10
446.256454
 20
-864.075169
 10
446.220476
 20
-864.040278
 10
445.978586
 20
-863.803782
  0
ENDSEC
  0
SECTION
  2
OBJECTS
  0
DICTIONARY
  5
C
330
0
100
AcDbDictionary
281
     1
  3
ACAD_GROUP
350
D
  3
ACAD_LAYOUT
350
1A
  3
ACAD_MLINESTYLE
350
17
  3
ACAD_PLOTSETTINGS
350
19
  3
ACAD_PLOTSTYLENAME
350
E
  0
DICTIONARY
  5
D
102
{ACAD_REACTORS
330
C
102
}
330
C
100
AcDbDictionary
281
     1
  0
DICTIONARY
  5
1A
102
{ACAD_REACTORS
330
C
102
}
330
C
100
AcDbDictionary
281
     1
  3
Layout1
350
1E
  3
Layout2
350
26
  3
Model
350
22
  0
DICTIONARY
  5
17
102
{ACAD_REACTORS
330
C
102
}
330
C
100
AcDbDictionary
281
     1
  3
Standard
350
18
  0
DICTIONARY
  5
19
102
{ACAD_REACTORS
330
C
102
}
330
C
100
AcDbDictionary
281
     1
  0
ACDBDICTIONARYWDFLT
  5
E
102
{ACAD_REACTORS
330
C
102
}
330
C
100
AcDbDictionary
281
     1
  3
Normal
350
F
100
AcDbDictionaryWithDefault
340
F
  0
LAYOUT
  5
1E
102
{ACAD_REACTORS
330
1A
102
}
330
1A
100
AcDbPlotSettings
  1

  2

  4

  6

 40
0.0
 41
0.0
 42
0.0
 43
0.0
 44
0.0
 45
0.0
 46
0.0
 47
0.0
 48
0.0
 49
0.0
140
0.0
141
0.0
142
1.0
143
1.0
 70
   688
 72
     0
 73
     0
 74
     5
  7

 75
    16
147
1.0
148
0.0
149
0.0
100
AcDbLayout
  1
Layout1
 70
     1
 71
     1
 10
0.0
 20
0.0
 11
420.0
 21
297.0
 12
0.0
 22
0.0
 32
0.0
 14
1.000000E+20
 24
1.000000E+20
 34
1.000000E+20
 15
-1.000000E+20
 25
-1.000000E+20
 35
-1.000000E+20
146
0.0
 13
0.0
 23
0.0
 33
0.0
 16
1.0
 26
0.0
 36
0.0
 17
0.0
 27
1.0
 37
0.0
 76
     0
330
1B
  0
LAYOUT
  5
26
102
{ACAD_REACTORS
330
1A
102
}
330
1A
100
AcDbPlotSettings
  1

  2

  4

  6

 40
0.0
 41
0.0
 42
0.0
 43
0.0
 44
0.0
 45
0.0
 46
0.0
 47
0.0
 48
0.0
 49
0.0
140
0.0
141
0.0
142
1.0
143
1.0
 70
   688
 72
     0
 73
     0
 74
     5
  7

 75
    16
147
1.0
148
0.0
149
0.0
100
AcDbLayout
  1
Layout2
 70
     1
 71
     2
 10
0.0
 20
0.0
 11
0.0
 21
0.0
 12
0.0
 22
0.0
 32
0.0
 14
0.0
 24
0.0
 34
0.0
 15
0.0
 25
0.0
 35
0.0
146
0.0
 13
0.0
 23
0.0
 33
0.0
 16
1.0
 26
0.0
 36
0.0
 17
0.0
 27
1.0
 37
0.0
 76
     0
330
23
  0
LAYOUT
  5
22
102
{ACAD_REACTORS
330
1A
102
}
330
1A
100
AcDbPlotSettings
  1

  2

  4

  6

 40
0.0
 41
0.0
 42
0.0
 43
0.0
 44
0.0
 45
0.0
 46
0.0
 47
0.0
 48
0.0
 49
0.0
140
0.0
141
0.0
142
1.0
143
1.0
 70
  1712
 72
     0
 73
     0
 74
     0
  7

 75
     0
147
1.0
148
0.0
149
0.0
100
AcDbLayout
  1
Model
 70
     1
 71
     0
 10
0.0
 20
0.0
 11
0.0
 21
0.0
 12
0.0
 22
0.0
 32
0.0
 14
0.0
 24
0.0
 34
0.0
 15
0.0
 25
0.0
 35
0.0
146
0.0
 13
0.0
 23
0.0
 33
0.0
 16
1.0
 26
0.0
 36
0.0
 17
0.0
 27
1.0
 37
0.0
 76
     0
330
1F
  0
MLINESTYLE
  5
18
102
{ACAD_REACTORS
330
17
102
}
330
17
100
AcDbMlineStyle
  2
Standard
 70
     0
  3

 62
   256
 51
90.0
 52
90.0
 71
     2
 49
1.0
 62
   256
  6
BYLAYER
 49
-1.0
 62
   256
  6
BYLAYER
  0
ACDBPLACEHOLDER
  5
F
102
{ACAD_REACTORS
330
E
102
}
330
E
  0
ENDSEC
  0
EOF
