  0
SECTION
  2
HEADER
  9
$ACADVER
  1
AC1021
  9
$ACADMAINTVER
 70
    25
  9
$DWGCODEPAGE
  3
ANSI_1252
  9
$INSBASE
 10
0.0
 20
0.0
 30
0.0
  9
$EXTMIN
 10
-9.69935
 20
-12.56163
 30
0.0
  9
$EXTMAX
 10
9.53839
 20
13.26142
 30
0.0
  9
$LIMMIN
 10
0.0
 20
0.0
  9
$LIMMAX
 10
12.0
 20
9.0
  9
$ORTHOMODE
 70
     0
  9
$REGENMODE
 70
     1
  9
$FILLMODE
 70
     1
  9
$QTEXTMODE
 70
     0
  9
$MIRRTEXT
 70
     1
  9
$LTSCALE
 40
1.0
  9
$ATTMODE
 70
     1
  9
$TEXTSIZE
 40
0.2
  9
$TRACEWID
 40
0.05
  9
$TEXTSTYLE
  7
Standard
  9
$CLAYER
  8
0
  9
$CELTYPE
  6
ByLayer
  9
$CECOLOR
 62
   256
  9
$CELTSCALE
 40
1.0
  9
$DISPSILH
 70
     0
  9
$DIMSCALE
 40
1.0
  9
$DIMASZ
 40
0.18
  9
$DIMEXO
 40
0.0625
  9
$DIMDLI
 40
0.38
  9
$DIMRND
 40
0.0
  9
$DIMDLE
 40
0.0
  9
$DIMEXE
 40
0.18
  9
$DIMTP
 40
0.0
  9
$DIMTM
 40
0.0
  9
$DIMTXT
 40
0.18
  9
$DIMCEN
 40
0.09
  9
$DIMTSZ
 40
0.0
  9
$DIMTOL
 70
     0
  9
$DIMLIM
 70
     0
  9
$DIMTIH
 70
     1
  9
$DIMTOH
 70
     1
  9
$DIMSE1
 70
     0
  9
$DIMSE2
 70
     0
  9
$DIMTAD
 70
     0
  9
$DIMZIN
 70
     0
  9
$DIMBLK
  1

  9
$DIMASO
 70
     1
  9
$DIMSHO
 70
     1
  9
$DIMPOST
  1

  9
$DIMAPOST
  1

  9
$DIMALT
 70
     0
  9
$DIMALTD
 70
     2
  9
$DIMALTF
 40
25.4
  9
$DIMLFAC
 40
1.0
  9
$DIMTOFL
 70
     0
  9
$DIMTVP
 40
0.0
  9
$DIMTIX
 70
     0
  9
$DIMSOXD
 70
     0
  9
$DIMSAH
 70
     0
  9
$DIMBLK1
  1

  9
$DIMBLK2
  1

  9
$DIMSTYLE
  2
Standard
  9
$DIMCLRD
 70
     0
  9
$DIMCLRE
 70
     0
  9
$DIMCLRT
 70
     0
  9
$DIMTFAC
 40
1.0
  9
$DIMGAP
 40
0.09
  9
$DIMJUST
 70
     0
  9
$DIMSD1
 70
     0
  9
$DIMSD2
 70
     0
  9
$DIMTOLJ
 70
     1
  9
$DIMTZIN
 70
     0
  9
$DIMALTZ
 70
     0
  9
$DIMALTTZ
 70
     0
  9
$DIMUPT
 70
     0
  9
$DIMDEC
 70
     4
  9
$DIMTDEC
 70
     4
  9
$DIMALTU
 70
     2
  9
$DIMALTTD
 70
     2
  9
$DIMTXSTY
  7
Standard
  9
$DIMAUNIT
 70
     0
  9
$DIMADEC
 70
     0
  9
$DIMALTRND
 40
0.0
  9
$DIMAZIN
 70
     0
  9
$DIMDSEP
 70
    46
  9
$DIMATFIT
 70
     3
  9
$DIMFRAC
 70
     0
  9
$DIMLDRBLK
  1

  9
$DIMLUNIT
 70
     2
  9
$DIMLWD
 70
    -2
  9
$DIMLWE
 70
    -2
  9
$DIMTMOVE
 70
     0
  9
$DIMFXL
 40
1.0
  9
$DIMFXLON
 70
     0
  9
$DIMJOGANG
 40
0.7853981633974483
  9
$DIMTFILL
 70
     0
  9
$DIMTFILLCLR
 70
     0
  9
$DIMARCSYM
 70
     0
  9
$DIMLTYPE
  6

  9
$DIMLTEX1
  6

  9
$DIMLTEX2
  6

  9
$LUNITS
 70
     2
  9
$LUPREC
 70
     4
  9
$SKETCHINC
 40
0.1
  9
$FILLETRAD
 40
0.5
  9
$AUNITS
 70
     0
  9
$AUPREC
 70
     0
  9
$MENU
  1
.
  9
$ELEVATION
 40
0.0
  9
$PELEVATION
 40
0.0
  9
$THICKNESS
 40
0.0
  9
$LIMCHECK
 70
     0
  9
$CHAMFERA
 40
0.5
  9
$CHAMFERB
 40
0.5
  9
$CHAMFERC
 40
1.0
  9
$CHAMFERD
 40
0.0
  9
$SKPOLY
 70
     0
  9
$TDCREATE
 40
2455293.889547419
  9
$TDUCREATE
 40
2455293.806214086
  9
$TDUPDATE
 40
2455293.88954743
  9
$TDUUPDATE
 40
2455293.806214097
  9
$TDINDWG
 40
0.0000000116
  9
$TDUSRTIMER
 40
0.0000000116
  9
$USRTIMER
 70
     1
  9
$ANGBASE
 50
0.0
  9
$ANGDIR
 70
     0
  9
$PDMODE
 70
     0
  9
$PDSIZE
 40
0.0
  9
$PLINEWID
 40
0.0
  9
$SPLFRAME
 70
     0
  9
$SPLINETYPE
 70
     6
  9
$SPLINESEGS
 70
     8
  9
$HANDSEED
  5
73
  9
$SURFTAB1
 70
     6
  9
$SURFTAB2
 70
     6
  9
$SURFTYPE
 70
     6
  9
$SURFU
 70
     6
  9
$SURFV
 70
     6
  9
$UCSBASE
  2

  9
$UCSNAME
  2

  9
$UCSORG
 10
0.0
 20
0.0
 30
0.0
  9
$UCSXDIR
 10
1.0
 20
0.0
 30
0.0
  9
$UCSYDIR
 10
0.0
 20
1.0
 30
0.0
  9
$UCSORTHOREF
  2

  9
$UCSORTHOVIEW
 70
     0
  9
$UCSORGTOP
 10
0.0
 20
0.0
 30
0.0
  9
$UCSORGBOTTOM
 10
0.0
 20
0.0
 30
0.0
  9
$UCSORGLEFT
 10
0.0
 20
0.0
 30
0.0
  9
$UCSORGRIGHT
 10
0.0
 20
0.0
 30
0.0
  9
$UCSORGFRONT
 10
0.0
 20
0.0
 30
0.0
  9
$UCSORGBACK
 10
0.0
 20
0.0
 30
0.0
  9
$PUCSBASE
  2

  9
$PUCSNAME
  2

  9
$PUCSORG
 10
0.0
 20
0.0
 30
0.0
  9
$PUCSXDIR
 10
1.0
 20
0.0
 30
0.0
  9
$PUCSYDIR
 10
0.0
 20
1.0
 30
0.0
  9
$PUCSORTHOREF
  2

  9
$PUCSORTHOVIEW
 70
     0
  9
$PUCSORGTOP
 10
0.0
 20
0.0
 30
0.0
  9
$PUCSORGBOTTOM
 10
0.0
 20
0.0
 30
0.0
  9
$PUCSORGLEFT
 10
0.0
 20
0.0
 30
0.0
  9
$PUCSORGRIGHT
 10
0.0
 20
0.0
 30
0.0
  9
$PUCSORGFRONT
 10
0.0
 20
0.0
 30
0.0
  9
$PUCSORGBACK
 10
0.0
 20
0.0
 30
0.0
  9
$USERI1
 70
     0
  9
$USERI2
 70
     0
  9
$USERI3
 70
     0
  9
$USERI4
 70
     0
  9
$USERI5
 70
     0
  9
$USERR1
 40
0.0
  9
$USERR2
 40
0.0
  9
$USERR3
 40
0.0
  9
$USERR4
 40
0.0
  9
$USERR5
 40
0.0
  9
$WORLDVIEW
 70
     1
  9
$SHADEDGE
 70
     3
  9
$SHADEDIF
 70
    70
  9
$TILEMODE
 70
     1
  9
$MAXACTVP
 70
    64
  9
$PINSBASE
 10
0.0
 20
0.0
 30
0.0
  9
$PLIMCHECK
 70
     0
  9
$PEXTMIN
 10
1.000000000000000E+20
 20
1.000000000000000E+20
 30
1.000000000000000E+20
  9
$PEXTMAX
 10
-1.000000000000000E+20
 20
-1.000000000000000E+20
 30
-1.000000000000000E+20
  9
$PLIMMIN
 10
0.0
 20
0.0
  9
$PLIMMAX
 10
12.0
 20
9.0
  9
$UNITMODE
 70
     0
  9
$VISRETAIN
 70
     1
  9
$PLINEGEN
 70
     0
  9
$PSLTSCALE
 70
     1
  9
$TREEDEPTH
 70
  3020
  9
$CMLSTYLE
  2
Standard
  9
$CMLJUST
 70
     0
  9
$CMLSCALE
 40
1.0
  9
$PROXYGRAPHICS
 70
     1
  9
$MEASUREMENT
 70
     0
  9
$CELWEIGHT
370
    -1
  9
$ENDCAPS
280
     0
  9
$JOINSTYLE
280
     0
  9
$LWDISPLAY
290
     0
  9
$INSUNITS
 70
     5
  9
$HYPERLINKBASE
  1

  9
$STYLESHEET
  1

  9
$XEDIT
290
     1
  9
$CEPSNTYPE
380
     0
  9
$PSTYLEMODE
290
     1
  9
$FINGERPRINTGUID
  2
{45B21842-C7C4-4A02-8020-33DBB581F9C2}
  9
$VERSIONGUID
  2
{FAEB1C32-E019-11D5-929B-00C0DF256EC4}
  9
$EXTNAMES
290
     1
  9
$PSVPSCALE
 40
0.0
  9
$OLESTARTUP
290
     0
  9
$SORTENTS
280
   127
  9
$INDEXCTL
280
     0
  9
$HIDETEXT
280
     1
  9
$XCLIPFRAME
290
     0
  9
$HALOGAP
280
     0
  9
$OBSCOLOR
 70
   257
  9
$OBSLTYPE
280
     0
  9
$INTERSECTIONDISPLAY
280
     0
  9
$INTERSECTIONCOLOR
 70
   257
  9
$DIMASSOC
280
     2
  9
$PROJECTNAME
  1

  9
$CAMERADISPLAY
290
     0
  9
$LENSLENGTH
 40
50.0
  9
$CAMERAHEIGHT
 40
0.0
  9
$STEPSPERSEC
 40
2.0
  9
$STEPSIZE
 40
6.0
  9
$3DDWFPREC
 40
2.0
  9
$PSOLWIDTH
 40
0.25
  9
$PSOLHEIGHT
 40
4.0
  9
$LOFTANG1
 40
1.570796326794897
  9
$LOFTANG2
 40
1.570796326794897
  9
$LOFTMAG1
 40
0.0
  9
$LOFTMAG2
 40
0.0
  9
$LOFTPARAM
 70
     7
  9
$LOFTNORMALS
280
     1
  9
$LATITUDE
 40
37.795
  9
$LONGITUDE
 40
-122.394
  9
$NORTHDIRECTION
 40
0.0
  9
$TIMEZONE
 70
 -8000
  9
$LIGHTGLYPHDISPLAY
280
     1
  9
$TILEMODELIGHTSYNCH
280
     1
  9
$SOLIDHIST
280
     1
  9
$SHOWHIST
280
     1
  9
$DWFFRAME
280
     2
  9
$DGNFRAME
280
     2
  9
$REALWORLDSCALE
290
     1
  9
$INTERFERECOLOR
 62
   256
  9
$CSHADOW
280
     0
  9
$SHADOWPLANELOCATION
 40
0.0
  0
ENDSEC
  0
SECTION
  2
CLASSES
  0
CLASS
  1
ACDBDICTIONARYWDFLT
  2
AcDbDictionaryWithDefault
  3
ObjectDBX Classes
 90
        0
 91
        4
280
     0
281
     0
  0
CLASS
  1
VISUALSTYLE
  2
AcDbVisualStyle
  3
ObjectDBX Classes
 90
     4095
 91
        4
280
     0
281
     0
  0
CLASS
  1
MATERIAL
  2
AcDbMaterial
  3
ObjectDBX Classes
 90
     1153
 91
        4
280
     0
281
     0
  0
ENDSEC
  0
SECTION
  2
TABLES
  0
TABLE
  2
VPORT
  5
8
330
0
100
AcDbSymbolTable
 70
     1
  0
VPORT
  5
29
330
8
100
AcDbSymbolTableRecord
100
AcDbViewportTableRecord
  2
*Active
 70
     0
 10
0.0
 20
0.0
 11
1.0
 21
1.0
 12
10.42990654205607
 22
4.5
 13
0.0
 23
0.0
 14
0.5
 24
0.5
 15
0.5
 25
0.5
 16
0.0
 26
0.0
 36
1.0
 17
0.0
 27
0.0
 37
0.0
 40
9.0
 41
1.972972972850329
 42
50.0
 43
0.0
 44
0.0
 50
0.0
 51
0.0
 71
     0
 72
   100
 73
     1
 74
     3
 75
     0
 76
     0
 77
     0
 78
     0
281
     0
 65
     1
110
0.0
120
0.0
130
0.0
111
1.0
121
0.0
131
0.0
112
0.0
122
1.0
132
0.0
 79
     0
146
0.0
 60
     3
 61
     5
292
     1
282
     1
141
0.0
142
0.0
 63
   250
  0
ENDTAB
  0
TABLE
  2
LTYPE
  5
5
330
0
100
AcDbSymbolTable
 70
     1
  0
LTYPE
  5
14
330
5
100
AcDbSymbolTableRecord
100
AcDbLinetypeTableRecord
  2
ByBlock
 70
     0
  3

 72
    65
 73
     0
 40
0.0
  0
LTYPE
  5
15
330
5
100
AcDbSymbolTableRecord
100
AcDbLinetypeTableRecord
  2
ByLayer
 70
     0
  3

 72
    65
 73
     0
 40
0.0
  0
LTYPE
  5
16
330
5
100
AcDbSymbolTableRecord
100
AcDbLinetypeTableRecord
  2
Continuous
 70
     0
  3
Solid line
 72
    65
 73
     0
 40
0.0
  0
ENDTAB
  0
TABLE
  2
LAYER
  5
2
330
0
100
AcDbSymbolTable
 70
     2
  0
LAYER
  5
10
330
2
100
AcDbSymbolTableRecord
100
AcDbLayerTableRecord
  2
0
 70
     0
 62
     7
  6
Continuous
370
    -3
390
F
347
3E
  0
LAYER
  5
40
330
2
100
AcDbSymbolTableRecord
100
AcDbLayerTableRecord
  2
Livello 1
 70
     0
 62
     7
  6
Continuous
370
    -3
390
F
347
3E
  0
ENDTAB
  0
TABLE
  2
STYLE
  5
3
330
0
100
AcDbSymbolTable
 70
     1
  0
STYLE
  5
11
330
3
100
AcDbSymbolTableRecord
100
AcDbTextStyleTableRecord
  2
Standard
 70
     0
 40
0.0
 41
1.0
 50
0.0
 71
     0
 42
0.2
  3
txt
  4

  0
ENDTAB
  0
TABLE
  2
VIEW
  5
6
330
0
100
AcDbSymbolTable
 70
     0
  0
ENDTAB
  0
TABLE
  2
UCS
  5
7
330
0
100
AcDbSymbolTable
 70
     0
  0
ENDTAB
  0
TABLE
  2
APPID
  5
9
330
0
100
AcDbSymbolTable
 70
     2
  0
APPID
  5
12
330
9
100
AcDbSymbolTableRecord
100
AcDbRegAppTableRecord
  2
ACAD
 70
     0
  0
APPID
  5
3F
330
9
100
AcDbSymbolTableRecord
100
AcDbRegAppTableRecord
  2
ODA
 70
     0
  0
ENDTAB
  0
TABLE
  2
DIMSTYLE
  5
A
330
0
100
AcDbSymbolTable
 70
     1
100
AcDbDimStyleTable
  0
DIMSTYLE
105
27
330
A
100
AcDbSymbolTableRecord
100
AcDbDimStyleTableRecord
  2
Standard
 70
     0
340
11
  0
ENDTAB
  0
TABLE
  2
BLOCK_RECORD
  5
1
330
0
100
AcDbSymbolTable
 70
     1
  0
BLOCK_RECORD
  5
1F
330
1
100
AcDbSymbolTableRecord
100
AcDbBlockTableRecord
  2
*Model_Space
340
22
 70
     0
280
     1
281
     0
  0
BLOCK_RECORD
  5
1B
330
1
100
AcDbSymbolTableRecord
100
AcDbBlockTableRecord
  2
*Paper_Space
340
1E
 70
     0
280
     1
281
     0
  0
BLOCK_RECORD
  5
23
330
1
100
AcDbSymbolTableRecord
100
AcDbBlockTableRecord
  2
*Paper_Space0
340
26
 70
     0
280
     1
281
     0
  0
ENDTAB
  0
ENDSEC
  0
SECTION
  2
BLOCKS
  0
BLOCK
  5
20
330
1F
100
AcDbEntity
  8
0
100
AcDbBlockBegin
  2
*Model_Space
 70
     0
 10
0.0
 20
0.0
 30
0.0
  3
*Model_Space
  1

  0
ENDBLK
  5
21
330
1F
100
AcDbEntity
  8
0
100
AcDbBlockEnd
  0
BLOCK
  5
1C
330
1B
100
AcDbEntity
 67
     1
  8
0
100
AcDbBlockBegin
  2
*Paper_Space
 70
     0
 10
0.0
 20
0.0
 30
0.0
  3
*Paper_Space
  1

  0
ENDBLK
  5
1D
330
1B
100
AcDbEntity
 67
     1
  8
0
100
AcDbBlockEnd
  0
BLOCK
  5
24
330
23
100
AcDbEntity
  8
0
100
AcDbBlockBegin
  2
*Paper_Space0
 70
     0
 10
0.0
 20
0.0
 30
0.0
  3
*Paper_Space0
  1

  0
ENDBLK
  5
25
330
23
100
AcDbEntity
  8
0
100
AcDbBlockEnd
  0
ENDSEC
  0
SECTION
  2
ENTITIES
  0
SPLINE
  5
41
330
1F
100
AcDbEntity
  8
Livello 1
 62
   250
370
     5
100
AcDbSpline
210
0.0
220
0.0
230
1.0
 70
    11
 71
     3
 72
    92
 73
    88
 74
     0
 42
0.0000000001
 43
0.0000000001
 40
0.0
 40
0.0
 40
0.0
 40
0.0
 40
0.0434782608695652
 40
0.0434782608695652
 40
0.0434782608695652
 40
0.0434782608695652
 40
0.0869565217391304
 40
0.0869565217391304
 40
0.0869565217391304
 40
0.0869565217391304
 40
0.1304347826086956
 40
0.1304347826086956
 40
0.1304347826086956
 40
0.1304347826086956
 40
0.1739130434782609
 40
0.1739130434782609
 40
0.1739130434782609
 40
0.1739130434782609
 40
0.2173913043478261
 40
0.2173913043478261
 40
0.2173913043478261
 40
0.2173913043478261
 40
0.2608695652173913
 40
0.2608695652173913
 40
0.2608695652173913
 40
0.2608695652173913
 40
0.3043478260869565
 40
0.3043478260869565
 40
0.3043478260869565
 40
0.3043478260869565
 40
0.3478260869565217
 40
0.3478260869565217
 40
0.3478260869565217
 40
0.3478260869565217
 40
0.391304347826087
 40
0.391304347826087
 40
0.391304347826087
 40
0.391304347826087
 40
0.4347826086956522
 40
0.4347826086956522
 40
0.4347826086956522
 40
0.4347826086956522
 40
0.4782608695652174
 40
0.4782608695652174
 40
0.4782608695652174
 40
0.4782608695652174
 40
0.5217391304347826
 40
0.5217391304347826
 40
0.5217391304347826
 40
0.5217391304347826
 40
0.5652173913043478
 40
0.5652173913043478
 40
0.5652173913043478
 40
0.5652173913043478
 40
0.6086956521739131
 40
0.6086956521739131
 40
0.6086956521739131
 40
0.6086956521739131
 40
0.6521739130434783
 40
0.6521739130434783
 40
0.6521739130434783
 40
0.6521739130434783
 40
0.6956521739130435
 40
0.6956521739130435
 40
0.6956521739130435
 40
0.6956521739130435
 40
0.7391304347826086
 40
0.7391304347826086
 40
0.7391304347826086
 40
0.7391304347826086
 40
0.782608695652174
 40
0.782608695652174
 40
0.782608695652174
 40
0.782608695652174
 40
0.8260869565217391
 40
0.8260869565217391
 40
0.8260869565217391
 40
0.8260869565217391
 40
0.8695652173913043
 40
0.8695652173913043
 40
0.8695652173913043
 40
0.8695652173913043
 40
0.9130434782608695
 40
0.9130434782608695
 40
0.9130434782608695
 40
0.9130434782608695
 40
1.0
 40
1.0
 40
1.0
 40
1.0
 10
-4.43441
 20
0.09631
 30
0.0
 10
-4.3703
 20
0.52503
 30
0.0
 10
-3.68124
 20
0.5062
 30
0.0
 10
-3.38818
 20
0.32518
 30
0.0
 10
-3.38818
 20
0.32518
 30
0.0
 10
-2.65283
 20
-0.12905
 30
0.0
 10
-2.76547
 20
-1.25528
 30
0.0
 10
-2.76886
 20
-2.02363
 30
0.0
 10
-2.76886
 20
-2.02363
 30
0.0
 10
-2.77265
 20
-2.87386
 30
0.0
 10
-3.77874
 20
-3.42528
 30
0.0
 10
-4.4209
 20
-4.15763
 30
0.0
 10
-4.4209
 20
-4.15763
 30
0.0
 10
-4.90972
 20
-4.78768
 30
0.0
 10
-5.60509
 20
-5.48957
 30
0.0
 10
-5.52529
 20
-5.97635
 30
0.0
 10
-5.52529
 20
-5.97635
 30
0.0
 10
-5.42617
 20
-6.24902
 30
0.0
 10
-5.14869
 20
-6.60605
 30
0.0
 10
-4.97285
 20
-6.95613
 30
0.0
 10
-4.97285
 20
-6.95613
 30
0.0
 10
-4.67288
 20
-7.55341
 30
0.0
 10
-4.44643
 20
-8.1036
 30
0.0
 10
-4.09444
 20
-8.59688
 30
0.0
 10
-4.09444
 20
-8.59688
 30
0.0
 10
-3.71898
 20
-8.98988
 30
0.0
 10
-3.28454
 20
-8.86245
 30
0.0
 10
-2.86245
 20
-9.13755
 30
0.0
 10
-2.86245
 20
-9.13755
 30
0.0
 10
-2.46003
 20
-9.39984
 30
0.0
 10
-2.11671
 20
-9.84654
 30
0.0
 10
-1.99932
 20
-10.22918
 30
0.0
 10
-1.99932
 20
-10.22918
 30
0.0
 10
-1.69868
 20
-11.20866
 30
0.0
 10
-2.37754
 20
-12.53114
 30
0.0
 10
-3.5419
 20
-12.55725
 30
0.0
 10
-3.5419
 20
-12.55725
 30
0.0
 10
-4.08607
 20
-12.5695
 30
0.0
 10
-4.57492
 20
-12.22752
 30
0.0
 10
-4.83844
 20
-11.99509
 30
0.0
 10
-4.83844
 20
-11.99509
 30
0.0
 10
-5.68897
 20
-11.24495
 30
0.0
 10
-6.09677
 20
-10.09074
 30
0.0
 10
-6.38331
 20
-8.95775
 30
0.0
 10
-6.38331
 20
-8.95775
 30
0.0
 10
-6.55898
 20
-8.26319
 30
0.0
 10
-6.57624
 20
-7.46916
 30
0.0
 10
-6.84836
 20
-6.853
 30
0.0
 10
-6.84836
 20
-6.853
 30
0.0
 10
-6.96366
 20
-6.59189
 30
0.0
 10
-7.2527
 20
-6.43365
 30
0.0
 10
-7.46153
 20
-6.037
 30
0.0
 10
-7.46153
 20
-6.037
 30
0.0
 10
-7.3137
 20
-5.72792
 30
0.0
 10
-7.63894
 20
-5.58174
 30
0.0
 10
-7.60803
 20
-5.32758
 30
0.0
 10
-7.60803
 20
-5.32758
 30
0.0
 10
-7.52211
 20
-5.16292
 30
0.0
 10
-7.3426
 20
-5.33241
 30
0.0
 10
-7.22452
 20
-5.24311
 30
0.0
 10
-7.22452
 20
-5.24311
 30
0.0
 10
-6.53906
 20
-4.09204
 30
0.0
 10
-5.53575
 20
-3.09764
 30
0.0
 10
-4.40067
 20
-2.38418
 30
0.0
 10
-4.40067
 20
-2.38418
 30
0.0
 10
-4.63486
 20
-2.20811
 30
0.0
 10
-4.85274
 20
-1.87073
 30
0.0
 10
-4.7442
 20
-1.56826
 30
0.0
 10
-4.7442
 20
-1.56826
 30
0.0
 10
-4.43635
 20
-1.45291
 30
0.0
 10
-4.25233
 20
-1.9911
 30
0.0
 10
-3.93506
 20
-1.90951
 30
0.0
 10
-3.93506
 20
-1.90951
 30
0.0
 10
-3.84736
 20
-1.76935
 30
0.0
 10
-3.95616
 20
-1.59715
 30
0.0
 10
-3.94955
 20
-1.44457
 30
0.0
 10
-3.94955
 20
-1.44457
 30
0.0
 10
-3.75216
 20
-1.09362
 30
0.0
 10
-3.27721
 20
-0.5023
 30
0.0
 10
-3.82341
 20
-0.23191
 30
0.0
 10
-3.82341
 20
-0.23191
 30
0.0
 10
-3.98794
 20
-0.13299
 30
0.0
 10
-4.117
 20
-0.32385
 30
0.0
 10
-4.26753
 20
-0.27963
 30
0.0
 10
-4.26753
 20
-0.27963
 30
0.0
 10
-4.3975
 20
-0.20915
 30
0.0
 10
-4.46405
 20
-0.04633
 30
0.0
 10
-4.43441
 20
0.09631
 30
0.0
  0
SPLINE
  5
42
330
1F
100
AcDbEntity
  8
Livello 1
 62
   250
370
     5
100
AcDbSpline
210
0.0
220
0.0
230
1.0
 70
    11
 71
     3
 72
    20
 73
    16
 74
     0
 42
0.0000000001
 43
0.0000000001
 40
0.0
 40
0.0
 40
0.0
 40
0.0
 40
0.2
 40
0.2
 40
0.2
 40
0.2
 40
0.4
 40
0.4
 40
0.4
 40
0.4
 40
0.6
 40
0.6
 40
0.6
 40
0.6
 40
1.0
 40
1.0
 40
1.0
 40
1.0
 10
-2.71065
 20
-9.83827
 30
0.0
 10
-2.71065
 20
-9.83827
 30
0.0
 10
-2.37728
 20
-10.05789
 30
0.0
 10
-2.37728
 20
-10.05789
 30
0.0
 10
-2.37728
 20
-10.05789
 30
0.0
 10
-2.37728
 20
-10.05789
 30
0.0
 10
-3.68681
 20
-12.04586
 30
0.0
 10
-3.68681
 20
-12.04586
 30
0.0
 10
-3.68681
 20
-12.04586
 30
0.0
 10
-3.68681
 20
-12.04586
 30
0.0
 10
-4.02018
 20
-11.82624
 30
0.0
 10
-4.02018
 20
-11.82624
 30
0.0
 10
-4.02018
 20
-11.82624
 30
0.0
 10
-4.02018
 20
-11.82624
 30
0.0
 10
-2.71065
 20
-9.83827
 30
0.0
 10
-2.71065
 20
-9.83827
 30
0.0
  0
SPLINE
  5
43
330
1F
100
AcDbEntity
  8
Livello 1
 62
   250
370
     5
100
AcDbSpline
210
0.0
220
0.0
230
1.0
 70
    11
 71
     3
 72
    80
 73
    76
 74
     0
 42
0.0000000001
 43
0.0000000001
 40
0.0
 40
0.0
 40
0.0
 40
0.0
 40
0.05
 40
0.05
 40
0.05
 40
0.05
 40
0.1
 40
0.1
 40
0.1
 40
0.1
 40
0.15
 40
0.15
 40
0.15
 40
0.15
 40
0.2
 40
0.2
 40
0.2
 40
0.2
 40
0.25
 40
0.25
 40
0.25
 40
0.25
 40
0.3
 40
0.3
 40
0.3
 40
0.3
 40
0.35
 40
0.35
 40
0.35
 40
0.35
 40
0.4
 40
0.4
 40
0.4
 40
0.4
 40
0.45
 40
0.45
 40
0.45
 40
0.45
 40
0.5
 40
0.5
 40
0.5
 40
0.5
 40
0.55
 40
0.55
 40
0.55
 40
0.55
 40
0.6
 40
0.6
 40
0.6
 40
0.6
 40
0.65
 40
0.65
 40
0.65
 40
0.65
 40
0.7
 40
0.7
 40
0.7
 40
0.7
 40
0.75
 40
0.75
 40
0.75
 40
0.75
 40
0.8
 40
0.8
 40
0.8
 40
0.8
 40
0.85
 40
0.85
 40
0.85
 40
0.85
 40
0.9
 40
0.9
 40
0.9
 40
0.9
 40
1.0
 40
1.0
 40
1.0
 40
1.0
 10
0.2044
 20
-7.70476
 30
0.0
 10
0.2044
 20
-7.70476
 30
0.0
 10
-0.22468
 20
-7.50124
 30
0.0
 10
-0.22468
 20
-7.50124
 30
0.0
 10
-0.22468
 20
-7.50124
 30
0.0
 10
-0.22468
 20
-7.50124
 30
0.0
 10
0.30201
 20
-6.69961
 30
0.0
 10
0.30201
 20
-6.69961
 30
0.0
 10
0.30201
 20
-6.69961
 30
0.0
 10
0.61321
 20
-6.97832
 30
0.0
 10
0.97217
 20
-7.39226
 30
0.0
 10
1.41673
 20
-7.28503
 30
0.0
 10
1.41673
 20
-7.28503
 30
0.0
 10
1.7552
 20
-7.20339
 30
0.0
 10
2.0099
 20
-6.85168
 30
0.0
 10
1.8959
 20
-6.46696
 30
0.0
 10
1.8959
 20
-6.46696
 30
0.0
 10
1.81765
 20
-6.2029
 30
0.0
 10
1.57683
 20
-6.02098
 30
0.0
 10
1.47059
 20
-5.95461
 30
0.0
 10
1.47059
 20
-5.95461
 30
0.0
 10
1.129
 20
-5.74095
 30
0.0
 10
0.80048
 20
-5.95727
 30
0.0
 10
0.41552
 20
-5.85579
 30
0.0
 10
0.41552
 20
-5.85579
 30
0.0
 10
0.41552
 20
-5.85579
 30
0.0
 10
-0.17819
 20
-5.47942
 30
0.0
 10
-0.17819
 20
-5.47942
 30
0.0
 10
-0.17819
 20
-5.47942
 30
0.0
 10
-0.20874
 20
-5.39028
 30
0.0
 10
-0.20696
 20
-5.04739
 30
0.0
 10
-0.09361
 20
-5.0287
 30
0.0
 10
-0.09361
 20
-5.0287
 30
0.0
 10
0.10417
 20
-4.99742
 30
0.0
 10
0.32268
 20
-5.24829
 30
0.0
 10
0.48978
 20
-5.29592
 30
0.0
 10
0.48978
 20
-5.29592
 30
0.0
 10
0.71683
 20
-5.36071
 30
0.0
 10
0.95889
 20
-5.27929
 30
0.0
 10
1.1764
 20
-5.32495
 30
0.0
 10
1.1764
 20
-5.32495
 30
0.0
 10
1.59729
 20
-5.41325
 30
0.0
 10
2.27926
 20
-5.78897
 30
0.0
 10
2.46812
 20
-6.32397
 30
0.0
 10
2.46812
 20
-6.32397
 30
0.0
 10
2.70352
 20
-6.99095
 30
0.0
 10
2.17488
 20
-7.5394
 30
0.0
 10
1.34165
 20
-7.88558
 30
0.0
 10
1.34165
 20
-7.88558
 30
0.0
 10
1.21616
 20
-8.37874
 30
0.0
 10
1.34493
 20
-8.82609
 30
0.0
 10
1.06119
 20
-9.19846
 30
0.0
 10
1.06119
 20
-9.19846
 30
0.0
 10
0.3766
 20
-10.09724
 30
0.0
 10
-1.14457
 20
-9.34928
 30
0.0
 10
-1.38838
 20
-8.2753
 30
0.0
 10
-1.38838
 20
-8.2753
 30
0.0
 10
-1.57432
 20
-8.16584
 30
0.0
 10
-1.77697
 20
-8.09866
 30
0.0
 10
-1.93541
 20
-7.91489
 30
0.0
 10
-1.93541
 20
-7.91489
 30
0.0
 10
-2.07383
 20
-7.806
 30
0.0
 10
-1.68721
 20
-7.63006
 30
0.0
 10
-1.527
 20
-7.58747
 30
0.0
 10
-1.527
 20
-7.58747
 30
0.0
 10
-1.33654
 20
-7.7286
 30
0.0
 10
-1.12664
 20
-7.82763
 30
0.0
 10
-0.93864
 20
-7.98145
 30
0.0
 10
-0.93864
 20
-7.98145
 30
0.0
 10
-0.87461
 20
-8.69842
 30
0.0
 10
-0.0649
 20
-9.38149
 30
0.0
 10
0.53467
 20
-8.93775
 30
0.0
 10
0.53467
 20
-8.93775
 30
0.0
 10
0.94238
 20
-8.63603
 30
0.0
 10
0.82114
 20
-7.97509
 30
0.0
 10
0.2044
 20
-7.70476
 30
0.0
  0
SPLINE
  5
44
330
1F
100
AcDbEntity
  8
Livello 1
 62
   250
370
     5
100
AcDbSpline
210
0.0
220
0.0
230
1.0
 70
     8
 71
     3
 72
    64
 73
    60
 74
     0
 42
0.0000000001
 43
0.0000000001
 40
0.0
 40
0.0
 40
0.0
 40
0.0
 40
0.0625
 40
0.0625
 40
0.0625
 40
0.0625
 40
0.125
 40
0.125
 40
0.125
 40
0.125
 40
0.1875
 40
0.1875
 40
0.1875
 40
0.1875
 40
0.25
 40
0.25
 40
0.25
 40
0.25
 40
0.3125
 40
0.3125
 40
0.3125
 40
0.3125
 40
0.375
 40
0.375
 40
0.375
 40
0.375
 40
0.4375
 40
0.4375
 40
0.4375
 40
0.4375
 40
0.5
 40
0.5
 40
0.5
 40
0.5
 40
0.5625
 40
0.5625
 40
0.5625
 40
0.5625
 40
0.625
 40
0.625
 40
0.625
 40
0.625
 40
0.6875
 40
0.6875
 40
0.6875
 40
0.6875
 40
0.75
 40
0.75
 40
0.75
 40
0.75
 40
0.8125
 40
0.8125
 40
0.8125
 40
0.8125
 40
0.875
 40
0.875
 40
0.875
 40
0.875
 40
1.0
 40
1.0
 40
1.0
 40
1.0
 10
2.70988
 20
0.53402
 30
0.0
 10
3.1359
 20
0.85772
 30
0.0
 10
4.16021
 20
0.45418
 30
0.0
 10
3.67099
 20
-0.09886
 30
0.0
 10
3.67099
 20
-0.09886
 30
0.0
 10
2.88906
 20
0.14212
 30
0.0
 10
2.33487
 20
-1.0591
 30
0.0
 10
2.733
 20
-1.62975
 30
0.0
 10
2.733
 20
-1.62975
 30
0.0
 10
3.05326
 20
-1.64954
 30
0.0
 10
3.08673
 20
-1.20877
 30
0.0
 10
3.36494
 20
-1.12095
 30
0.0
 10
3.36494
 20
-1.12095
 30
0.0
 10
3.77821
 20
-1.41185
 30
0.0
 10
3.25749
 20
-1.83398
 30
0.0
 10
3.12413
 20
-2.12215
 30
0.0
 10
3.12413
 20
-2.12215
 30
0.0
 10
3.60198
 20
-3.50785
 30
0.0
 10
4.88713
 20
-4.38494
 30
0.0
 10
5.65776
 20
-5.63865
 30
0.0
 10
5.65776
 20
-5.63865
 30
0.0
 10
5.74902
 20
-5.72209
 30
0.0
 10
5.8703
 20
-5.66146
 30
0.0
 10
5.97145
 20
-5.71975
 30
0.0
 10
5.97145
 20
-5.71975
 30
0.0
 10
6.16557
 20
-6.03886
 30
0.0
 10
5.87653
 20
-6.53908
 30
0.0
 10
6.31217
 20
-6.68239
 30
0.0
 10
6.31217
 20
-6.68239
 30
0.0
 10
6.33542
 20
-7.02273
 30
0.0
 10
6.12648
 20
-7.25523
 30
0.0
 10
6.05151
 20
-7.55625
 30
0.0
 10
6.05151
 20
-7.55625
 30
0.0
 10
5.72205
 20
-8.87913
 30
0.0
 10
6.50409
 20
-10.93649
 30
0.0
 10
5.56682
 20
-11.94584
 30
0.0
 10
5.56682
 20
-11.94584
 30
0.0
 10
4.67165
 20
-12.90986
 30
0.0
 10
2.56966
 20
-12.60442
 30
0.0
 10
2.46583
 20
-11.02836
 30
0.0
 10
2.46583
 20
-11.02836
 30
0.0
 10
2.38289
 20
-9.76933
 30
0.0
 10
2.96168
 20
-7.82479
 30
0.0
 10
3.54249
 20
-6.80849
 30
0.0
 10
3.54249
 20
-6.80849
 30
0.0
 10
3.66449
 20
-6.59502
 30
0.0
 10
3.88179
 20
-6.41386
 30
0.0
 10
3.91082
 20
-6.21105
 30
0.0
 10
3.91082
 20
-6.21105
 30
0.0
 10
3.95036
 20
-5.93536
 30
0.0
 10
3.74946
 20
-5.59141
 30
0.0
 10
3.58443
 20
-5.29259
 30
0.0
 10
3.58443
 20
-5.29259
 30
0.0
 10
3.11937
 20
-4.45044
 30
0.0
 10
1.61894
 20
-2.63587
 30
0.0
 10
1.78888
 20
-1.32818
 30
0.0
 10
1.78888
 20
-1.32818
 30
0.0
 10
1.8644
 20
-0.74709
 30
0.0
 10
2.25968
 20
0.05998
 30
0.0
 10
2.70986
 20
0.53402
 30
0.0
  0
SPLINE
  5
45
330
1F
100
AcDbEntity
  8
Livello 1
 62
   250
370
     5
100
AcDbSpline
210
0.0
220
0.0
230
1.0
 70
    11
 71
     3
 72
    20
 73
    16
 74
     0
 42
0.0000000001
 43
0.0000000001
 40
0.0
 40
0.0
 40
0.0
 40
0.0
 40
0.2
 40
0.2
 40
0.2
 40
0.2
 40
0.4
 40
0.4
 40
0.4
 40
0.4
 40
0.6
 40
0.6
 40
0.6
 40
0.6
 40
1.0
 40
1.0
 40
1.0
 40
1.0
 10
2.95774
 20
-11.437
 30
0.0
 10
2.95774
 20
-11.437
 30
0.0
 10
2.98136
 20
-11.03848
 30
0.0
 10
2.98136
 20
-11.03848
 30
0.0
 10
2.98136
 20
-11.03848
 30
0.0
 10
2.98136
 20
-11.03848
 30
0.0
 10
5.35773
 20
-11.17931
 30
0.0
 10
5.35773
 20
-11.17931
 30
0.0
 10
5.35773
 20
-11.17931
 30
0.0
 10
5.35773
 20
-11.17931
 30
0.0
 10
5.33409
 20
-11.57784
 30
0.0
 10
5.33409
 20
-11.57784
 30
0.0
 10
5.33409
 20
-11.57784
 30
0.0
 10
5.33409
 20
-11.57784
 30
0.0
 10
2.95774
 20
-11.437
 30
0.0
 10
2.95774
 20
-11.437
 30
0.0
  0
SPLINE
  5
46
330
1F
100
AcDbEntity
  8
Livello 1
 62
   250
370
     5
100
AcDbSpline
210
0.0
220
0.0
230
1.0
 70
    27
 71
     3
 72
     8
 73
     4
 74
     0
 42
0.0000000001
 43
0.0000000001
 40
0.0
 40
0.0
 40
0.0
 40
0.0
 40
1.0
 40
1.0
 40
1.0
 40
1.0
 10
-4.56264
 20
-5.64489
 30
0.0
 10
-4.56264
 20
-5.64489
 30
0.0
 10
-4.56264
 20
-5.64489
 30
0.0
 10
-4.56264
 20
-5.64489
 30
0.0
  0
SPLINE
  5
47
330
1F
100
AcDbEntity
  8
Livello 1
 62
   250
370
     5
100
AcDbSpline
210
0.0
220
0.0
230
1.0
 70
    11
 71
     3
 72
    20
 73
    16
 74
     0
 42
0.0000000001
 43
0.0000000001
 40
0.0
 40
0.0
 40
0.0
 40
0.0
 40
0.2
 40
0.2
 40
0.2
 40
0.2
 40
0.4
 40
0.4
 40
0.4
 40
0.4
 40
0.6
 40
0.6
 40
0.6
 40
0.6
 40
1.0
 40
1.0
 40
1.0
 40
1.0
 10
-9.69508
 20
9.60018
 30
0.0
 10
-9.69508
 20
9.60018
 30
0.0
 10
-7.13343
 20
9.60018
 30
0.0
 10
-7.13343
 20
9.60018
 30
0.0
 10
-7.13343
 20
9.60018
 30
0.0
 10
-7.13343
 20
9.60018
 30
0.0
 10
-7.13343
 20
12.54112
 30
0.0
 10
-7.13343
 20
12.54112
 30
0.0
 10
-7.13343
 20
12.54112
 30
0.0
 10
-7.13343
 20
12.54112
 30
0.0
 10
-9.69508
 20
12.54112
 30
0.0
 10
-9.69508
 20
12.54112
 30
0.0
 10
-9.69508
 20
12.54112
 30
0.0
 10
-9.69508
 20
12.54112
 30
0.0
 10
-9.69508
 20
9.60018
 30
0.0
 10
-9.69508
 20
9.60018
 30
0.0
  0
SPLINE
  5
48
330
1F
100
AcDbEntity
  8
Livello 1
 62
   250
370
     5
100
AcDbSpline
210
0.0
220
0.0
230
1.0
 70
    11
 71
     3
 72
    20
 73
    16
 74
     0
 42
0.0000000001
 43
0.0000000001
 40
0.0
 40
0.0
 40
0.0
 40
0.0
 40
0.2
 40
0.2
 40
0.2
 40
0.2
 40
0.4
 40
0.4
 40
0.4
 40
0.4
 40
0.6
 40
0.6
 40
0.6
 40
0.6
 40
1.0
 40
1.0
 40
1.0
 40
1.0
 10
-8.21528
 20
11.78266
 30
0.0
 10
-8.21528
 20
11.30962
 30
0.0
 10
-8.21533
 20
10.83642
 30
0.0
 10
-8.21533
 20
10.36329
 30
0.0
 10
-8.21533
 20
10.36329
 30
0.0
 10
-8.34902
 20
10.36329
 30
0.0
 10
-8.48081
 20
10.36331
 30
0.0
 10
-8.61451
 20
10.36331
 30
0.0
 10
-8.61451
 20
10.36331
 30
0.0
 10
-8.61451
 20
10.36331
 30
0.0
 10
-8.61448
 20
11.78266
 30
0.0
 10
-8.61448
 20
11.78266
 30
0.0
 10
-8.61448
 20
11.78266
 30
0.0
 10
-8.48142
 20
11.78266
 30
0.0
 10
-8.34833
 20
11.78266
 30
0.0
 10
-8.21528
 20
11.78266
 30
0.0
  0
SPLINE
  5
49
330
1F
100
AcDbEntity
  8
Livello 1
 62
   250
370
     5
100
AcDbSpline
210
0.0
220
0.0
230
1.0
 70
    11
 71
     3
 72
    80
 73
    76
 74
     0
 42
0.0000000001
 43
0.0000000001
 40
0.0
 40
0.0
 40
0.0
 40
0.0
 40
0.05
 40
0.05
 40
0.05
 40
0.05
 40
0.1
 40
0.1
 40
0.1
 40
0.1
 40
0.15
 40
0.15
 40
0.15
 40
0.15
 40
0.2
 40
0.2
 40
0.2
 40
0.2
 40
0.25
 40
0.25
 40
0.25
 40
0.25
 40
0.3
 40
0.3
 40
0.3
 40
0.3
 40
0.35
 40
0.35
 40
0.35
 40
0.35
 40
0.4
 40
0.4
 40
0.4
 40
0.4
 40
0.45
 40
0.45
 40
0.45
 40
0.45
 40
0.5
 40
0.5
 40
0.5
 40
0.5
 40
0.55
 40
0.55
 40
0.55
 40
0.55
 40
0.6
 40
0.6
 40
0.6
 40
0.6
 40
0.65
 40
0.65
 40
0.65
 40
0.65
 40
0.7
 40
0.7
 40
0.7
 40
0.7
 40
0.75
 40
0.75
 40
0.75
 40
0.75
 40
0.8
 40
0.8
 40
0.8
 40
0.8
 40
0.85
 40
0.85
 40
0.85
 40
0.85
 40
0.9
 40
0.9
 40
0.9
 40
0.9
 40
1.0
 40
1.0
 40
1.0
 40
1.0
 10
9.37367
 20
-11.66921
 30
0.0
 10
8.97152
 20
-12.65546
 30
0.0
 10
7.4995
 20
-12.70076
 30
0.0
 10
7.10416
 20
-12.02267
 30
0.0
 10
7.10416
 20
-12.02267
 30
0.0
 10
6.39796
 20
-10.81148
 30
0.0
 10
7.02717
 20
-8.71356
 30
0.0
 10
7.33317
 20
-7.75293
 30
0.0
 10
7.33317
 20
-7.75293
 30
0.0
 10
7.44066
 20
-7.41561
 30
0.0
 10
7.6268
 20
-7.09156
 30
0.0
 10
7.68093
 20
-6.81707
 30
0.0
 10
7.68093
 20
-6.81707
 30
0.0
 10
7.78132
 20
-6.30708
 30
0.0
 10
7.50562
 20
-5.83797
 30
0.0
 10
7.26274
 20
-5.46647
 30
0.0
 10
7.26274
 20
-5.46647
 30
0.0
 10
6.5772
 20
-4.41797
 30
0.0
 10
5.34258
 20
-3.39463
 30
0.0
 10
5.08848
 20
-2.28204
 30
0.0
 10
5.08848
 20
-2.28204
 30
0.0
 10
4.88747
 20
-1.34404
 30
0.0
 10
5.29709
 20
0.0589
 30
0.0
 10
6.37867
 20
0.13681
 30
0.0
 10
6.37867
 20
0.13681
 30
0.0
 10
6.49704
 20
0.05277
 30
0.0
 10
6.50967
 20
-0.12603
 30
0.0
 10
6.44711
 20
-0.2478
 30
0.0
 10
6.44711
 20
-0.2478
 30
0.0
 10
5.71413
 20
-0.45319
 30
0.0
 10
5.40382
 20
-1.51437
 30
0.0
 10
5.75727
 20
-2.15692
 30
0.0
 10
5.75727
 20
-2.15692
 30
0.0
 10
5.84055
 20
-2.23272
 30
0.0
 10
5.97195
 20
-2.1368
 30
0.0
 10
6.04774
 20
-2.26077
 30
0.0
 10
6.04774
 20
-2.26077
 30
0.0
 10
6.4586
 20
-3.31773
 30
0.0
 10
7.30254
 20
-4.0965
 30
0.0
 10
8.13866
 20
-4.864
 30
0.0
 10
8.13866
 20
-4.864
 30
0.0
 10
8.52542
 20
-5.21904
 30
0.0
 10
9.19548
 20
-5.72149
 30
0.0
 10
9.36417
 20
-6.1316
 30
0.0
 10
9.36417
 20
-6.1316
 30
0.0
 10
9.46062
 20
-6.36607
 30
0.0
 10
9.40179
 20
-6.72899
 30
0.0
 10
9.41042
 20
-7.0364
 30
0.0
 10
9.41042
 20
-7.0364
 30
0.0
 10
9.45028
 20
-8.46285
 30
0.0
 10
9.67421
 20
-9.89866
 30
0.0
 10
9.39931
 20
-11.24914
 30
0.0
 10
9.39931
 20
-11.24914
 30
0.0
 10
9.39931
 20
-11.24914
 30
0.0
 10
8.44322
 20
-11.33946
 30
0.0
 10
8.44322
 20
-11.33946
 30
0.0
 10
8.44322
 20
-11.33946
 30
0.0
 10
8.43922
 20
-11.3398
 30
0.0
 10
8.43524
 20
-11.34027
 30
0.0
 10
8.43131
 20
-11.34082
 30
0.0
 10
8.43131
 20
-11.34082
 30
0.0
 10
8.43131
 20
-11.34082
 30
0.0
 10
8.21098
 20
-11.36076
 30
0.0
 10
8.21098
 20
-11.36076
 30
0.0
 10
8.21098
 20
-11.36076
 30
0.0
 10
8.21098
 20
-11.36076
 30
0.0
 10
8.24696
 20
-11.75835
 30
0.0
 10
8.24696
 20
-11.75835
 30
0.0
 10
8.24696
 20
-11.75835
 30
0.0
 10
8.24696
 20
-11.75835
 30
0.0
 10
8.49778
 20
-11.73566
 30
0.0
 10
8.49778
 20
-11.73566
 30
0.0
 10
8.49778
 20
-11.73566
 30
0.0
 10
8.49778
 20
-11.73566
 30
0.0
 10
9.37367
 20
-11.66921
 30
0.0
 10
9.37367
 20
-11.66921
 30
0.0
  0
SPLINE
  5
4A
330
1F
100
AcDbEntity
  8
Livello 1
 62
   250
370
     5
100
AcDbSpline
210
0.0
220
0.0
230
1.0
 70
    11
 71
     3
 72
   112
 73
   108
 74
     0
 42
0.0000000001
 43
0.0000000001
 40
0.0
 40
0.0
 40
0.0
 40
0.0
 40
0.0357142857142857
 40
0.0357142857142857
 40
0.0357142857142857
 40
0.0357142857142857
 40
0.0714285714285714
 40
0.0714285714285714
 40
0.0714285714285714
 40
0.0714285714285714
 40
0.1071428571428571
 40
0.1071428571428571
 40
0.1071428571428571
 40
0.1071428571428571
 40
0.1428571428571428
 40
0.1428571428571428
 40
0.1428571428571428
 40
0.1428571428571428
 40
0.1785714285714286
 40
0.1785714285714286
 40
0.1785714285714286
 40
0.1785714285714286
 40
0.2142857142857143
 40
0.2142857142857143
 40
0.2142857142857143
 40
0.2142857142857143
 40
0.25
 40
0.25
 40
0.25
 40
0.25
 40
0.2857142857142857
 40
0.2857142857142857
 40
0.2857142857142857
 40
0.2857142857142857
 40
0.3214285714285715
 40
0.3214285714285715
 40
0.3214285714285715
 40
0.3214285714285715
 40
0.3571428571428572
 40
0.3571428571428572
 40
0.3571428571428572
 40
0.3571428571428572
 40
0.3928571428571428
 40
0.3928571428571428
 40
0.3928571428571428
 40
0.3928571428571428
 40
0.4285714285714285
 40
0.4285714285714285
 40
0.4285714285714285
 40
0.4285714285714285
 40
0.4642857142857143
 40
0.4642857142857143
 40
0.4642857142857143
 40
0.4642857142857143
 40
0.5
 40
0.5
 40
0.5
 40
0.5
 40
0.5357142857142857
 40
0.5357142857142857
 40
0.5357142857142857
 40
0.5357142857142857
 40
0.5714285714285714
 40
0.5714285714285714
 40
0.5714285714285714
 40
0.5714285714285714
 40
0.6071428571428571
 40
0.6071428571428571
 40
0.6071428571428571
 40
0.6071428571428571
 40
0.6428571428571429
 40
0.6428571428571429
 40
0.6428571428571429
 40
0.6428571428571429
 40
0.6785714285714286
 40
0.6785714285714286
 40
0.6785714285714286
 40
0.6785714285714286
 40
0.7142857142857143
 40
0.7142857142857143
 40
0.7142857142857143
 40
0.7142857142857143
 40
0.75
 40
0.75
 40
0.75
 40
0.75
 40
0.7857142857142857
 40
0.7857142857142857
 40
0.7857142857142857
 40
0.7857142857142857
 40
0.8214285714285714
 40
0.8214285714285714
 40
0.8214285714285714
 40
0.8214285714285714
 40
0.8571428571428571
 40
0.8571428571428571
 40
0.8571428571428571
 40
0.8571428571428571
 40
0.8928571428571429
 40
0.8928571428571429
 40
0.8928571428571429
 40
0.8928571428571429
 40
0.9285714285714286
 40
0.9285714285714286
 40
0.9285714285714286
 40
0.9285714285714286
 40
1.0
 40
1.0
 40
1.0
 40
1.0
 10
-8.07504
 20
3.06263
 30
0.0
 10
-7.94363
 20
2.0273
 30
0.0
 10
-7.54485
 20
0.88213
 30
0.0
 10
-6.5736
 20
0.69009
 30
0.0
 10
-6.5736
 20
0.69009
 30
0.0
 10
-5.92344
 20
0.56153
 30
0.0
 10
-4.90478
 20
0.87956
 30
0.0
 10
-4.55874
 20
1.39596
 30
0.0
 10
-4.55874
 20
1.39596
 30
0.0
 10
-4.22653
 20
1.8918
 30
0.0
 10
-4.2637
 20
2.62008
 30
0.0
 10
-4.32956
 20
3.32733
 30
0.0
 10
-4.32956
 20
3.32733
 30
0.0
 10
-4.43102
 20
4.41624
 30
0.0
 10
-5.00992
 20
5.51996
 30
0.0
 10
-5.06201
 20
6.40622
 30
0.0
 10
-5.06201
 20
6.40622
 30
0.0
 10
-5.1031
 20
7.10588
 30
0.0
 10
-4.72621
 20
7.24536
 30
0.0
 10
-4.29013
 20
7.69849
 30
0.0
 10
-4.29013
 20
7.69849
 30
0.0
 10
-4.0368
 20
7.96179
 30
0.0
 10
-3.74906
 20
8.28265
 30
0.0
 10
-3.49385
 20
8.54265
 30
0.0
 10
-3.49385
 20
8.54265
 30
0.0
 10
-2.99892
 20
9.04679
 30
0.0
 10
-2.43546
 20
9.51135
 30
0.0
 10
-2.07402
 20
9.91192
 30
0.0
 10
-2.07402
 20
9.91192
 30
0.0
 10
-1.81511
 20
10.19892
 30
0.0
 10
-1.56456
 20
10.58325
 30
0.0
 10
-1.54252
 20
10.88994
 30
0.0
 10
-1.54252
 20
10.88994
 30
0.0
 10
-1.51775
 20
11.23588
 30
0.0
 10
-1.73937
 20
11.62893
 30
0.0
 10
-1.82216
 20
12.00243
 30
0.0
 10
-1.82216
 20
12.00243
 30
0.0
 10
-1.90992
 20
12.39855
 30
0.0
 10
-1.91178
 20
12.75773
 30
0.0
 10
-2.04111
 20
13.0958
 30
0.0
 10
-2.04111
 20
13.0958
 30
0.0
 10
-2.26485
 20
13.31806
 30
0.0
 10
-3.50519
 20
13.29269
 30
0.0
 10
-3.76332
 20
13.12928
 30
0.0
 10
-3.76332
 20
13.12928
 30
0.0
 10
-3.88696
 20
13.05104
 30
0.0
 10
-3.97492
 20
12.94756
 30
0.0
 10
-3.96951
 20
12.73503
 30
0.0
 10
-3.96951
 20
12.73503
 30
0.0
 10
-3.96951
 20
12.73503
 30
0.0
 10
-3.75499
 20
12.73118
 30
0.0
 10
-3.75499
 20
12.73118
 30
0.0
 10
-3.75499
 20
12.73118
 30
0.0
 10
-3.75499
 20
12.73118
 30
0.0
 10
-2.70282
 20
12.73117
 30
0.0
 10
-2.70282
 20
12.73117
 30
0.0
 10
-2.70282
 20
12.73117
 30
0.0
 10
-2.70282
 20
12.73117
 30
0.0
 10
-2.70284
 20
12.33196
 30
0.0
 10
-2.70284
 20
12.33196
 30
0.0
 10
-2.70284
 20
12.33196
 30
0.0
 10
-2.70284
 20
12.33196
 30
0.0
 10
-2.86743
 20
12.33196
 30
0.0
 10
-2.86743
 20
12.33196
 30
0.0
 10
-2.86743
 20
12.33196
 30
0.0
 10
-2.89463
 20
12.32223
 30
0.0
 10
-2.92449
 20
12.3171
 30
0.0
 10
-2.95575
 20
12.31766
 30
0.0
 10
-2.95575
 20
12.31766
 30
0.0
 10
-2.95575
 20
12.31766
 30
0.0
 10
-3.96196
 20
12.32776
 30
0.0
 10
-3.96196
 20
12.32776
 30
0.0
 10
-3.96196
 20
12.32776
 30
0.0
 10
-3.95483
 20
11.76797
 30
0.0
 10
-3.4099
 20
11.48019
 30
0.0
 10
-3.12974
 20
11.10066
 30
0.0
 10
-3.12974
 20
11.10066
 30
0.0
 10
-3.2398
 20
10.76164
 30
0.0
 10
-3.65345
 20
10.66178
 30
0.0
 10
-3.92603
 20
10.47555
 30
0.0
 10
-3.92603
 20
10.47555
 30
0.0
 10
-4.07989
 20
10.50238
 30
0.0
 10
-4.20215
 20
10.72289
 30
0.0
 10
-4.38184
 20
10.62974
 30
0.0
 10
-4.38184
 20
10.62974
 30
0.0
 10
-4.54188
 20
10.54985
 30
0.0
 10
-4.63893
 20
10.38864
 30
0.0
 10
-4.76175
 20
10.26699
 30
0.0
 10
-4.76175
 20
10.26699
 30
0.0
 10
-4.84599
 20
10.23774
 30
0.0
 10
-4.92031
 20
10.32475
 30
0.0
 10
-5.00699
 20
10.30771
 30
0.0
 10
-5.00699
 20
10.30771
 30
0.0
 10
-5.41498
 20
10.05145
 30
0.0
 10
-5.35899
 20
9.71611
 30
0.0
 10
-5.71111
 20
9.44755
 30
0.0
 10
-5.71111
 20
9.44755
 30
0.0
 10
-6.25833
 20
9.03023
 30
0.0
 10
-7.42694
 20
9.15346
 30
0.0
 10
-7.61235
 20
8.31299
 30
0.0
 10
-7.61235
 20
8.31299
 30
0.0
 10
-7.6615
 20
8.0903
 30
0.0
 10
-7.52631
 20
7.85374
 30
0.0
 10
-7.50712
 20
7.63069
 30
0.0
 10
-7.50712
 20
7.63069
 30
0.0
 10
-7.38323
 20
6.1915
 30
0.0
 10
-8.29572
 20
4.65558
 30
0.0
 10
-8.07504
 20
3.06263
 30
0.0
  0
SPLINE
  5
4B
330
1F
100
AcDbEntity
  8
Livello 1
 62
   250
370
     5
100
AcDbSpline
210
0.0
220
0.0
230
1.0
 70
    11
 71
     3
 72
    20
 73
    16
 74
     0
 42
0.0000000001
 43
0.0000000001
 40
0.0
 40
0.0
 40
0.0
 40
0.0
 40
0.2
 40
0.2
 40
0.2
 40
0.2
 40
0.4
 40
0.4
 40
0.4
 40
0.4
 40
0.6
 40
0.6
 40
0.6
 40
0.6
 40
1.0
 40
1.0
 40
1.0
 40
1.0
 10
-5.9745
 20
4.17667
 30
0.0
 10
-5.9745
 20
4.17667
 30
0.0
 10
-5.58599
 20
4.26845
 30
0.0
 10
-5.58599
 20
4.26845
 30
0.0
 10
-5.58599
 20
4.26845
 30
0.0
 10
-5.58599
 20
4.26845
 30
0.0
 10
-4.95585
 20
1.60122
 30
0.0
 10
-4.95585
 20
1.60122
 30
0.0
 10
-4.95585
 20
1.60122
 30
0.0
 10
-4.95585
 20
1.60122
 30
0.0
 10
-5.34436
 20
1.50945
 30
0.0
 10
-5.34436
 20
1.50945
 30
0.0
 10
-5.34436
 20
1.50945
 30
0.0
 10
-5.34436
 20
1.50945
 30
0.0
 10
-5.9745
 20
4.17667
 30
0.0
 10
-5.9745
 20
4.17667
 30
0.0
  0
SPLINE
  5
4C
330
1F
100
AcDbEntity
  8
Livello 1
 62
   250
370
     5
100
AcDbSpline
210
0.0
220
0.0
230
1.0
 70
    11
 71
     3
 72
    92
 73
    88
 74
     0
 42
0.0000000001
 43
0.0000000001
 40
0.0
 40
0.0
 40
0.0
 40
0.0
 40
0.0434782608695652
 40
0.0434782608695652
 40
0.0434782608695652
 40
0.0434782608695652
 40
0.0869565217391304
 40
0.0869565217391304
 40
0.0869565217391304
 40
0.0869565217391304
 40
0.1304347826086956
 40
0.1304347826086956
 40
0.1304347826086956
 40
0.1304347826086956
 40
0.1739130434782609
 40
0.1739130434782609
 40
0.1739130434782609
 40
0.1739130434782609
 40
0.2173913043478261
 40
0.2173913043478261
 40
0.2173913043478261
 40
0.2173913043478261
 40
0.2608695652173913
 40
0.2608695652173913
 40
0.2608695652173913
 40
0.2608695652173913
 40
0.3043478260869565
 40
0.3043478260869565
 40
0.3043478260869565
 40
0.3043478260869565
 40
0.3478260869565217
 40
0.3478260869565217
 40
0.3478260869565217
 40
0.3478260869565217
 40
0.391304347826087
 40
0.391304347826087
 40
0.391304347826087
 40
0.391304347826087
 40
0.4347826086956522
 40
0.4347826086956522
 40
0.4347826086956522
 40
0.4347826086956522
 40
0.4782608695652174
 40
0.4782608695652174
 40
0.4782608695652174
 40
0.4782608695652174
 40
0.5217391304347826
 40
0.5217391304347826
 40
0.5217391304347826
 40
0.5217391304347826
 40
0.5652173913043478
 40
0.5652173913043478
 40
0.5652173913043478
 40
0.5652173913043478
 40
0.6086956521739131
 40
0.6086956521739131
 40
0.6086956521739131
 40
0.6086956521739131
 40
0.6521739130434783
 40
0.6521739130434783
 40
0.6521739130434783
 40
0.6521739130434783
 40
0.6956521739130435
 40
0.6956521739130435
 40
0.6956521739130435
 40
0.6956521739130435
 40
0.7391304347826086
 40
0.7391304347826086
 40
0.7391304347826086
 40
0.7391304347826086
 40
0.782608695652174
 40
0.782608695652174
 40
0.782608695652174
 40
0.782608695652174
 40
0.8260869565217391
 40
0.8260869565217391
 40
0.8260869565217391
 40
0.8260869565217391
 40
0.8695652173913043
 40
0.8695652173913043
 40
0.8695652173913043
 40
0.8695652173913043
 40
0.9130434782608695
 40
0.9130434782608695
 40
0.9130434782608695
 40
0.9130434782608695
 40
1.0
 40
1.0
 40
1.0
 40
1.0
 10
-3.06691
 20
1.82158
 30
0.0
 10
-3.08751
 20
1.38611
 30
0.0
 10
-2.55216
 20
0.54752
 30
0.0
 10
-2.11636
 20
1.02713
 30
0.0
 10
-2.11636
 20
1.02713
 30
0.0
 10
-2.20713
 20
1.38763
 30
0.0
 10
-2.56687
 20
1.42503
 30
0.0
 10
-2.59644
 20
1.73753
 30
0.0
 10
-2.59644
 20
1.73753
 30
0.0
 10
-2.6389
 20
2.18604
 30
0.0
 10
-2.02149
 20
2.35077
 30
0.0
 10
-1.9517
 20
2.83076
 30
0.0
 10
-1.9517
 20
2.83076
 30
0.0
 10
-1.91223
 20
2.9907
 30
0.0
 10
-2.06867
 20
3.12785
 30
0.0
 10
-2.01143
 20
3.28182
 30
0.0
 10
-2.01143
 20
3.28182
 30
0.0
 10
-1.79608
 20
3.61489
 30
0.0
 10
-1.37286
 20
3.55642
 30
0.0
 10
-1.04074
 20
3.62363
 30
0.0
 10
-1.04074
 20
3.62363
 30
0.0
 10
0.36561
 20
3.90819
 30
0.0
 10
2.19778
 20
4.8312
 30
0.0
 10
2.42639
 20
5.98512
 30
0.0
 10
2.42639
 20
5.98512
 30
0.0
 10
2.55506
 20
6.63435
 30
0.0
 10
2.51755
 20
7.47429
 30
0.0
 10
2.48354
 20
8.21944
 30
0.0
 10
2.48354
 20
8.21944
 30
0.0
 10
2.44969
 20
8.96016
 30
0.0
 10
2.34038
 20
9.77575
 30
0.0
 10
2.18838
 20
10.52395
 30
0.0
 10
2.18838
 20
10.52395
 30
0.0
 10
2.04644
 20
11.22244
 30
0.0
 10
1.87216
 20
12.04785
 30
0.0
 10
1.416
 20
12.50618
 30
0.0
 10
1.416
 20
12.50618
 30
0.0
 10
1.416
 20
12.50618
 30
0.0
 10
0.7191
 20
11.91686
 30
0.0
 10
0.7191
 20
11.91686
 30
0.0
 10
0.7191
 20
11.91686
 30
0.0
 10
0.7191
 20
11.91686
 30
0.0
 10
0.5533
 20
11.77277
 30
0.0
 10
0.5533
 20
11.77277
 30
0.0
 10
0.5533
 20
11.77277
 30
0.0
 10
0.54387
 20
11.76459
 30
0.0
 10
0.53381
 20
11.75741
 30
0.0
 10
0.52324
 20
11.75122
 30
0.0
 10
0.52324
 20
11.75122
 30
0.0
 10
0.52324
 20
11.75122
 30
0.0
 10
0.3967
 20
11.64421
 30
0.0
 10
0.3967
 20
11.64421
 30
0.0
 10
0.3967
 20
11.64421
 30
0.0
 10
0.3967
 20
11.64421
 30
0.0
 10
0.13892
 20
11.94904
 30
0.0
 10
0.13892
 20
11.94904
 30
0.0
 10
0.13892
 20
11.94904
 30
0.0
 10
0.13892
 20
11.94904
 30
0.0
 10
1.04035
 20
12.71132
 30
0.0
 10
1.04035
 20
12.71132
 30
0.0
 10
1.04035
 20
12.71132
 30
0.0
 10
0.48145
 20
12.9477
 30
0.0
 10
-0.20924
 20
12.70999
 30
0.0
 10
-0.53936
 20
12.3627
 30
0.0
 10
-0.53936
 20
12.3627
 30
0.0
 10
-1.35051
 20
11.50946
 30
0.0
 10
-0.5415
 20
9.99032
 30
0.0
 10
0.56748
 20
9.72108
 30
0.0
 10
0.56748
 20
9.72108
 30
0.0
 10
0.89546
 20
8.59209
 30
0.0
 10
0.85516
 20
7.31457
 30
0.0
 10
1.42486
 20
6.28833
 30
0.0
 10
1.42486
 20
6.28833
 30
0.0
 10
1.1688
 20
6.02494
 30
0.0
 10
0.7827
 20
5.79177
 30
0.0
 10
0.37796
 20
5.51558
 30
0.0
 10
0.37796
 20
5.51558
 30
0.0
 10
0.0397
 20
5.28473
 30
0.0
 10
-0.32524
 20
5.02892
 30
0.0
 10
-0.68717
 20
4.80051
 30
0.0
 10
-0.68717
 20
4.80051
 30
0.0
 10
-1.08972
 20
4.54648
 30
0.0
 10
-1.4766
 20
4.43701
 30
0.0
 10
-1.85596
 20
4.27406
 30
0.0
 10
-1.85596
 20
4.27406
 30
0.0
 10
-2.78174
 20
3.87648
 30
0.0
 10
-2.98859
 20
2.97266
 30
0.0
 10
-3.06691
 20
1.82158
 30
0.0
  0
SPLINE
  5
4D
330
1F
100
AcDbEntity
  8
Livello 1
 62
   250
370
     5
100
AcDbSpline
210
0.0
220
0.0
230
1.0
 70
    11
 71
     3
 72
    88
 73
    84
 74
     0
 42
0.0000000001
 43
0.0000000001
 40
0.0
 40
0.0
 40
0.0
 40
0.0
 40
0.0454545454545455
 40
0.0454545454545455
 40
0.0454545454545455
 40
0.0454545454545455
 40
0.0909090909090909
 40
0.0909090909090909
 40
0.0909090909090909
 40
0.0909090909090909
 40
0.1363636363636364
 40
0.1363636363636364
 40
0.1363636363636364
 40
0.1363636363636364
 40
0.1818181818181818
 40
0.1818181818181818
 40
0.1818181818181818
 40
0.1818181818181818
 40
0.2272727272727273
 40
0.2272727272727273
 40
0.2272727272727273
 40
0.2272727272727273
 40
0.2727272727272727
 40
0.2727272727272727
 40
0.2727272727272727
 40
0.2727272727272727
 40
0.3181818181818182
 40
0.3181818181818182
 40
0.3181818181818182
 40
0.3181818181818182
 40
0.3636363636363636
 40
0.3636363636363636
 40
0.3636363636363636
 40
0.3636363636363636
 40
0.4090909090909091
 40
0.4090909090909091
 40
0.4090909090909091
 40
0.4090909090909091
 40
0.4545454545454545
 40
0.4545454545454545
 40
0.4545454545454545
 40
0.4545454545454545
 40
0.5
 40
0.5
 40
0.5
 40
0.5
 40
0.5454545454545454
 40
0.5454545454545454
 40
0.5454545454545454
 40
0.5454545454545454
 40
0.5909090909090909
 40
0.5909090909090909
 40
0.5909090909090909
 40
0.5909090909090909
 40
0.6363636363636364
 40
0.6363636363636364
 40
0.6363636363636364
 40
0.6363636363636364
 40
0.6818181818181818
 40
0.6818181818181818
 40
0.6818181818181818
 40
0.6818181818181818
 40
0.7272727272727273
 40
0.7272727272727273
 40
0.7272727272727273
 40
0.7272727272727273
 40
0.7727272727272727
 40
0.7727272727272727
 40
0.7727272727272727
 40
0.7727272727272727
 40
0.8181818181818182
 40
0.8181818181818182
 40
0.8181818181818182
 40
0.8181818181818182
 40
0.8636363636363636
 40
0.8636363636363636
 40
0.8636363636363636
 40
0.8636363636363636
 40
0.9090909090909091
 40
0.9090909090909091
 40
0.9090909090909091
 40
0.9090909090909091
 40
1.0
 40
1.0
 40
1.0
 40
1.0
 10
3.51509
 20
5.84763
 30
0.0
 10
3.41267
 20
5.25589
 30
0.0
 10
3.72691
 20
4.68933
 30
0.0
 10
4.23861
 20
4.40367
 30
0.0
 10
4.23861
 20
4.40367
 30
0.0
 10
4.76673
 20
2.76709
 30
0.0
 10
6.39198
 20
1.83304
 30
0.0
 10
7.16294
 20
0.36524
 30
0.0
 10
7.16294
 20
0.36524
 30
0.0
 10
7.52404
 20
0.28509
 30
0.0
 10
7.86158
 20
0.56723
 30
0.0
 10
7.91456
 20
0.92545
 30
0.0
 10
7.91456
 20
0.92545
 30
0.0
 10
7.19307
 20
2.4232
 30
0.0
 10
6.41638
 20
3.69633
 30
0.0
 10
5.61996
 20
5.24303
 30
0.0
 10
5.61996
 20
5.24303
 30
0.0
 10
5.49053
 20
5.49439
 30
0.0
 10
5.32183
 20
5.68014
 30
0.0
 10
5.39943
 20
5.94883
 30
0.0
 10
5.39943
 20
5.94883
 30
0.0
 10
5.4575
 20
6.14942
 30
0.0
 10
5.76492
 20
6.34861
 30
0.0
 10
5.93338
 20
6.54611
 30
0.0
 10
5.93338
 20
6.54611
 30
0.0
 10
6.19946
 20
6.85814
 30
0.0
 10
6.47615
 20
7.29693
 30
0.0
 10
6.61187
 20
7.67859
 30
0.0
 10
6.61187
 20
7.67859
 30
0.0
 10
6.79937
 20
8.2059
 30
0.0
 10
6.79827
 20
8.97237
 30
0.0
 10
6.92655
 20
9.4813
 30
0.0
 10
6.92655
 20
9.4813
 30
0.0
 10
6.98731
 20
9.72235
 30
0.0
 10
7.11388
 20
9.93791
 30
0.0
 10
7.14565
 20
10.19193
 30
0.0
 10
7.14565
 20
10.19193
 30
0.0
 10
7.24436
 20
10.98136
 30
0.0
 10
6.73092
 20
12.15016
 30
0.0
 10
5.71353
 20
12.00448
 30
0.0
 10
5.71353
 20
12.00448
 30
0.0
 10
5.71353
 20
12.00448
 30
0.0
 10
5.72141
 20
11.99554
 30
0.0
 10
5.72141
 20
11.99554
 30
0.0
 10
5.72141
 20
11.99554
 30
0.0
 10
5.72141
 20
11.99554
 30
0.0
 10
6.30145
 20
11.3552
 30
0.0
 10
6.30145
 20
11.3552
 30
0.0
 10
6.30145
 20
11.3552
 30
0.0
 10
6.31275
 20
11.34272
 30
0.0
 10
6.3262
 20
11.32174
 30
0.0
 10
6.33713
 20
11.29607
 30
0.0
 10
6.33713
 20
11.29607
 30
0.0
 10
6.33713
 20
11.29607
 30
0.0
 10
6.44009
 20
11.17911
 30
0.0
 10
6.44009
 20
11.17911
 30
0.0
 10
6.44009
 20
11.17911
 30
0.0
 10
6.44009
 20
11.17911
 30
0.0
 10
6.14046
 20
10.91533
 30
0.0
 10
6.14046
 20
10.91533
 30
0.0
 10
6.14046
 20
10.91533
 30
0.0
 10
6.14046
 20
10.91533
 30
0.0
 10
5.42235
 20
11.73111
 30
0.0
 10
5.42235
 20
11.73111
 30
0.0
 10
5.42235
 20
11.73111
 30
0.0
 10
5.42235
 20
11.73111
 30
0.0
 10
5.32504
 20
11.83854
 30
0.0
 10
5.32504
 20
11.83854
 30
0.0
 10
5.32504
 20
11.83854
 30
0.0
 10
5.31528
 20
11.84934
 30
0.0
 10
5.30681
 20
11.86087
 30
0.0
 10
5.29815
 20
11.8722
 30
0.0
 10
5.29815
 20
11.8722
 30
0.0
 10
5.29815
 20
11.8722
 30
0.0
 10
5.29558
 20
11.87512
 30
0.0
 10
5.29558
 20
11.87512
 30
0.0
 10
5.29558
 20
11.87512
 30
0.0
 10
3.7058
 20
11.04653
 30
0.0
 10
4.70534
 20
8.28425
 30
0.0
 10
3.95433
 20
6.61064
 30
0.0
 10
3.95433
 20
6.61064
 30
0.0
 10
3.83492
 20
6.34458
 30
0.0
 10
3.62247
 20
6.14607
 30
0.0
 10
3.51509
 20
5.84763
 30
0.0
  0
SPLINE
  5
4E
330
1F
100
AcDbEntity
  8
Livello 1
 62
   250
370
     5
100
AcDbSpline
210
0.0
220
0.0
230
1.0
 70
    11
 71
     3
 72
    72
 73
    68
 74
     0
 42
0.0000000001
 43
0.0000000001
 40
0.0
 40
0.0
 40
0.0
 40
0.0
 40
0.0555555555555556
 40
0.0555555555555556
 40
0.0555555555555556
 40
0.0555555555555556
 40
0.1111111111111111
 40
0.1111111111111111
 40
0.1111111111111111
 40
0.1111111111111111
 40
0.1666666666666667
 40
0.1666666666666667
 40
0.1666666666666667
 40
0.1666666666666667
 40
0.2222222222222222
 40
0.2222222222222222
 40
0.2222222222222222
 40
0.2222222222222222
 40
0.2777777777777778
 40
0.2777777777777778
 40
0.2777777777777778
 40
0.2777777777777778
 40
0.3333333333333333
 40
0.3333333333333333
 40
0.3333333333333333
 40
0.3333333333333333
 40
0.3888888888888889
 40
0.3888888888888889
 40
0.3888888888888889
 40
0.3888888888888889
 40
0.4444444444444444
 40
0.4444444444444444
 40
0.4444444444444444
 40
0.4444444444444444
 40
0.5
 40
0.5
 40
0.5
 40
0.5
 40
0.5555555555555556
 40
0.5555555555555556
 40
0.5555555555555556
 40
0.5555555555555556
 40
0.6111111111111112
 40
0.6111111111111112
 40
0.6111111111111112
 40
0.6111111111111112
 40
0.6666666666666666
 40
0.6666666666666666
 40
0.6666666666666666
 40
0.6666666666666666
 40
0.7222222222222222
 40
0.7222222222222222
 40
0.7222222222222222
 40
0.7222222222222222
 40
0.7777777777777778
 40
0.7777777777777778
 40
0.7777777777777778
 40
0.7777777777777778
 40
0.8333333333333334
 40
0.8333333333333334
 40
0.8333333333333334
 40
0.8333333333333334
 40
0.8888888888888888
 40
0.8888888888888888
 40
0.8888888888888888
 40
0.8888888888888888
 40
1.0
 40
1.0
 40
1.0
 40
1.0
 10
-2.37542
 20
-4.33256
 30
0.0
 10
-2.58409
 20
-3.59332
 30
0.0
 10
-1.85645
 20
-3.04696
 30
0.0
 10
-1.37854
 20
-2.54182
 30
0.0
 10
-1.37854
 20
-2.54182
 30
0.0
 10
-0.90637
 20
-2.04281
 30
0.0
 10
-0.49912
 20
-0.87378
 30
0.0
 10
0.39708
 20
-1.59404
 30
0.0
 10
0.39708
 20
-1.59404
 30
0.0
 10
0.39708
 20
-1.59404
 30
0.0
 10
0.02562
 20
-2.22548
 30
0.0
 10
0.02562
 20
-2.22548
 30
0.0
 10
0.02562
 20
-2.22548
 30
0.0
 10
0.02105
 20
-2.2327
 30
0.0
 10
0.017
 20
-2.24009
 30
0.0
 10
0.01342
 20
-2.24761
 30
0.0
 10
0.01342
 20
-2.24761
 30
0.0
 10
0.01342
 20
-2.24761
 30
0.0
 10
-0.08792
 20
-2.4171
 30
0.0
 10
-0.08792
 20
-2.4171
 30
0.0
 10
-0.08792
 20
-2.4171
 30
0.0
 10
-0.08792
 20
-2.4171
 30
0.0
 10
0.25472
 20
-2.62195
 30
0.0
 10
0.25472
 20
-2.62195
 30
0.0
 10
0.25472
 20
-2.62195
 30
0.0
 10
0.25472
 20
-2.62195
 30
0.0
 10
0.37978
 20
-2.41278
 30
0.0
 10
0.37978
 20
-2.41278
 30
0.0
 10
0.37978
 20
-2.41278
 30
0.0
 10
0.37978
 20
-2.41278
 30
0.0
 10
0.72721
 20
-1.83165
 30
0.0
 10
0.72721
 20
-1.83165
 30
0.0
 10
0.72721
 20
-1.83165
 30
0.0
 10
1.15506
 20
-1.85954
 30
0.0
 10
1.09417
 20
-2.21616
 30
0.0
 10
1.07153
 20
-2.5631
 30
0.0
 10
1.07153
 20
-2.5631
 30
0.0
 10
1.01455
 20
-3.43748
 30
0.0
 10
1.51094
 20
-4.13046
 30
0.0
 10
0.7096
 20
-4.51951
 30
0.0
 10
0.7096
 20
-4.51951
 30
0.0
 10
0.61697
 20
-4.54039
 30
0.0
 10
0.5279
 20
-4.51109
 30
0.0
 10
0.45457
 20
-4.45494
 30
0.0
 10
0.45457
 20
-4.45494
 30
0.0
 10
0.30868
 20
-4.10355
 30
0.0
 10
0.73398
 20
-3.58415
 30
0.0
 10
0.21425
 20
-3.49266
 30
0.0
 10
0.21425
 20
-3.49266
 30
0.0
 10
-0.59207
 20
-3.35076
 30
0.0
 10
-0.90102
 20
-5.46772
 30
0.0
 10
-1.56659
 20
-5.54607
 30
0.0
 10
-1.56659
 20
-5.54607
 30
0.0
 10
-1.7006
 20
-5.44531
 30
0.0
 10
-1.68323
 20
-5.2567
 30
0.0
 10
-1.73183
 20
-5.11252
 30
0.0
 10
-1.73183
 20
-5.11252
 30
0.0
 10
-1.83595
 20
-5.10459
 30
0.0
 10
-1.98304
 20
-5.17359
 30
0.0
 10
-2.06172
 20
-5.05778
 30
0.0
 10
-2.06172
 20
-5.05778
 30
0.0
 10
-2.1386
 20
-4.88401
 30
0.0
 10
-2.06139
 20
-4.70667
 30
0.0
 10
-2.04729
 20
-4.52935
 30
0.0
 10
-2.04729
 20
-4.52935
 30
0.0
 10
-2.11394
 20
-4.40932
 30
0.0
 10
-2.35754
 20
-4.53476
 30
0.0
 10
-2.37542
 20
-4.33256
 30
0.0
  0
SPLINE
  5
4F
330
1F
100
AcDbEntity
  8
Livello 1
 62
   250
100
AcDbSpline
210
0.0
220
0.0
230
1.0
 70
    11
 71
     3
 72
    64
 73
    60
 74
     0
 42
0.0000000001
 43
0.0000000001
 40
0.0
 40
0.0
 40
0.0
 40
0.0
 40
0.0625
 40
0.0625
 40
0.0625
 40
0.0625
 40
0.125
 40
0.125
 40
0.125
 40
0.125
 40
0.1875
 40
0.1875
 40
0.1875
 40
0.1875
 40
0.25
 40
0.25
 40
0.25
 40
0.25
 40
0.3125
 40
0.3125
 40
0.3125
 40
0.3125
 40
0.375
 40
0.375
 40
0.375
 40
0.375
 40
0.4375
 40
0.4375
 40
0.4375
 40
0.4375
 40
0.5
 40
0.5
 40
0.5
 40
0.5
 40
0.5625
 40
0.5625
 40
0.5625
 40
0.5625
 40
0.625
 40
0.625
 40
0.625
 40
0.625
 40
0.6875
 40
0.6875
 40
0.6875
 40
0.6875
 40
0.75
 40
0.75
 40
0.75
 40
0.75
 40
0.8125
 40
0.8125
 40
0.8125
 40
0.8125
 40
0.875
 40
0.875
 40
0.875
 40
0.875
 40
1.0
 40
1.0
 40
1.0
 40
1.0
 10
-1.01792
 20
-3.37045
 30
0.0
 10
-1.01792
 20
-3.37045
 30
0.0
 10
-0.85748
 20
-3.14227
 30
0.0
 10
-0.85748
 20
-3.14227
 30
0.0
 10
-0.85748
 20
-3.14227
 30
0.0
 10
-0.85748
 20
-3.14227
 30
0.0
 10
-1.00593
 20
-2.93145
 30
0.0
 10
-1.00593
 20
-2.93145
 30
0.0
 10
-1.00593
 20
-2.93145
 30
0.0
 10
-1.00593
 20
-2.93145
 30
0.0
 10
-0.91293
 20
-2.93145
 30
0.0
 10
-0.91293
 20
-2.93145
 30
0.0
 10
-0.91293
 20
-2.93145
 30
0.0
 10
-0.91293
 20
-2.93145
 30
0.0
 10
-0.84548
 20
-3.03432
 30
0.0
 10
-0.84548
 20
-3.03432
 30
0.0
 10
-0.84548
 20
-3.03432
 30
0.0
 10
-0.83292
 20
-3.05394
 30
0.0
 10
-0.82262
 20
-3.07031
 30
0.0
 10
-0.815
 20
-3.08357
 30
0.0
 10
-0.815
 20
-3.08357
 30
0.0
 10
-0.80287
 20
-3.06537
 30
0.0
 10
-0.79172
 20
-3.04928
 30
0.0
 10
-0.78142
 20
-3.03517
 30
0.0
 10
-0.78142
 20
-3.03517
 30
0.0
 10
-0.78142
 20
-3.03517
 30
0.0
 10
-0.70748
 20
-2.93145
 30
0.0
 10
-0.70748
 20
-2.93145
 30
0.0
 10
-0.70748
 20
-2.93145
 30
0.0
 10
-0.70748
 20
-2.93145
 30
0.0
 10
-0.61858
 20
-2.93145
 30
0.0
 10
-0.61858
 20
-2.93145
 30
0.0
 10
-0.61858
 20
-2.93145
 30
0.0
 10
-0.61858
 20
-2.93145
 30
0.0
 10
-0.77027
 20
-3.13818
 30
0.0
 10
-0.77027
 20
-3.13818
 30
0.0
 10
-0.77027
 20
-3.13818
 30
0.0
 10
-0.77027
 20
-3.13818
 30
0.0
 10
-0.607
 20
-3.37045
 30
0.0
 10
-0.607
 20
-3.37045
 30
0.0
 10
-0.607
 20
-3.37045
 30
0.0
 10
-0.607
 20
-3.37045
 30
0.0
 10
-0.6983
 20
-3.37045
 30
0.0
 10
-0.6983
 20
-3.37045
 30
0.0
 10
-0.6983
 20
-3.37045
 30
0.0
 10
-0.6983
 20
-3.37045
 30
0.0
 10
-0.78847
 20
-3.234
 30
0.0
 10
-0.78847
 20
-3.234
 30
0.0
 10
-0.78847
 20
-3.234
 30
0.0
 10
-0.78847
 20
-3.234
 30
0.0
 10
-0.81246
 20
-3.19716
 30
0.0
 10
-0.81246
 20
-3.19716
 30
0.0
 10
-0.81246
 20
-3.19716
 30
0.0
 10
-0.81246
 20
-3.19716
 30
0.0
 10
-0.92775
 20
-3.37045
 30
0.0
 10
-0.92775
 20
-3.37045
 30
0.0
 10
-0.92775
 20
-3.37045
 30
0.0
 10
-0.92775
 20
-3.37045
 30
0.0
 10
-1.01792
 20
-3.37045
 30
0.0
 10
-1.01792
 20
-3.37045
 30
0.0
  0
SPLINE
  5
50
330
1F
100
AcDbEntity
  8
Livello 1
 62
   250
100
AcDbSpline
210
0.0
220
0.0
230
1.0
 70
    11
 71
     3
 72
    92
 73
    88
 74
     0
 42
0.0000000001
 43
0.0000000001
 40
0.0
 40
0.0
 40
0.0
 40
0.0
 40
0.0434782608695652
 40
0.0434782608695652
 40
0.0434782608695652
 40
0.0434782608695652
 40
0.0869565217391304
 40
0.0869565217391304
 40
0.0869565217391304
 40
0.0869565217391304
 40
0.1304347826086956
 40
0.1304347826086956
 40
0.1304347826086956
 40
0.1304347826086956
 40
0.1739130434782609
 40
0.1739130434782609
 40
0.1739130434782609
 40
0.1739130434782609
 40
0.2173913043478261
 40
0.2173913043478261
 40
0.2173913043478261
 40
0.2173913043478261
 40
0.2608695652173913
 40
0.2608695652173913
 40
0.2608695652173913
 40
0.2608695652173913
 40
0.3043478260869565
 40
0.3043478260869565
 40
0.3043478260869565
 40
0.3043478260869565
 40
0.3478260869565217
 40
0.3478260869565217
 40
0.3478260869565217
 40
0.3478260869565217
 40
0.391304347826087
 40
0.391304347826087
 40
0.391304347826087
 40
0.391304347826087
 40
0.4347826086956522
 40
0.4347826086956522
 40
0.4347826086956522
 40
0.4347826086956522
 40
0.4782608695652174
 40
0.4782608695652174
 40
0.4782608695652174
 40
0.4782608695652174
 40
0.5217391304347826
 40
0.5217391304347826
 40
0.5217391304347826
 40
0.5217391304347826
 40
0.5652173913043478
 40
0.5652173913043478
 40
0.5652173913043478
 40
0.5652173913043478
 40
0.6086956521739131
 40
0.6086956521739131
 40
0.6086956521739131
 40
0.6086956521739131
 40
0.6521739130434783
 40
0.6521739130434783
 40
0.6521739130434783
 40
0.6521739130434783
 40
0.6956521739130435
 40
0.6956521739130435
 40
0.6956521739130435
 40
0.6956521739130435
 40
0.7391304347826086
 40
0.7391304347826086
 40
0.7391304347826086
 40
0.7391304347826086
 40
0.782608695652174
 40
0.782608695652174
 40
0.782608695652174
 40
0.782608695652174
 40
0.8260869565217391
 40
0.8260869565217391
 40
0.8260869565217391
 40
0.8260869565217391
 40
0.8695652173913043
 40
0.8695652173913043
 40
0.8695652173913043
 40
0.8695652173913043
 40
0.9130434782608695
 40
0.9130434782608695
 40
0.9130434782608695
 40
0.9130434782608695
 40
1.0
 40
1.0
 40
1.0
 40
1.0
 10
-0.17449
 20
-3.29891
 30
0.0
 10
-0.17449
 20
-3.29891
 30
0.0
 10
-0.17449
 20
-3.37045
 30
0.0
 10
-0.17449
 20
-3.37045
 30
0.0
 10
-0.17449
 20
-3.37045
 30
0.0
 10
-0.17449
 20
-3.37045
 30
0.0
 10
-0.57511
 20
-3.37045
 30
0.0
 10
-0.57511
 20
-3.37045
 30
0.0
 10
-0.57511
 20
-3.37045
 30
0.0
 10
-0.57567
 20
-3.35253
 30
0.0
 10
-0.57285
 20
-3.33531
 30
0.0
 10
-0.5665
 20
-3.3188
 30
0.0
 10
-0.5665
 20
-3.3188
 30
0.0
 10
-0.55634
 20
-3.29143
 30
0.0
 10
-0.53997
 20
-3.26462
 30
0.0
 10
-0.51753
 20
-3.23809
 30
0.0
 10
-0.51753
 20
-3.23809
 30
0.0
 10
-0.49496
 20
-3.2117
 30
0.0
 10
-0.4625
 20
-3.18108
 30
0.0
 10
-0.42017
 20
-3.14636
 30
0.0
 10
-0.42017
 20
-3.14636
 30
0.0
 10
-0.35427
 20
-3.09232
 30
0.0
 10
-0.30968
 20
-3.04956
 30
0.0
 10
-0.28653
 20
-3.01795
 30
0.0
 10
-0.28653
 20
-3.01795
 30
0.0
 10
-0.26339
 20
-2.98649
 30
0.0
 10
-0.25182
 20
-2.95657
 30
0.0
 10
-0.25182
 20
-2.92849
 30
0.0
 10
-0.25182
 20
-2.92849
 30
0.0
 10
-0.25182
 20
-2.899
 30
0.0
 10
-0.2624
 20
-2.87416
 30
0.0
 10
-0.28343
 20
-2.85384
 30
0.0
 10
-0.28343
 20
-2.85384
 30
0.0
 10
-0.3046
 20
-2.83366
 30
0.0
 10
-0.33211
 20
-2.8235
 30
0.0
 10
-0.36598
 20
-2.8235
 30
0.0
 10
-0.36598
 20
-2.8235
 30
0.0
 10
-0.40182
 20
-2.8235
 30
0.0
 10
-0.43047
 20
-2.83423
 30
0.0
 10
-0.45192
 20
-2.85582
 30
0.0
 10
-0.45192
 20
-2.85582
 30
0.0
 10
-0.47351
 20
-2.87726
 30
0.0
 10
-0.48437
 20
-2.90704
 30
0.0
 10
-0.48466
 20
-2.945
 30
0.0
 10
-0.48466
 20
-2.945
 30
0.0
 10
-0.48466
 20
-2.945
 30
0.0
 10
-0.56114
 20
-2.93724
 30
0.0
 10
-0.56114
 20
-2.93724
 30
0.0
 10
-0.56114
 20
-2.93724
 30
0.0
 10
-0.55592
 20
-2.88009
 30
0.0
 10
-0.53616
 20
-2.83662
 30
0.0
 10
-0.50201
 20
-2.80671
 30
0.0
 10
-0.50201
 20
-2.80671
 30
0.0
 10
-0.46786
 20
-2.77679
 30
0.0
 10
-0.42186
 20
-2.76184
 30
0.0
 10
-0.36429
 20
-2.76184
 30
0.0
 10
-0.36429
 20
-2.76184
 30
0.0
 10
-0.30615
 20
-2.76184
 30
0.0
 10
-0.26015
 20
-2.77806
 30
0.0
 10
-0.22628
 20
-2.81024
 30
0.0
 10
-0.22628
 20
-2.81024
 30
0.0
 10
-0.19227
 20
-2.84255
 30
0.0
 10
-0.17534
 20
-2.88249
 30
0.0
 10
-0.17534
 20
-2.93018
 30
0.0
 10
-0.17534
 20
-2.93018
 30
0.0
 10
-0.17534
 20
-2.95445
 30
0.0
 10
-0.18028
 20
-2.9783
 30
0.0
 10
-0.1903
 20
-3.00173
 30
0.0
 10
-0.1903
 20
-3.00173
 30
0.0
 10
-0.20017
 20
-3.02515
 30
0.0
 10
-0.21668
 20
-3.04984
 30
0.0
 10
-0.23969
 20
-3.07567
 30
0.0
 10
-0.23969
 20
-3.07567
 30
0.0
 10
-0.26269
 20
-3.10163
 30
0.0
 10
-0.30093
 20
-3.13719
 30
0.0
 10
-0.35441
 20
-3.18235
 30
0.0
 10
-0.35441
 20
-3.18235
 30
0.0
 10
-0.399
 20
-3.21988
 30
0.0
 10
-0.42765
 20
-3.24528
 30
0.0
 10
-0.44035
 20
-3.25869
 30
0.0
 10
-0.44035
 20
-3.25869
 30
0.0
 10
-0.45305
 20
-3.27195
 30
0.0
 10
-0.46349
 20
-3.28536
 30
0.0
 10
-0.47181
 20
-3.29891
 30
0.0
 10
-0.47181
 20
-3.29891
 30
0.0
 10
-0.47181
 20
-3.29891
 30
0.0
 10
-0.17449
 20
-3.29891
 30
0.0
 10
-0.17449
 20
-3.29891
 30
0.0
  0
ENDSEC
  0
SECTION
  2
OBJECTS
  0
DICTIONARY
  5
C
330
0
100
AcDbDictionary
281
     1
  3
ACAD_GROUP
350
D
  3
ACAD_LAYOUT
350
1A
  3
ACAD_MATERIAL
350
3B
  3
ACAD_MLEADERSTYLE
350
72
  3
ACAD_MLINESTYLE
350
17
  3
ACAD_PLOTSETTINGS
350
19
  3
ACAD_PLOTSTYLENAME
350
E
  3
ACAD_TABLESTYLE
350
71
  3
ACAD_VISUALSTYLE
350
2A
  0
DICTIONARY
  5
D
102
{ACAD_REACTORS
330
C
102
}
330
C
100
AcDbDictionary
281
     1
  0
DICTIONARY
  5
1A
102
{ACAD_REACTORS
330
C
102
}
330
C
100
AcDbDictionary
281
     1
  3
Layout1
350
1E
  3
Layout2
350
26
  3
Model
350
22
  0
DICTIONARY
  5
3B
102
{ACAD_REACTORS
330
C
102
}
330
C
100
AcDbDictionary
281
     1
  3
ByBlock
350
3D
  3
ByLayer
350
3C
  3
Global
350
3E
  0
DICTIONARY
  5
72
102
{ACAD_REACTORS
330
C
102
}
330
C
100
AcDbDictionary
281
     1
  0
DICTIONARY
  5
17
102
{ACAD_REACTORS
330
C
102
}
330
C
100
AcDbDictionary
281
     1
  3
Standard
350
18
  0
DICTIONARY
  5
19
102
{ACAD_REACTORS
330
C
102
}
330
C
100
AcDbDictionary
281
     1
  0
ACDBDICTIONARYWDFLT
  5
E
102
{ACAD_REACTORS
330
C
102
}
330
C
100
AcDbDictionary
281
     1
  3
Normal
350
F
100
AcDbDictionaryWithDefault
340
F
  0
DICTIONARY
  5
71
102
{ACAD_REACTORS
330
C
102
}
330
C
100
AcDbDictionary
281
     1
  0
DICTIONARY
  5
2A
102
{ACAD_REACTORS
330
C
102
}
330
C
100
AcDbDictionary
281
     1
  3
2dWireframe
350
2F
  3
3D Hidden
350
31
  3
3dWireframe
350
30
  3
Basic
350
32
  3
Brighten
350
36
  3
ColorChange
350
3A
  3
Conceptual
350
34
  3
Dim
350
35
  3
Facepattern
350
39
  3
Flat
350
2B
  3
FlatWithEdges
350
2C
  3
Gouraud
350
2D
  3
GouraudWithEdges
350
2E
  3
Linepattern
350
38
  3
Realistic
350
33
  3
Thicken
350
37
  0
LAYOUT
  5
1E
102
{ACAD_REACTORS
330
1A
102
}
330
1A
100
AcDbPlotSettings
  1

  2
none_device
  4

  6

 40
0.0
 41
0.0
 42
0.0
 43
0.0
 44
0.0
 45
0.0
 46
0.0
 47
0.0
 48
0.0
 49
0.0
140
0.0
141
0.0
142
1.0
143
1.0
 70
   688
 72
     0
 73
     0
 74
     5
  7

 75
    16
 76
     0
 77
     2
 78
   300
147
1.0
148
0.0
149
0.0
100
AcDbLayout
  1
Layout1
 70
     1
 71
     1
 10
0.0
 20
0.0
 11
12.0
 21
9.0
 12
0.0
 22
0.0
 32
0.0
 14
1.000000000000000E+20
 24
1.000000000000000E+20
 34
1.000000000000000E+20
 15
-1.000000000000000E+20
 25
-1.000000000000000E+20
 35
-1.000000000000000E+20
146
0.0
 13
0.0
 23
0.0
 33
0.0
 16
1.0
 26
0.0
 36
0.0
 17
0.0
 27
1.0
 37
0.0
 76
     0
330
1B
  0
LAYOUT
  5
26
102
{ACAD_REACTORS
330
1A
102
}
330
1A
100
AcDbPlotSettings
  1

  2
none_device
  4

  6

 40
0.0
 41
0.0
 42
0.0
 43
0.0
 44
0.0
 45
0.0
 46
0.0
 47
0.0
 48
0.0
 49
0.0
140
0.0
141
0.0
142
1.0
143
1.0
 70
   688
 72
     0
 73
     0
 74
     5
  7

 75
    16
 76
     0
 77
     2
 78
   300
147
1.0
148
0.0
149
0.0
100
AcDbLayout
  1
Layout2
 70
     1
 71
     2
 10
0.0
 20
0.0
 11
0.0
 21
0.0
 12
0.0
 22
0.0
 32
0.0
 14
0.0
 24
0.0
 34
0.0
 15
0.0
 25
0.0
 35
0.0
146
0.0
 13
0.0
 23
0.0
 33
0.0
 16
1.0
 26
0.0
 36
0.0
 17
0.0
 27
1.0
 37
0.0
 76
     0
330
23
  0
LAYOUT
  5
22
102
{ACAD_REACTORS
330
1A
102
}
330
1A
100
AcDbPlotSettings
  1

  2
none_device
  4

  6

 40
0.0
 41
0.0
 42
0.0
 43
0.0
 44
0.0
 45
0.0
 46
0.0
 47
0.0
 48
0.0
 49
0.0
140
0.0
141
0.0
142
1.0
143
1.0
 70
  1712
 72
     0
 73
     0
 74
     0
  7

 75
     0
 76
     0
 77
     2
 78
   300
147
1.0
148
0.0
149
0.0
100
AcDbLayout
  1
Model
 70
     1
 71
     0
 10
0.0
 20
0.0
 11
12.0
 21
9.0
 12
0.0
 22
0.0
 32
0.0
 14
-9.69935
 24
-12.56163
 34
0.0
 15
9.53839
 25
13.26142
 35
0.0
146
0.0
 13
0.0
 23
0.0
 33
0.0
 16
1.0
 26
0.0
 36
0.0
 17
0.0
 27
1.0
 37
0.0
 76
     0
330
1F
331
29
  0
MATERIAL
  5
3D
102
{ACAD_REACTORS
330
3B
102
}
330
3B
100
AcDbMaterial
  1
ByBlock
 72
     1
 94
      127
  0
MATERIAL
  5
3C
102
{ACAD_REACTORS
330
3B
102
}
330
3B
100
AcDbMaterial
  1
ByLayer
 72
     1
 94
      127
  0
MATERIAL
  5
3E
102
{ACAD_REACTORS
330
3B
102
}
330
3B
100
AcDbMaterial
  1
Global
 72
     1
 94
      127
  0
MLINESTYLE
  5
18
102
{ACAD_REACTORS
330
17
102
}
330
17
100
AcDbMlineStyle
  2
Standard
 70
     0
  3

 62
   256
 51
90.0
 52
90.0
 71
     2
 49
0.5
 62
   256
  6
BYLAYER
 49
-0.5
 62
   256
  6
BYLAYER
  0
ACDBPLACEHOLDER
  5
F
102
{ACAD_REACTORS
330
E
102
}
330
E
  0
VISUALSTYLE
  5
2F
102
{ACAD_REACTORS
330
2A
102
}
102
{ACAD_XDICTIONARY
360
59
102
}
330
2A
100
AcDbVisualStyle
  2
2dWireframe
 70
     4
 71
     0
 72
     2
 73
     0
 90
        0
 40
-0.6
 41
-30.0
 62
     5
 63
     7
421
 16777215
 74
     1
 91
        4
 64
     7
 65
   257
 75
     1
175
     1
 42
1.0
 92
        0
 66
   257
 43
1.0
 76
     1
 77
     6
 78
     2
 67
     7
 79
     5
170
     0
171
     0
290
     0
174
     0
 93
        1
 44
0.0
173
     0
291
     0
 45
0.0
  0
VISUALSTYLE
  5
31
102
{ACAD_REACTORS
330
2A
102
}
102
{ACAD_XDICTIONARY
360
5D
102
}
330
2A
100
AcDbVisualStyle
  2
3D Hidden
 70
     6
 71
     1
 72
     2
 73
     2
 90
        0
 40
-0.6
 41
-30.0
 62
     5
 63
     7
421
 16777215
 74
     2
 91
        2
 64
     7
 65
   257
 75
     2
175
     1
 42
40.0
 92
        0
 66
   257
 43
1.0
 76
     1
 77
     6
 78
     2
 67
     7
 79
     3
170
     0
171
     0
290
     0
174
     0
 93
        1
 44
0.0
173
     0
291
     0
 45
0.0
  0
VISUALSTYLE
  5
30
102
{ACAD_REACTORS
330
2A
102
}
102
{ACAD_XDICTIONARY
360
5B
102
}
330
2A
100
AcDbVisualStyle
  2
3dWireframe
 70
     5
 71
     0
 72
     2
 73
     0
 90
        0
 40
-0.6
 41
-30.0
 62
     5
 63
     7
421
 16777215
 74
     1
 91
        4
 64
     7
 65
   257
 75
     1
175
     1
 42
1.0
 92
        0
 66
   257
 43
1.0
 76
     1
 77
     6
 78
     2
 67
     7
 79
     5
170
     0
171
     0
290
     0
174
     0
 93
        1
 44
0.0
173
     0
291
     0
 45
0.0
  0
VISUALSTYLE
  5
32
102
{ACAD_REACTORS
330
2A
102
}
102
{ACAD_XDICTIONARY
360
5F
102
}
330
2A
100
AcDbVisualStyle
  2
Basic
 70
     7
 71
     1
 72
     0
 73
     1
 90
        0
 40
-0.6
 41
-30.0
 62
     5
 63
     7
421
 16777215
 74
     0
 91
        4
 64
     7
 65
   257
 75
     1
175
     1
 42
1.0
 92
        8
 66
     7
 43
1.0
 76
     1
 77
     6
 78
     2
 67
     7
 79
     5
170
     0
171
     0
290
     0
174
     0
 93
        1
 44
0.0
173
     0
291
     1
 45
0.0
  0
VISUALSTYLE
  5
36
102
{ACAD_REACTORS
330
2A
102
}
102
{ACAD_XDICTIONARY
360
67
102
}
330
2A
100
AcDbVisualStyle
  2
Brighten
 70
    12
 71
     2
 72
     2
 73
     0
 90
        0
 40
-0.6
 41
-30.0
 62
     5
 63
     7
421
 16777215
 74
     1
 91
        4
 64
     7
 65
   257
 75
     1
175
     1
 42
1.0
 92
        8
 66
     7
 43
1.0
 76
     1
 77
     6
 78
     2
 67
     7
 79
     5
170
     0
171
     0
290
     0
174
     0
 93
        1
 44
50.0
173
     0
291
     1
 45
0.0
  0
VISUALSTYLE
  5
3A
102
{ACAD_REACTORS
330
2A
102
}
102
{ACAD_XDICTIONARY
360
6F
102
}
330
2A
100
AcDbVisualStyle
  2
ColorChange
 70
    16
 71
     2
 72
     2
 73
     3
 90
        0
 40
-0.6
 41
-30.0
 62
     5
 63
     8
421
  8421504
 74
     1
 91
        4
 64
     7
 65
   257
 75
     1
175
     1
 42
1.0
 92
        8
 66
     8
424
  8421504
 43
1.0
 76
     1
 77
     6
 78
     2
 67
     7
 79
     5
170
     0
171
     0
290
     0
174
     0
 93
        1
 44
0.0
173
     0
291
     1
 45
0.0
  0
VISUALSTYLE
  5
34
102
{ACAD_REACTORS
330
2A
102
}
102
{ACAD_XDICTIONARY
360
63
102
}
330
2A
100
AcDbVisualStyle
  2
Conceptual
 70
     9
 71
     3
 72
     2
 73
     0
 90
        0
 40
-0.6
 41
-30.0
 62
     5
 63
     7
421
 16777215
 74
     2
 91
        2
 64
     7
 65
   257
 75
     1
175
     1
 42
40.0
 92
        8
 66
     7
 43
1.0
 76
     1
 77
     6
 78
     2
 67
     7
 79
     3
170
     0
171
     0
290
     0
174
     0
 93
        1
 44
0.0
173
     0
291
     0
 45
0.0
  0
VISUALSTYLE
  5
35
102
{ACAD_REACTORS
330
2A
102
}
102
{ACAD_XDICTIONARY
360
65
102
}
330
2A
100
AcDbVisualStyle
  2
Dim
 70
    11
 71
     2
 72
     2
 73
     0
 90
        0
 40
-0.6
 41
-30.0
 62
     5
 63
     7
421
 16777215
 74
     1
 91
        4
 64
     7
 65
   257
 75
     1
175
     1
 42
1.0
 92
        8
 66
     7
 43
1.0
 76
     1
 77
     6
 78
     2
 67
     7
 79
     5
170
     0
171
     0
290
     0
174
     0
 93
        1
 44
-50.0
173
     0
291
     1
 45
0.0
  0
VISUALSTYLE
  5
39
102
{ACAD_REACTORS
330
2A
102
}
102
{ACAD_XDICTIONARY
360
6D
102
}
330
2A
100
AcDbVisualStyle
  2
Facepattern
 70
    15
 71
     2
 72
     2
 73
     0
 90
        0
 40
-0.6
 41
-30.0
 62
     5
 63
     7
421
 16777215
 74
     1
 91
        4
 64
     7
 65
   257
 75
     1
175
     1
 42
1.0
 92
        8
 66
     7
 43
1.0
 76
     1
 77
     6
 78
     2
 67
     7
 79
     5
170
     0
171
     0
290
     0
174
     0
 93
        1
 44
0.0
173
     0
291
     1
 45
0.0
  0
VISUALSTYLE
  5
2B
102
{ACAD_REACTORS
330
2A
102
}
102
{ACAD_XDICTIONARY
360
51
102
}
330
2A
100
AcDbVisualStyle
  2
Flat
 70
     0
 71
     2
 72
     1
 73
     1
 90
        2
 40
-0.6
 41
30.0
 62
     5
 63
     7
421
 16777215
 74
     0
 91
        4
 64
     7
 65
   257
 75
     1
175
     1
 42
1.0
 92
        8
 66
     7
 43
1.0
 76
     1
 77
     6
 78
     2
 67
     7
 79
     5
170
     0
171
     0
290
     0
174
     0
 93
       13
 44
0.0
173
     0
291
     1
 45
0.0
  0
VISUALSTYLE
  5
2C
102
{ACAD_REACTORS
330
2A
102
}
102
{ACAD_XDICTIONARY
360
53
102
}
330
2A
100
AcDbVisualStyle
  2
FlatWithEdges
 70
     1
 71
     2
 72
     1
 73
     1
 90
        2
 40
-0.6
 41
30.0
 62
     5
 63
     7
421
 16777215
 74
     1
 91
        4
 64
     7
 65
   257
 75
     1
175
     1
 42
1.0
 92
        0
 66
   257
 43
1.0
 76
     1
 77
     6
 78
     2
 67
     7
 79
     5
170
     0
171
     0
290
     0
174
     0
 93
       13
 44
0.0
173
     0
291
     1
 45
0.0
  0
VISUALSTYLE
  5
2D
102
{ACAD_REACTORS
330
2A
102
}
102
{ACAD_XDICTIONARY
360
55
102
}
330
2A
100
AcDbVisualStyle
  2
Gouraud
 70
     2
 71
     2
 72
     2
 73
     1
 90
        2
 40
-0.6
 41
30.0
 62
     5
 63
     7
421
 16777215
 74
     0
 91
        4
 64
     7
 65
   257
 75
     1
175
     1
 42
1.0
 92
        0
 66
     7
 43
1.0
 76
     1
 77
     6
 78
     2
 67
     7
 79
     5
170
     0
171
     0
290
     0
174
     0
 93
       13
 44
0.0
173
     0
291
     1
 45
0.0
  0
VISUALSTYLE
  5
2E
102
{ACAD_REACTORS
330
2A
102
}
102
{ACAD_XDICTIONARY
360
57
102
}
330
2A
100
AcDbVisualStyle
  2
GouraudWithEdges
 70
     3
 71
     2
 72
     2
 73
     1
 90
        2
 40
-0.6
 41
30.0
 62
     5
 63
     7
421
 16777215
 74
     1
 91
        4
 64
     7
 65
   257
 75
     1
175
     1
 42
1.0
 92
        0
 66
   257
 43
1.0
 76
     1
 77
     6
 78
     2
 67
     7
 79
     5
170
     0
171
     0
290
     0
174
     0
 93
       13
 44
0.0
173
     0
291
     1
 45
0.0
  0
VISUALSTYLE
  5
38
102
{ACAD_REACTORS
330
2A
102
}
102
{ACAD_XDICTIONARY
360
6B
102
}
330
2A
100
AcDbVisualStyle
  2
Linepattern
 70
    14
 71
     2
 72
     2
 73
     0
 90
        0
 40
-0.6
 41
-30.0
 62
     5
 63
     7
421
 16777215
 74
     1
 91
        4
 64
     7
 65
   257
 75
     7
175
     7
 42
1.0
 92
        8
 66
     7
 43
1.0
 76
     1
 77
     6
 78
     2
 67
     7
 79
     5
170
     0
171
     0
290
     0
174
     0
 93
        1
 44
0.0
173
     0
291
     1
 45
0.0
  0
VISUALSTYLE
  5
33
102
{ACAD_REACTORS
330
2A
102
}
102
{ACAD_XDICTIONARY
360
61
102
}
330
2A
100
AcDbVisualStyle
  2
Realistic
 70
     8
 71
     2
 72
     2
 73
     0
 90
        0
 40
-0.6
 41
-30.0
 62
     5
 63
     7
421
 16777215
 74
     1
 91
        0
 64
     7
 65
   257
 75
     1
175
     1
 42
1.0
 92
        8
 66
     8
424
  7895160
 43
1.0
 76
     1
 77
     6
 78
     2
 67
     7
 79
     5
170
     0
171
     0
290
     0
174
     0
 93
       13
 44
0.0
173
     0
291
     0
 45
0.0
  0
VISUALSTYLE
  5
37
102
{ACAD_REACTORS
330
2A
102
}
102
{ACAD_XDICTIONARY
360
69
102
}
330
2A
100
AcDbVisualStyle
  2
Thicken
 70
    13
 71
     2
 72
     2
 73
     0
 90
        0
 40
-0.6
 41
-30.0
 62
     5
 63
     7
421
 16777215
 74
     1
 91
        4
 64
     7
 65
   257
 75
     1
175
     1
 42
1.0
 92
       12
 66
     7
 43
1.0
 76
     1
 77
     6
 78
     2
 67
     7
 79
     5
170
     0
171
     0
290
     0
174
     0
 93
        1
 44
0.0
173
     0
291
     1
 45
0.0
  0
DICTIONARY
  5
59
330
2F
100
AcDbDictionary
280
     1
281
     1
  3
ACAD_XREC_ROUNDTRIP
360
5A
  0
DICTIONARY
  5
5D
330
31
100
AcDbDictionary
280
     1
281
     1
  3
ACAD_XREC_ROUNDTRIP
360
5E
  0
DICTIONARY
  5
5B
330
30
100
AcDbDictionary
280
     1
281
     1
  3
ACAD_XREC_ROUNDTRIP
360
5C
  0
DICTIONARY
  5
5F
330
32
100
AcDbDictionary
280
     1
281
     1
  3
ACAD_XREC_ROUNDTRIP
360
60
  0
DICTIONARY
  5
67
330
36
100
AcDbDictionary
280
     1
281
     1
  3
ACAD_XREC_ROUNDTRIP
360
68
  0
DICTIONARY
  5
6F
330
3A
100
AcDbDictionary
280
     1
281
     1
  3
ACAD_XREC_ROUNDTRIP
360
70
  0
DICTIONARY
  5
63
330
34
100
AcDbDictionary
280
     1
281
     1
  3
ACAD_XREC_ROUNDTRIP
360
64
  0
DICTIONARY
  5
65
330
35
100
AcDbDictionary
280
     1
281
     1
  3
ACAD_XREC_ROUNDTRIP
360
66
  0
DICTIONARY
  5
6D
330
39
100
AcDbDictionary
280
     1
281
     1
  3
ACAD_XREC_ROUNDTRIP
360
6E
  0
DICTIONARY
  5
51
330
2B
100
AcDbDictionary
280
     1
281
     1
  3
ACAD_XREC_ROUNDTRIP
360
52
  0
DICTIONARY
  5
53
330
2C
100
AcDbDictionary
280
     1
281
     1
  3
ACAD_XREC_ROUNDTRIP
360
54
  0
DICTIONARY
  5
55
330
2D
100
AcDbDictionary
280
     1
281
     1
  3
ACAD_XREC_ROUNDTRIP
360
56
  0
DICTIONARY
  5
57
330
2E
100
AcDbDictionary
280
     1
281
     1
  3
ACAD_XREC_ROUNDTRIP
360
58
  0
DICTIONARY
  5
6B
330
38
100
AcDbDictionary
280
     1
281
     1
  3
ACAD_XREC_ROUNDTRIP
360
6C
  0
DICTIONARY
  5
61
330
33
100
AcDbDictionary
280
     1
281
     1
  3
ACAD_XREC_ROUNDTRIP
360
62
  0
DICTIONARY
  5
69
330
37
100
AcDbDictionary
280
     1
281
     1
  3
ACAD_XREC_ROUNDTRIP
360
6A
  0
XRECORD
  5
5A
102
{ACAD_REACTORS
330
59
102
}
330
59
100
AcDbXrecord
280
     1
102
RTVSPropertyOp0
 70
     1
102
RTVSPropertyOp1
 70
     1
102
RTVSPropertyOp2
 70
     1
102
RTVSPropertyOp3
 70
     1
102
RTVSPropertyOp4
 70
     1
102
RTVSPropertyOp5
 70
     1
102
RTVSPropertyOp6
 70
     1
102
RTVSPropertyOp7
 70
     1
102
RTVSPropertyOp8
 70
     1
102
RTVSPropertyOp9
 70
     1
102
RTVSPropertyOp10
 70
     1
102
RTVSPropertyOp11
 70
     1
102
RTVSPropertyOp12
 70
     1
102
RTVSPropertyOp13
 70
     1
102
RTVSPropertyOp14
 70
     1
102
RTVSPropertyOp15
 70
     1
102
RTVSPropertyOp16
 70
     1
102
RTVSPropertyOp17
 70
     1
102
RTVSPropertyOp18
 70
     1
102
RTVSPropertyOp19
 70
     1
102
RTVSPropertyOp20
 70
     1
102
RTVSPropertyOp21
 70
     1
102
RTVSPropertyOp22
 70
     1
102
RTVSPropertyOp23
 70
     1
102
RTVSPropertyOp24
 70
     1
102
RTVSPropertyOp25
 70
     1
102
RTVSPropertyOp26
 70
     1
102
RTVSPropertyOp27
 70
     1
  0
XRECORD
  5
5E
102
{ACAD_REACTORS
330
5D
102
}
330
5D
100
AcDbXrecord
280
     1
102
RTVSPropertyOp0
 70
     1
102
RTVSPropertyOp1
 70
     1
102
RTVSPropertyOp2
 70
     1
102
RTVSPropertyOp3
 70
     1
102
RTVSPropertyOp4
 70
     1
102
RTVSPropertyOp5
 70
     1
102
RTVSPropertyOp6
 70
     1
102
RTVSPropertyOp7
 70
     1
102
RTVSPropertyOp8
 70
     1
102
RTVSPropertyOp9
 70
     1
102
RTVSPropertyOp10
 70
     1
102
RTVSPropertyOp11
 70
     1
102
RTVSPropertyOp12
 70
     1
102
RTVSPropertyOp13
 70
     1
102
RTVSPropertyOp14
 70
     1
102
RTVSPropertyOp15
 70
     1
102
RTVSPropertyOp16
 70
     1
102
RTVSPropertyOp17
 70
     1
102
RTVSPropertyOp18
 70
     1
102
RTVSPropertyOp19
 70
     1
102
RTVSPropertyOp20
 70
     1
102
RTVSPropertyOp21
 70
     1
102
RTVSPropertyOp22
 70
     1
102
RTVSPropertyOp23
 70
     1
102
RTVSPropertyOp24
 70
     1
102
RTVSPropertyOp25
 70
     1
102
RTVSPropertyOp26
 70
     1
102
RTVSPropertyOp27
 70
     1
  0
XRECORD
  5
5C
102
{ACAD_REACTORS
330
5B
102
}
330
5B
100
AcDbXrecord
280
     1
102
RTVSPropertyOp0
 70
     1
102
RTVSPropertyOp1
 70
     1
102
RTVSPropertyOp2
 70
     1
102
RTVSPropertyOp3
 70
     1
102
RTVSPropertyOp4
 70
     1
102
RTVSPropertyOp5
 70
     1
102
RTVSPropertyOp6
 70
     1
102
RTVSPropertyOp7
 70
     1
102
RTVSPropertyOp8
 70
     1
102
RTVSPropertyOp9
 70
     1
102
RTVSPropertyOp10
 70
     1
102
RTVSPropertyOp11
 70
     1
102
RTVSPropertyOp12
 70
     1
102
RTVSPropertyOp13
 70
     1
102
RTVSPropertyOp14
 70
     1
102
RTVSPropertyOp15
 70
     1
102
RTVSPropertyOp16
 70
     1
102
RTVSPropertyOp17
 70
     1
102
RTVSPropertyOp18
 70
     1
102
RTVSPropertyOp19
 70
     1
102
RTVSPropertyOp20
 70
     1
102
RTVSPropertyOp21
 70
     1
102
RTVSPropertyOp22
 70
     1
102
RTVSPropertyOp23
 70
     1
102
RTVSPropertyOp24
 70
     1
102
RTVSPropertyOp25
 70
     1
102
RTVSPropertyOp26
 70
     1
102
RTVSPropertyOp27
 70
     1
  0
XRECORD
  5
60
102
{ACAD_REACTORS
330
5F
102
}
330
5F
100
AcDbXrecord
280
     1
102
RTVSPropertyOp0
 70
     1
102
RTVSPropertyOp1
 70
     1
102
RTVSPropertyOp2
 70
     1
102
RTVSPropertyOp3
 70
     1
102
RTVSPropertyOp4
 70
     1
102
RTVSPropertyOp5
 70
     1
102
RTVSPropertyOp6
 70
     1
102
RTVSPropertyOp7
 70
     1
102
RTVSPropertyOp8
 70
     1
102
RTVSPropertyOp9
 70
     1
102
RTVSPropertyOp10
 70
     1
102
RTVSPropertyOp11
 70
     1
102
RTVSPropertyOp12
 70
     1
102
RTVSPropertyOp13
 70
     1
102
RTVSPropertyOp14
 70
     1
102
RTVSPropertyOp15
 70
     1
102
RTVSPropertyOp16
 70
     1
102
RTVSPropertyOp17
 70
     1
102
RTVSPropertyOp18
 70
     1
102
RTVSPropertyOp19
 70
     1
102
RTVSPropertyOp20
 70
     1
102
RTVSPropertyOp21
 70
     1
102
RTVSPropertyOp22
 70
     1
102
RTVSPropertyOp23
 70
     1
102
RTVSPropertyOp24
 70
     1
102
RTVSPropertyOp25
 70
     1
102
RTVSPropertyOp26
 70
     1
102
RTVSPropertyOp27
 70
     1
  0
XRECORD
  5
68
102
{ACAD_REACTORS
330
67
102
}
330
67
100
AcDbXrecord
280
     1
102
RTVSPropertyOp0
 70
     1
102
RTVSPropertyOp1
 70
     1
102
RTVSPropertyOp2
 70
     1
102
RTVSPropertyOp3
 70
     1
102
RTVSPropertyOp4
 70
     1
102
RTVSPropertyOp5
 70
     1
102
RTVSPropertyOp6
 70
     1
102
RTVSPropertyOp7
 70
     1
102
RTVSPropertyOp8
 70
     1
102
RTVSPropertyOp9
 70
     1
102
RTVSPropertyOp10
 70
     1
102
RTVSPropertyOp11
 70
     1
102
RTVSPropertyOp12
 70
     1
102
RTVSPropertyOp13
 70
     1
102
RTVSPropertyOp14
 70
     1
102
RTVSPropertyOp15
 70
     1
102
RTVSPropertyOp16
 70
     1
102
RTVSPropertyOp17
 70
     1
102
RTVSPropertyOp18
 70
     1
102
RTVSPropertyOp19
 70
     1
102
RTVSPropertyOp20
 70
     1
102
RTVSPropertyOp21
 70
     1
102
RTVSPropertyOp22
 70
     1
102
RTVSPropertyOp23
 70
     1
102
RTVSPropertyOp24
 70
     1
102
RTVSPropertyOp25
 70
     1
102
RTVSPropertyOp26
 70
     1
102
RTVSPropertyOp27
 70
     1
  0
XRECORD
  5
70
102
{ACAD_REACTORS
330
6F
102
}
330
6F
100
AcDbXrecord
280
     1
102
RTVSPropertyOp0
 70
     1
102
RTVSPropertyOp1
 70
     1
102
RTVSPropertyOp2
 70
     1
102
RTVSPropertyOp3
 70
     1
102
RTVSPropertyOp4
 70
     1
102
RTVSPropertyOp5
 70
     1
102
RTVSPropertyOp6
 70
     1
102
RTVSPropertyOp7
 70
     1
102
RTVSPropertyOp8
 70
     1
102
RTVSPropertyOp9
 70
     1
102
RTVSPropertyOp10
 70
     1
102
RTVSPropertyOp11
 70
     1
102
RTVSPropertyOp12
 70
     1
102
RTVSPropertyOp13
 70
     1
102
RTVSPropertyOp14
 70
     1
102
RTVSPropertyOp15
 70
     1
102
RTVSPropertyOp16
 70
     1
102
RTVSPropertyOp17
 70
     1
102
RTVSPropertyOp18
 70
     1
102
RTVSPropertyOp19
 70
     1
102
RTVSPropertyOp20
 70
     1
102
RTVSPropertyOp21
 70
     1
102
RTVSPropertyOp22
 70
     1
102
RTVSPropertyOp23
 70
     1
102
RTVSPropertyOp24
 70
     1
102
RTVSPropertyOp25
 70
     1
102
RTVSPropertyOp26
 70
     1
102
RTVSPropertyOp27
 70
     1
  0
XRECORD
  5
64
102
{ACAD_REACTORS
330
63
102
}
330
63
100
AcDbXrecord
280
     1
102
RTVSPropertyOp0
 70
     1
102
RTVSPropertyOp1
 70
     1
102
RTVSPropertyOp2
 70
     1
102
RTVSPropertyOp3
 70
     1
102
RTVSPropertyOp4
 70
     1
102
RTVSPropertyOp5
 70
     1
102
RTVSPropertyOp6
 70
     1
102
RTVSPropertyOp7
 70
     1
102
RTVSPropertyOp8
 70
     1
102
RTVSPropertyOp9
 70
     1
102
RTVSPropertyOp10
 70
     1
102
RTVSPropertyOp11
 70
     1
102
RTVSPropertyOp12
 70
     1
102
RTVSPropertyOp13
 70
     1
102
RTVSPropertyOp14
 70
     1
102
RTVSPropertyOp15
 70
     1
102
RTVSPropertyOp16
 70
     1
102
RTVSPropertyOp17
 70
     1
102
RTVSPropertyOp18
 70
     1
102
RTVSPropertyOp19
 70
     1
102
RTVSPropertyOp20
 70
     1
102
RTVSPropertyOp21
 70
     1
102
RTVSPropertyOp22
 70
     1
102
RTVSPropertyOp23
 70
     1
102
RTVSPropertyOp24
 70
     1
102
RTVSPropertyOp25
 70
     1
102
RTVSPropertyOp26
 70
     1
102
RTVSPropertyOp27
 70
     1
  0
XRECORD
  5
66
102
{ACAD_REACTORS
330
65
102
}
330
65
100
AcDbXrecord
280
     1
102
RTVSPropertyOp0
 70
     1
102
RTVSPropertyOp1
 70
     1
102
RTVSPropertyOp2
 70
     1
102
RTVSPropertyOp3
 70
     1
102
RTVSPropertyOp4
 70
     1
102
RTVSPropertyOp5
 70
     1
102
RTVSPropertyOp6
 70
     1
102
RTVSPropertyOp7
 70
     1
102
RTVSPropertyOp8
 70
     1
102
RTVSPropertyOp9
 70
     1
102
RTVSPropertyOp10
 70
     1
102
RTVSPropertyOp11
 70
     1
102
RTVSPropertyOp12
 70
     1
102
RTVSPropertyOp13
 70
     1
102
RTVSPropertyOp14
 70
     1
102
RTVSPropertyOp15
 70
     1
102
RTVSPropertyOp16
 70
     1
102
RTVSPropertyOp17
 70
     1
102
RTVSPropertyOp18
 70
     1
102
RTVSPropertyOp19
 70
     1
102
RTVSPropertyOp20
 70
     1
102
RTVSPropertyOp21
 70
     1
102
RTVSPropertyOp22
 70
     1
102
RTVSPropertyOp23
 70
     1
102
RTVSPropertyOp24
 70
     1
102
RTVSPropertyOp25
 70
     1
102
RTVSPropertyOp26
 70
     1
102
RTVSPropertyOp27
 70
     1
  0
XRECORD
  5
6E
102
{ACAD_REACTORS
330
6D
102
}
330
6D
100
AcDbXrecord
280
     1
102
RTVSPropertyOp0
 70
     1
102
RTVSPropertyOp1
 70
     1
102
RTVSPropertyOp2
 70
     1
102
RTVSPropertyOp3
 70
     1
102
RTVSPropertyOp4
 70
     1
102
RTVSPropertyOp5
 70
     1
102
RTVSPropertyOp6
 70
     1
102
RTVSPropertyOp7
 70
     1
102
RTVSPropertyOp8
 70
     1
102
RTVSPropertyOp9
 70
     1
102
RTVSPropertyOp10
 70
     1
102
RTVSPropertyOp11
 70
     1
102
RTVSPropertyOp12
 70
     1
102
RTVSPropertyOp13
 70
     1
102
RTVSPropertyOp14
 70
     1
102
RTVSPropertyOp15
 70
     1
102
RTVSPropertyOp16
 70
     1
102
RTVSPropertyOp17
 70
     1
102
RTVSPropertyOp18
 70
     1
102
RTVSPropertyOp19
 70
     1
102
RTVSPropertyOp20
 70
     1
102
RTVSPropertyOp21
 70
     1
102
RTVSPropertyOp22
 70
     1
102
RTVSPropertyOp23
 70
     1
102
RTVSPropertyOp24
 70
     1
102
RTVSPropertyOp25
 70
     1
102
RTVSPropertyOp26
 70
     1
102
RTVSPropertyOp27
 70
     1
  0
XRECORD
  5
52
102
{ACAD_REACTORS
330
51
102
}
330
51
100
AcDbXrecord
280
     1
102
RTVSPropertyOp0
 70
     1
102
RTVSPropertyOp1
 70
     1
102
RTVSPropertyOp2
 70
     1
102
RTVSPropertyOp3
 70
     1
102
RTVSPropertyOp4
 70
     1
102
RTVSPropertyOp5
 70
     1
102
RTVSPropertyOp6
 70
     1
102
RTVSPropertyOp7
 70
     1
102
RTVSPropertyOp8
 70
     1
102
RTVSPropertyOp9
 70
     1
102
RTVSPropertyOp10
 70
     1
102
RTVSPropertyOp11
 70
     1
102
RTVSPropertyOp12
 70
     1
102
RTVSPropertyOp13
 70
     1
102
RTVSPropertyOp14
 70
     1
102
RTVSPropertyOp15
 70
     1
102
RTVSPropertyOp16
 70
     1
102
RTVSPropertyOp17
 70
     1
102
RTVSPropertyOp18
 70
     1
102
RTVSPropertyOp19
 70
     1
102
RTVSPropertyOp20
 70
     1
102
RTVSPropertyOp21
 70
     1
102
RTVSPropertyOp22
 70
     1
102
RTVSPropertyOp23
 70
     1
102
RTVSPropertyOp24
 70
     1
102
RTVSPropertyOp25
 70
     1
102
RTVSPropertyOp26
 70
     1
102
RTVSPropertyOp27
 70
     1
  0
XRECORD
  5
54
102
{ACAD_REACTORS
330
53
102
}
330
53
100
AcDbXrecord
280
     1
102
RTVSPropertyOp0
 70
     1
102
RTVSPropertyOp1
 70
     1
102
RTVSPropertyOp2
 70
     1
102
RTVSPropertyOp3
 70
     1
102
RTVSPropertyOp4
 70
     1
102
RTVSPropertyOp5
 70
     1
102
RTVSPropertyOp6
 70
     1
102
RTVSPropertyOp7
 70
     1
102
RTVSPropertyOp8
 70
     1
102
RTVSPropertyOp9
 70
     1
102
RTVSPropertyOp10
 70
     1
102
RTVSPropertyOp11
 70
     1
102
RTVSPropertyOp12
 70
     1
102
RTVSPropertyOp13
 70
     1
102
RTVSPropertyOp14
 70
     1
102
RTVSPropertyOp15
 70
     1
102
RTVSPropertyOp16
 70
     1
102
RTVSPropertyOp17
 70
     1
102
RTVSPropertyOp18
 70
     1
102
RTVSPropertyOp19
 70
     1
102
RTVSPropertyOp20
 70
     1
102
RTVSPropertyOp21
 70
     1
102
RTVSPropertyOp22
 70
     1
102
RTVSPropertyOp23
 70
     1
102
RTVSPropertyOp24
 70
     1
102
RTVSPropertyOp25
 70
     1
102
RTVSPropertyOp26
 70
     1
102
RTVSPropertyOp27
 70
     1
  0
XRECORD
  5
56
102
{ACAD_REACTORS
330
55
102
}
330
55
100
AcDbXrecord
280
     1
102
RTVSPropertyOp0
 70
     1
102
RTVSPropertyOp1
 70
     1
102
RTVSPropertyOp2
 70
     1
102
RTVSPropertyOp3
 70
     1
102
RTVSPropertyOp4
 70
     1
102
RTVSPropertyOp5
 70
     1
102
RTVSPropertyOp6
 70
     1
102
RTVSPropertyOp7
 70
     1
102
RTVSPropertyOp8
 70
     1
102
RTVSPropertyOp9
 70
     1
102
RTVSPropertyOp10
 70
     1
102
RTVSPropertyOp11
 70
     1
102
RTVSPropertyOp12
 70
     1
102
RTVSPropertyOp13
 70
     1
102
RTVSPropertyOp14
 70
     1
102
RTVSPropertyOp15
 70
     1
102
RTVSPropertyOp16
 70
     1
102
RTVSPropertyOp17
 70
     1
102
RTVSPropertyOp18
 70
     1
102
RTVSPropertyOp19
 70
     1
102
RTVSPropertyOp20
 70
     1
102
RTVSPropertyOp21
 70
     1
102
RTVSPropertyOp22
 70
     1
102
RTVSPropertyOp23
 70
     1
102
RTVSPropertyOp24
 70
     1
102
RTVSPropertyOp25
 70
     1
102
RTVSPropertyOp26
 70
     1
102
RTVSPropertyOp27
 70
     1
  0
XRECORD
  5
58
102
{ACAD_REACTORS
330
57
102
}
330
57
100
AcDbXrecord
280
     1
102
RTVSPropertyOp0
 70
     1
102
RTVSPropertyOp1
 70
     1
102
RTVSPropertyOp2
 70
     1
102
RTVSPropertyOp3
 70
     1
102
RTVSPropertyOp4
 70
     1
102
RTVSPropertyOp5
 70
     1
102
RTVSPropertyOp6
 70
     1
102
RTVSPropertyOp7
 70
     1
102
RTVSPropertyOp8
 70
     1
102
RTVSPropertyOp9
 70
     1
102
RTVSPropertyOp10
 70
     1
102
RTVSPropertyOp11
 70
     1
102
RTVSPropertyOp12
 70
     1
102
RTVSPropertyOp13
 70
     1
102
RTVSPropertyOp14
 70
     1
102
RTVSPropertyOp15
 70
     1
102
RTVSPropertyOp16
 70
     1
102
RTVSPropertyOp17
 70
     1
102
RTVSPropertyOp18
 70
     1
102
RTVSPropertyOp19
 70
     1
102
RTVSPropertyOp20
 70
     1
102
RTVSPropertyOp21
 70
     1
102
RTVSPropertyOp22
 70
     1
102
RTVSPropertyOp23
 70
     1
102
RTVSPropertyOp24
 70
     1
102
RTVSPropertyOp25
 70
     1
102
RTVSPropertyOp26
 70
     1
102
RTVSPropertyOp27
 70
     1
  0
XRECORD
  5
6C
102
{ACAD_REACTORS
330
6B
102
}
330
6B
100
AcDbXrecord
280
     1
102
RTVSPropertyOp0
 70
     1
102
RTVSPropertyOp1
 70
     1
102
RTVSPropertyOp2
 70
     1
102
RTVSPropertyOp3
 70
     1
102
RTVSPropertyOp4
 70
     1
102
RTVSPropertyOp5
 70
     1
102
RTVSPropertyOp6
 70
     1
102
RTVSPropertyOp7
 70
     1
102
RTVSPropertyOp8
 70
     1
102
RTVSPropertyOp9
 70
     1
102
RTVSPropertyOp10
 70
     1
102
RTVSPropertyOp11
 70
     1
102
RTVSPropertyOp12
 70
     1
102
RTVSPropertyOp13
 70
     1
102
RTVSPropertyOp14
 70
     1
102
RTVSPropertyOp15
 70
     1
102
RTVSPropertyOp16
 70
     1
102
RTVSPropertyOp17
 70
     1
102
RTVSPropertyOp18
 70
     1
102
RTVSPropertyOp19
 70
     1
102
RTVSPropertyOp20
 70
     1
102
RTVSPropertyOp21
 70
     1
102
RTVSPropertyOp22
 70
     1
102
RTVSPropertyOp23
 70
     1
102
RTVSPropertyOp24
 70
     1
102
RTVSPropertyOp25
 70
     1
102
RTVSPropertyOp26
 70
     1
102
RTVSPropertyOp27
 70
     1
  0
XRECORD
  5
62
102
{ACAD_REACTORS
330
61
102
}
330
61
100
AcDbXrecord
280
     1
102
RTVSPropertyOp0
 70
     1
102
RTVSPropertyOp1
 70
     1
102
RTVSPropertyOp2
 70
     1
102
RTVSPropertyOp3
 70
     1
102
RTVSPropertyOp4
 70
     1
102
RTVSPropertyOp5
 70
     1
102
RTVSPropertyOp6
 70
     1
102
RTVSPropertyOp7
 70
     1
102
RTVSPropertyOp8
 70
     1
102
RTVSPropertyOp9
 70
     1
102
RTVSPropertyOp10
 70
     1
102
RTVSPropertyOp11
 70
     1
102
RTVSPropertyOp12
 70
     1
102
RTVSPropertyOp13
 70
     1
102
RTVSPropertyOp14
 70
     1
102
RTVSPropertyOp15
 70
     1
102
RTVSPropertyOp16
 70
     1
102
RTVSPropertyOp17
 70
     1
102
RTVSPropertyOp18
 70
     1
102
RTVSPropertyOp19
 70
     1
102
RTVSPropertyOp20
 70
     1
102
RTVSPropertyOp21
 70
     1
102
RTVSPropertyOp22
 70
     1
102
RTVSPropertyOp23
 70
     1
102
RTVSPropertyOp24
 70
     1
102
RTVSPropertyOp25
 70
     1
102
RTVSPropertyOp26
 70
     1
102
RTVSPropertyOp27
 70
     1
  0
XRECORD
  5
6A
102
{ACAD_REACTORS
330
69
102
}
330
69
100
AcDbXrecord
280
     1
102
RTVSPropertyOp0
 70
     1
102
RTVSPropertyOp1
 70
     1
102
RTVSPropertyOp2
 70
     1
102
RTVSPropertyOp3
 70
     1
102
RTVSPropertyOp4
 70
     1
102
RTVSPropertyOp5
 70
     1
102
RTVSPropertyOp6
 70
     1
102
RTVSPropertyOp7
 70
     1
102
RTVSPropertyOp8
 70
     1
102
RTVSPropertyOp9
 70
     1
102
RTVSPropertyOp10
 70
     1
102
RTVSPropertyOp11
 70
     1
102
RTVSPropertyOp12
 70
     1
102
RTVSPropertyOp13
 70
     1
102
RTVSPropertyOp14
 70
     1
102
RTVSPropertyOp15
 70
     1
102
RTVSPropertyOp16
 70
     1
102
RTVSPropertyOp17
 70
     1
102
RTVSPropertyOp18
 70
     1
102
RTVSPropertyOp19
 70
     1
102
RTVSPropertyOp20
 70
     1
102
RTVSPropertyOp21
 70
     1
102
RTVSPropertyOp22
 70
     1
102
RTVSPropertyOp23
 70
     1
102
RTVSPropertyOp24
 70
     1
102
RTVSPropertyOp25
 70
     1
102
RTVSPropertyOp26
 70
     1
102
RTVSPropertyOp27
 70
     1
  0
ENDSEC
  0
EOF
