  0
SECTION
  2
HEADER
  9
$ACADVER
  1
AC1021
  9
$ACADMAINTVER
 70
    25
  9
$DWGCODEPAGE
  3
ANSI_1252
  9
$INSBASE
 10
0.0
 20
0.0
 30
0.0
  9
$EXTMIN
 10
-13.64006
 20
-9.23056
 30
0.0
  9
$EXTMAX
 10
13.14085
 20
9.52842
 30
0.0
  9
$LIMMIN
 10
0.0
 20
0.0
  9
$LIMMAX
 10
12.0
 20
9.0
  9
$ORTHOMODE
 70
     0
  9
$REGENMODE
 70
     1
  9
$FILLMODE
 70
     1
  9
$QTEXTMODE
 70
     0
  9
$MIRRTEXT
 70
     1
  9
$LTSCALE
 40
1.0
  9
$ATTMODE
 70
     1
  9
$TEXTSIZE
 40
0.2
  9
$TRACEWID
 40
0.05
  9
$TEXTSTYLE
  7
Standard
  9
$CLAYER
  8
0
  9
$CELTYPE
  6
ByLayer
  9
$CECOLOR
 62
   256
  9
$CELTSCALE
 40
1.0
  9
$DISPSILH
 70
     0
  9
$DIMSCALE
 40
1.0
  9
$DIMASZ
 40
0.18
  9
$DIMEXO
 40
0.0625
  9
$DIMDLI
 40
0.38
  9
$DIMRND
 40
0.0
  9
$DIMDLE
 40
0.0
  9
$DIMEXE
 40
0.18
  9
$DIMTP
 40
0.0
  9
$DIMTM
 40
0.0
  9
$DIMTXT
 40
0.18
  9
$DIMCEN
 40
0.09
  9
$DIMTSZ
 40
0.0
  9
$DIMTOL
 70
     0
  9
$DIMLIM
 70
     0
  9
$DIMTIH
 70
     1
  9
$DIMTOH
 70
     1
  9
$DIMSE1
 70
     0
  9
$DIMSE2
 70
     0
  9
$DIMTAD
 70
     0
  9
$DIMZIN
 70
     0
  9
$DIMBLK
  1

  9
$DIMASO
 70
     1
  9
$DIMSHO
 70
     1
  9
$DIMPOST
  1

  9
$DIMAPOST
  1

  9
$DIMALT
 70
     0
  9
$DIMALTD
 70
     2
  9
$DIMALTF
 40
25.4
  9
$DIMLFAC
 40
1.0
  9
$DIMTOFL
 70
     0
  9
$DIMTVP
 40
0.0
  9
$DIMTIX
 70
     0
  9
$DIMSOXD
 70
     0
  9
$DIMSAH
 70
     0
  9
$DIMBLK1
  1

  9
$DIMBLK2
  1

  9
$DIMSTYLE
  2
Standard
  9
$DIMCLRD
 70
     0
  9
$DIMCLRE
 70
     0
  9
$DIMCLRT
 70
     0
  9
$DIMTFAC
 40
1.0
  9
$DIMGAP
 40
0.09
  9
$DIMJUST
 70
     0
  9
$DIMSD1
 70
     0
  9
$DIMSD2
 70
     0
  9
$DIMTOLJ
 70
     1
  9
$DIMTZIN
 70
     0
  9
$DIMALTZ
 70
     0
  9
$DIMALTTZ
 70
     0
  9
$DIMUPT
 70
     0
  9
$DIMDEC
 70
     4
  9
$DIMTDEC
 70
     4
  9
$DIMALTU
 70
     2
  9
$DIMALTTD
 70
     2
  9
$DIMTXSTY
  7
Standard
  9
$DIMAUNIT
 70
     0
  9
$DIMADEC
 70
     0
  9
$DIMALTRND
 40
0.0
  9
$DIMAZIN
 70
     0
  9
$DIMDSEP
 70
    46
  9
$DIMATFIT
 70
     3
  9
$DIMFRAC
 70
     0
  9
$DIMLDRBLK
  1

  9
$DIMLUNIT
 70
     2
  9
$DIMLWD
 70
    -2
  9
$DIMLWE
 70
    -2
  9
$DIMTMOVE
 70
     0
  9
$DIMFXL
 40
1.0
  9
$DIMFXLON
 70
     0
  9
$DIMJOGANG
 40
0.7853981633974483
  9
$DIMTFILL
 70
     0
  9
$DIMTFILLCLR
 70
     0
  9
$DIMARCSYM
 70
     0
  9
$DIMLTYPE
  6

  9
$DIMLTEX1
  6

  9
$DIMLTEX2
  6

  9
$LUNITS
 70
     2
  9
$LUPREC
 70
     4
  9
$SKETCHINC
 40
0.1
  9
$FILLETRAD
 40
0.5
  9
$AUNITS
 70
     0
  9
$AUPREC
 70
     0
  9
$MENU
  1
.
  9
$ELEVATION
 40
0.0
  9
$PELEVATION
 40
0.0
  9
$THICKNESS
 40
0.0
  9
$LIMCHECK
 70
     0
  9
$CHAMFERA
 40
0.5
  9
$CHAMFERB
 40
0.5
  9
$CHAMFERC
 40
1.0
  9
$CHAMFERD
 40
0.0
  9
$SKPOLY
 70
     0
  9
$TDCREATE
 40
2455293.890363703
  9
$TDUCREATE
 40
2455293.80703037
  9
$TDUPDATE
 40
2455293.890363715
  9
$TDUUPDATE
 40
2455293.807030382
  9
$TDINDWG
 40
0.0000000116
  9
$TDUSRTIMER
 40
0.0000000116
  9
$USRTIMER
 70
     1
  9
$ANGBASE
 50
0.0
  9
$ANGDIR
 70
     0
  9
$PDMODE
 70
     0
  9
$PDSIZE
 40
0.0
  9
$PLINEWID
 40
0.0
  9
$SPLFRAME
 70
     0
  9
$SPLINETYPE
 70
     6
  9
$SPLINESEGS
 70
     8
  9
$HANDSEED
  5
7F
  9
$SURFTAB1
 70
     6
  9
$SURFTAB2
 70
     6
  9
$SURFTYPE
 70
     6
  9
$SURFU
 70
     6
  9
$SURFV
 70
     6
  9
$UCSBASE
  2

  9
$UCSNAME
  2

  9
$UCSORG
 10
0.0
 20
0.0
 30
0.0
  9
$UCSXDIR
 10
1.0
 20
0.0
 30
0.0
  9
$UCSYDIR
 10
0.0
 20
1.0
 30
0.0
  9
$UCSORTHOREF
  2

  9
$UCSORTHOVIEW
 70
     0
  9
$UCSORGTOP
 10
0.0
 20
0.0
 30
0.0
  9
$UCSORGBOTTOM
 10
0.0
 20
0.0
 30
0.0
  9
$UCSORGLEFT
 10
0.0
 20
0.0
 30
0.0
  9
$UCSORGRIGHT
 10
0.0
 20
0.0
 30
0.0
  9
$UCSORGFRONT
 10
0.0
 20
0.0
 30
0.0
  9
$UCSORGBACK
 10
0.0
 20
0.0
 30
0.0
  9
$PUCSBASE
  2

  9
$PUCSNAME
  2

  9
$PUCSORG
 10
0.0
 20
0.0
 30
0.0
  9
$PUCSXDIR
 10
1.0
 20
0.0
 30
0.0
  9
$PUCSYDIR
 10
0.0
 20
1.0
 30
0.0
  9
$PUCSORTHOREF
  2

  9
$PUCSORTHOVIEW
 70
     0
  9
$PUCSORGTOP
 10
0.0
 20
0.0
 30
0.0
  9
$PUCSORGBOTTOM
 10
0.0
 20
0.0
 30
0.0
  9
$PUCSORGLEFT
 10
0.0
 20
0.0
 30
0.0
  9
$PUCSORGRIGHT
 10
0.0
 20
0.0
 30
0.0
  9
$PUCSORGFRONT
 10
0.0
 20
0.0
 30
0.0
  9
$PUCSORGBACK
 10
0.0
 20
0.0
 30
0.0
  9
$USERI1
 70
     0
  9
$USERI2
 70
     0
  9
$USERI3
 70
     0
  9
$USERI4
 70
     0
  9
$USERI5
 70
     0
  9
$USERR1
 40
0.0
  9
$USERR2
 40
0.0
  9
$USERR3
 40
0.0
  9
$USERR4
 40
0.0
  9
$USERR5
 40
0.0
  9
$WORLDVIEW
 70
     1
  9
$SHADEDGE
 70
     3
  9
$SHADEDIF
 70
    70
  9
$TILEMODE
 70
     1
  9
$MAXACTVP
 70
    64
  9
$PINSBASE
 10
0.0
 20
0.0
 30
0.0
  9
$PLIMCHECK
 70
     0
  9
$PEXTMIN
 10
1.000000000000000E+20
 20
1.000000000000000E+20
 30
1.000000000000000E+20
  9
$PEXTMAX
 10
-1.000000000000000E+20
 20
-1.000000000000000E+20
 30
-1.000000000000000E+20
  9
$PLIMMIN
 10
0.0
 20
0.0
  9
$PLIMMAX
 10
12.0
 20
9.0
  9
$UNITMODE
 70
     0
  9
$VISRETAIN
 70
     1
  9
$PLINEGEN
 70
     0
  9
$PSLTSCALE
 70
     1
  9
$TREEDEPTH
 70
  3020
  9
$CMLSTYLE
  2
Standard
  9
$CMLJUST
 70
     0
  9
$CMLSCALE
 40
1.0
  9
$PROXYGRAPHICS
 70
     1
  9
$MEASUREMENT
 70
     0
  9
$CELWEIGHT
370
    -1
  9
$ENDCAPS
280
     0
  9
$JOINSTYLE
280
     0
  9
$LWDISPLAY
290
     0
  9
$INSUNITS
 70
     5
  9
$HYPERLINKBASE
  1

  9
$STYLESHEET
  1

  9
$XEDIT
290
     1
  9
$CEPSNTYPE
380
     0
  9
$PSTYLEMODE
290
     1
  9
$FINGERPRINTGUID
  2
{44140BB8-6644-4E91-AD85-3EC39F549B57}
  9
$VERSIONGUID
  2
{FAEB1C32-E019-11D5-929B-00C0DF256EC4}
  9
$EXTNAMES
290
     1
  9
$PSVPSCALE
 40
0.0
  9
$OLESTARTUP
290
     0
  9
$SORTENTS
280
   127
  9
$INDEXCTL
280
     0
  9
$HIDETEXT
280
     1
  9
$XCLIPFRAME
290
     0
  9
$HALOGAP
280
     0
  9
$OBSCOLOR
 70
   257
  9
$OBSLTYPE
280
     0
  9
$INTERSECTIONDISPLAY
280
     0
  9
$INTERSECTIONCOLOR
 70
   257
  9
$DIMASSOC
280
     2
  9
$PROJECTNAME
  1

  9
$CAMERADISPLAY
290
     0
  9
$LENSLENGTH
 40
50.0
  9
$CAMERAHEIGHT
 40
0.0
  9
$STEPSPERSEC
 40
2.0
  9
$STEPSIZE
 40
6.0
  9
$3DDWFPREC
 40
2.0
  9
$PSOLWIDTH
 40
0.25
  9
$PSOLHEIGHT
 40
4.0
  9
$LOFTANG1
 40
1.570796326794897
  9
$LOFTANG2
 40
1.570796326794897
  9
$LOFTMAG1
 40
0.0
  9
$LOFTMAG2
 40
0.0
  9
$LOFTPARAM
 70
     7
  9
$LOFTNORMALS
280
     1
  9
$LATITUDE
 40
37.795
  9
$LONGITUDE
 40
-122.394
  9
$NORTHDIRECTION
 40
0.0
  9
$TIMEZONE
 70
 -8000
  9
$LIGHTGLYPHDISPLAY
280
     1
  9
$TILEMODELIGHTSYNCH
280
     1
  9
$SOLIDHIST
280
     1
  9
$SHOWHIST
280
     1
  9
$DWFFRAME
280
     2
  9
$DGNFRAME
280
     2
  9
$REALWORLDSCALE
290
     1
  9
$INTERFERECOLOR
 62
   256
  9
$CSHADOW
280
     0
  9
$SHADOWPLANELOCATION
 40
0.0
  0
ENDSEC
  0
SECTION
  2
CLASSES
  0
CLASS
  1
ACDBDICTIONARYWDFLT
  2
AcDbDictionaryWithDefault
  3
ObjectDBX Classes
 90
        0
 91
        4
280
     0
281
     0
  0
CLASS
  1
VISUALSTYLE
  2
AcDbVisualStyle
  3
ObjectDBX Classes
 90
     4095
 91
        4
280
     0
281
     0
  0
CLASS
  1
MATERIAL
  2
AcDbMaterial
  3
ObjectDBX Classes
 90
     1153
 91
        4
280
     0
281
     0
  0
ENDSEC
  0
SECTION
  2
TABLES
  0
TABLE
  2
VPORT
  5
8
330
0
100
AcDbSymbolTable
 70
     1
  0
VPORT
  5
29
330
8
100
AcDbSymbolTableRecord
100
AcDbViewportTableRecord
  2
*Active
 70
     0
 10
0.0
 20
0.0
 11
1.0
 21
1.0
 12
10.42990654205607
 22
4.5
 13
0.0
 23
0.0
 14
0.5
 24
0.5
 15
0.5
 25
0.5
 16
0.0
 26
0.0
 36
1.0
 17
0.0
 27
0.0
 37
0.0
 40
9.0
 41
1.972972972850329
 42
50.0
 43
0.0
 44
0.0
 50
0.0
 51
0.0
 71
     0
 72
   100
 73
     1
 74
     3
 75
     0
 76
     0
 77
     0
 78
     0
281
     0
 65
     1
110
0.0
120
0.0
130
0.0
111
1.0
121
0.0
131
0.0
112
0.0
122
1.0
132
0.0
 79
     0
146
0.0
 60
     3
 61
     5
292
     1
282
     1
141
0.0
142
0.0
 63
   250
  0
ENDTAB
  0
TABLE
  2
LTYPE
  5
5
330
0
100
AcDbSymbolTable
 70
     1
  0
LTYPE
  5
14
330
5
100
AcDbSymbolTableRecord
100
AcDbLinetypeTableRecord
  2
ByBlock
 70
     0
  3

 72
    65
 73
     0
 40
0.0
  0
LTYPE
  5
15
330
5
100
AcDbSymbolTableRecord
100
AcDbLinetypeTableRecord
  2
ByLayer
 70
     0
  3

 72
    65
 73
     0
 40
0.0
  0
LTYPE
  5
16
330
5
100
AcDbSymbolTableRecord
100
AcDbLinetypeTableRecord
  2
Continuous
 70
     0
  3
Solid line
 72
    65
 73
     0
 40
0.0
  0
ENDTAB
  0
TABLE
  2
LAYER
  5
2
330
0
100
AcDbSymbolTable
 70
     2
  0
LAYER
  5
10
330
2
100
AcDbSymbolTableRecord
100
AcDbLayerTableRecord
  2
0
 70
     0
 62
     7
  6
Continuous
370
    -3
390
F
347
3E
  0
LAYER
  5
40
330
2
100
AcDbSymbolTableRecord
100
AcDbLayerTableRecord
  2
Livello 1
 70
     0
 62
     7
  6
Continuous
370
    -3
390
F
347
3E
  0
ENDTAB
  0
TABLE
  2
STYLE
  5
3
330
0
100
AcDbSymbolTable
 70
     1
  0
STYLE
  5
11
330
3
100
AcDbSymbolTableRecord
100
AcDbTextStyleTableRecord
  2
Standard
 70
     0
 40
0.0
 41
1.0
 50
0.0
 71
     0
 42
0.2
  3
txt
  4

  0
ENDTAB
  0
TABLE
  2
VIEW
  5
6
330
0
100
AcDbSymbolTable
 70
     0
  0
ENDTAB
  0
TABLE
  2
UCS
  5
7
330
0
100
AcDbSymbolTable
 70
     0
  0
ENDTAB
  0
TABLE
  2
APPID
  5
9
330
0
100
AcDbSymbolTable
 70
     2
  0
APPID
  5
12
330
9
100
AcDbSymbolTableRecord
100
AcDbRegAppTableRecord
  2
ACAD
 70
     0
  0
APPID
  5
3F
330
9
100
AcDbSymbolTableRecord
100
AcDbRegAppTableRecord
  2
ODA
 70
     0
  0
ENDTAB
  0
TABLE
  2
DIMSTYLE
  5
A
330
0
100
AcDbSymbolTable
 70
     1
100
AcDbDimStyleTable
  0
DIMSTYLE
105
27
330
A
100
AcDbSymbolTableRecord
100
AcDbDimStyleTableRecord
  2
Standard
 70
     0
340
11
  0
ENDTAB
  0
TABLE
  2
BLOCK_RECORD
  5
1
330
0
100
AcDbSymbolTable
 70
     1
  0
BLOCK_RECORD
  5
1F
330
1
100
AcDbSymbolTableRecord
100
AcDbBlockTableRecord
  2
*Model_Space
340
22
 70
     0
280
     1
281
     0
  0
BLOCK_RECORD
  5
1B
330
1
100
AcDbSymbolTableRecord
100
AcDbBlockTableRecord
  2
*Paper_Space
340
1E
 70
     0
280
     1
281
     0
  0
BLOCK_RECORD
  5
23
330
1
100
AcDbSymbolTableRecord
100
AcDbBlockTableRecord
  2
*Paper_Space0
340
26
 70
     0
280
     1
281
     0
  0
ENDTAB
  0
ENDSEC
  0
SECTION
  2
BLOCKS
  0
BLOCK
  5
20
330
1F
100
AcDbEntity
  8
0
100
AcDbBlockBegin
  2
*Model_Space
 70
     0
 10
0.0
 20
0.0
 30
0.0
  3
*Model_Space
  1

  0
ENDBLK
  5
21
330
1F
100
AcDbEntity
  8
0
100
AcDbBlockEnd
  0
BLOCK
  5
1C
330
1B
100
AcDbEntity
 67
     1
  8
0
100
AcDbBlockBegin
  2
*Paper_Space
 70
     0
 10
0.0
 20
0.0
 30
0.0
  3
*Paper_Space
  1

  0
ENDBLK
  5
1D
330
1B
100
AcDbEntity
 67
     1
  8
0
100
AcDbBlockEnd
  0
BLOCK
  5
24
330
23
100
AcDbEntity
  8
0
100
AcDbBlockBegin
  2
*Paper_Space0
 70
     0
 10
0.0
 20
0.0
 30
0.0
  3
*Paper_Space0
  1

  0
ENDBLK
  5
25
330
23
100
AcDbEntity
  8
0
100
AcDbBlockEnd
  0
ENDSEC
  0
SECTION
  2
ENTITIES
  0
SPLINE
  5
41
330
1F
100
AcDbEntity
  8
Livello 1
 62
   250
370
     5
100
AcDbSpline
210
0.0
220
0.0
230
1.0
 70
    24
 71
     3
 72
     8
 73
     4
 74
     0
 42
0.0000000001
 43
0.0000000001
 40
0.0
 40
0.0
 40
0.0
 40
0.0
 40
1.0
 40
1.0
 40
1.0
 40
1.0
 10
-11.2295
 20
-5.62984
 30
0.0
 10
-11.2295
 20
-5.62984
 30
0.0
 10
-11.17482
 20
-5.65718
 30
0.0
 10
-11.17482
 20
-5.65718
 30
0.0
  0
SPLINE
  5
42
330
1F
100
AcDbEntity
  8
Livello 1
 62
   250
370
     5
100
AcDbSpline
210
0.0
220
0.0
230
1.0
 70
    11
 71
     3
 72
    20
 73
    16
 74
     0
 42
0.0000000001
 43
0.0000000001
 40
0.0
 40
0.0
 40
0.0
 40
0.0
 40
0.2
 40
0.2
 40
0.2
 40
0.2
 40
0.4
 40
0.4
 40
0.4
 40
0.4
 40
0.6
 40
0.6
 40
0.6
 40
0.6
 40
1.0
 40
1.0
 40
1.0
 40
1.0
 10
4.1622
 20
5.50315
 30
0.0
 10
4.1622
 20
5.50315
 30
0.0
 10
4.1622
 20
9.14166
 30
0.0
 10
4.1622
 20
9.14166
 30
0.0
 10
4.1622
 20
9.14166
 30
0.0
 10
4.1622
 20
9.14166
 30
0.0
 10
6.75333
 20
9.14166
 30
0.0
 10
6.75333
 20
9.14166
 30
0.0
 10
6.75333
 20
9.14166
 30
0.0
 10
6.75333
 20
9.14166
 30
0.0
 10
6.7556
 20
5.50315
 30
0.0
 10
6.7556
 20
5.50315
 30
0.0
 10
6.7556
 20
5.50315
 30
0.0
 10
5.79759
 20
6.04704
 30
0.0
 10
5.17134
 20
6.06341
 30
0.0
 10
4.1622
 20
5.50315
 30
0.0
  0
SPLINE
  5
43
330
1F
100
AcDbEntity
  8
Livello 1
 62
   250
370
     5
100
AcDbSpline
210
0.0
220
0.0
230
1.0
 70
    11
 71
     3
 72
    20
 73
    16
 74
     0
 42
0.0000000001
 43
0.0000000001
 40
0.0
 40
0.0
 40
0.0
 40
0.0
 40
0.2
 40
0.2
 40
0.2
 40
0.2
 40
0.4
 40
0.4
 40
0.4
 40
0.4
 40
0.6
 40
0.6
 40
0.6
 40
0.6
 40
1.0
 40
1.0
 40
1.0
 40
1.0
 10
5.24701
 20
8.39813
 30
0.0
 10
5.24701
 20
8.39813
 30
0.0
 10
5.66981
 20
8.39813
 30
0.0
 10
5.66981
 20
8.39813
 30
0.0
 10
5.66981
 20
8.39813
 30
0.0
 10
5.66981
 20
8.39813
 30
0.0
 10
5.66981
 20
6.89195
 30
0.0
 10
5.66981
 20
6.89195
 30
0.0
 10
5.66981
 20
6.89195
 30
0.0
 10
5.66981
 20
6.89195
 30
0.0
 10
5.24701
 20
6.89195
 30
0.0
 10
5.24701
 20
6.89195
 30
0.0
 10
5.24701
 20
6.89195
 30
0.0
 10
5.24701
 20
6.89195
 30
0.0
 10
5.24701
 20
8.39813
 30
0.0
 10
5.24701
 20
8.39813
 30
0.0
  0
SPLINE
  5
44
330
1F
100
AcDbEntity
  8
Livello 1
 62
   250
370
     5
100
AcDbSpline
210
0.0
220
0.0
230
1.0
 70
     8
 71
     3
 72
     8
 73
     4
 74
     0
 42
0.0000000001
 43
0.0000000001
 40
0.0
 40
0.0
 40
0.0
 40
0.0
 40
1.0
 40
1.0
 40
1.0
 40
1.0
 10
9.46896
 20
-6.6879
 30
0.0
 10
9.53693
 20
-6.02419
 30
0.0
 10
9.65129
 20
-4.69376
 30
0.0
 10
10.55855
 20
-4.72654
 30
0.0
  0
SPLINE
  5
45
330
1F
100
AcDbEntity
  8
Livello 1
 62
   250
370
     5
100
AcDbSpline
210
0.0
220
0.0
230
1.0
 70
     8
 71
     3
 72
     8
 73
     4
 74
     0
 42
0.0000000001
 43
0.0000000001
 40
0.0
 40
0.0
 40
0.0
 40
0.0
 40
1.0
 40
1.0
 40
1.0
 40
1.0
 10
9.1649
 20
-6.6879
 30
0.0
 10
9.09693
 20
-6.02419
 30
0.0
 10
8.98257
 20
-4.69376
 30
0.0
 10
8.07531
 20
-4.72654
 30
0.0
  0
SPLINE
  5
46
330
1F
100
AcDbEntity
  8
Livello 1
 62
   250
370
     5
100
AcDbSpline
210
0.0
220
0.0
230
1.0
 70
    11
 71
     3
 72
   132
 73
   128
 74
     0
 42
0.0000000001
 43
0.0000000001
 40
0.0
 40
0.0
 40
0.0
 40
0.0
 40
0.0303030303030303
 40
0.0303030303030303
 40
0.0303030303030303
 40
0.0303030303030303
 40
0.0606060606060606
 40
0.0606060606060606
 40
0.0606060606060606
 40
0.0606060606060606
 40
0.0909090909090909
 40
0.0909090909090909
 40
0.0909090909090909
 40
0.0909090909090909
 40
0.1212121212121212
 40
0.1212121212121212
 40
0.1212121212121212
 40
0.1212121212121212
 40
0.1515151515151515
 40
0.1515151515151515
 40
0.1515151515151515
 40
0.1515151515151515
 40
0.1818181818181818
 40
0.1818181818181818
 40
0.1818181818181818
 40
0.1818181818181818
 40
0.2121212121212121
 40
0.2121212121212121
 40
0.2121212121212121
 40
0.2121212121212121
 40
0.2424242424242424
 40
0.2424242424242424
 40
0.2424242424242424
 40
0.2424242424242424
 40
0.2727272727272727
 40
0.2727272727272727
 40
0.2727272727272727
 40
0.2727272727272727
 40
0.303030303030303
 40
0.303030303030303
 40
0.303030303030303
 40
0.303030303030303
 40
0.3333333333333333
 40
0.3333333333333333
 40
0.3333333333333333
 40
0.3333333333333333
 40
0.3636363636363636
 40
0.3636363636363636
 40
0.3636363636363636
 40
0.3636363636363636
 40
0.3939393939393939
 40
0.3939393939393939
 40
0.3939393939393939
 40
0.3939393939393939
 40
0.4242424242424243
 40
0.4242424242424243
 40
0.4242424242424243
 40
0.4242424242424243
 40
0.4545454545454545
 40
0.4545454545454545
 40
0.4545454545454545
 40
0.4545454545454545
 40
0.4848484848484849
 40
0.4848484848484849
 40
0.4848484848484849
 40
0.4848484848484849
 40
0.5151515151515151
 40
0.5151515151515151
 40
0.5151515151515151
 40
0.5151515151515151
 40
0.5454545454545454
 40
0.5454545454545454
 40
0.5454545454545454
 40
0.5454545454545454
 40
0.5757575757575758
 40
0.5757575757575758
 40
0.5757575757575758
 40
0.5757575757575758
 40
0.6060606060606061
 40
0.6060606060606061
 40
0.6060606060606061
 40
0.6060606060606061
 40
0.6363636363636364
 40
0.6363636363636364
 40
0.6363636363636364
 40
0.6363636363636364
 40
0.6666666666666666
 40
0.6666666666666666
 40
0.6666666666666666
 40
0.6666666666666666
 40
0.696969696969697
 40
0.696969696969697
 40
0.696969696969697
 40
0.696969696969697
 40
0.7272727272727273
 40
0.7272727272727273
 40
0.7272727272727273
 40
0.7272727272727273
 40
0.7575757575757576
 40
0.7575757575757576
 40
0.7575757575757576
 40
0.7575757575757576
 40
0.7878787878787878
 40
0.7878787878787878
 40
0.7878787878787878
 40
0.7878787878787878
 40
0.8181818181818182
 40
0.8181818181818182
 40
0.8181818181818182
 40
0.8181818181818182
 40
0.8484848484848485
 40
0.8484848484848485
 40
0.8484848484848485
 40
0.8484848484848485
 40
0.8787878787878788
 40
0.8787878787878788
 40
0.8787878787878788
 40
0.8787878787878788
 40
0.9090909090909091
 40
0.9090909090909091
 40
0.9090909090909091
 40
0.9090909090909091
 40
0.9393939393939394
 40
0.9393939393939394
 40
0.9393939393939394
 40
0.9393939393939394
 40
1.0
 40
1.0
 40
1.0
 40
1.0
 10
9.10752
 20
-8.63123
 30
0.0
 10
8.68655
 20
-8.94335
 30
0.0
 10
7.9831
 20
-8.71072
 30
0.0
 10
7.83664
 20
-8.20896
 30
0.0
 10
7.83664
 20
-8.20896
 30
0.0
 10
7.83664
 20
-8.20896
 30
0.0
 10
7.85183
 20
-6.27788
 30
0.0
 10
7.85183
 20
-6.27788
 30
0.0
 10
7.85183
 20
-6.27788
 30
0.0
 10
7.81497
 20
-6.24136
 30
0.0
 10
7.72616
 20
-6.13354
 30
0.0
 10
7.68324
 20
-6.11561
 30
0.0
 10
7.68324
 20
-6.11561
 30
0.0
 10
7.62911
 20
-6.11965
 30
0.0
 10
7.59455
 20
-6.16049
 30
0.0
 10
7.54974
 20
-6.18844
 30
0.0
 10
7.54974
 20
-6.18844
 30
0.0
 10
7.43952
 20
-6.31444
 30
0.0
 10
7.48844
 20
-6.99783
 30
0.0
 10
7.4794
 20
-7.1734
 30
0.0
 10
7.4794
 20
-7.1734
 30
0.0
 10
7.4794
 20
-7.1734
 30
0.0
 10
6.32589
 20
-7.1734
 30
0.0
 10
6.32589
 20
-7.1734
 30
0.0
 10
6.32589
 20
-7.1734
 30
0.0
 10
6.18644
 20
-7.12989
 30
0.0
 10
6.01141
 20
-7.04347
 30
0.0
 10
5.91956
 20
-6.86856
 30
0.0
 10
5.91956
 20
-6.86856
 30
0.0
 10
5.91956
 20
-6.86856
 30
0.0
 10
5.91057
 20
-5.14284
 30
0.0
 10
5.91057
 20
-5.14284
 30
0.0
 10
5.91057
 20
-5.14284
 30
0.0
 10
6.04822
 20
-4.85659
 30
0.0
 10
6.4903
 20
-4.6487
 30
0.0
 10
6.82333
 20
-4.70669
 30
0.0
 10
6.82333
 20
-4.70669
 30
0.0
 10
6.82333
 20
-4.70669
 30
0.0
 10
6.82333
 20
-5.9832
 30
0.0
 10
6.82333
 20
-5.9832
 30
0.0
 10
6.82333
 20
-5.9832
 30
0.0
 10
6.82333
 20
-5.9832
 30
0.0
 10
7.24612
 20
-5.9832
 30
0.0
 10
7.24612
 20
-5.9832
 30
0.0
 10
7.24612
 20
-5.9832
 30
0.0
 10
7.24612
 20
-5.9832
 30
0.0
 10
7.24612
 20
-4.70669
 30
0.0
 10
7.24612
 20
-4.70669
 30
0.0
 10
7.24612
 20
-4.70669
 30
0.0
 10
7.24612
 20
-4.70669
 30
0.0
 10
7.52819
 20
-4.70669
 30
0.0
 10
7.52819
 20
-4.70669
 30
0.0
 10
7.52819
 20
-4.70669
 30
0.0
 10
7.59723
 20
-3.83683
 30
0.0
 10
8.75079
 20
-3.67219
 30
0.0
 10
9.3006
 20
-4.43908
 30
0.0
 10
9.3006
 20
-4.43908
 30
0.0
 10
9.85043
 20
-3.67219
 30
0.0
 10
11.00399
 20
-3.83683
 30
0.0
 10
11.07303
 20
-4.70669
 30
0.0
 10
11.07303
 20
-4.70669
 30
0.0
 10
11.07303
 20
-4.70669
 30
0.0
 10
11.40981
 20
-4.70669
 30
0.0
 10
11.40981
 20
-4.70669
 30
0.0
 10
11.40981
 20
-4.70669
 30
0.0
 10
11.41662
 20
-4.72536
 30
0.0
 10
11.42251
 20
-4.74451
 30
0.0
 10
11.4277
 20
-4.76399
 30
0.0
 10
11.4277
 20
-4.76399
 30
0.0
 10
11.4277
 20
-4.76399
 30
0.0
 10
11.4277
 20
-5.9742
 30
0.0
 10
11.4277
 20
-5.9742
 30
0.0
 10
11.4277
 20
-5.9742
 30
0.0
 10
11.4277
 20
-5.9742
 30
0.0
 10
11.85049
 20
-5.9742
 30
0.0
 10
11.85049
 20
-5.9742
 30
0.0
 10
11.85049
 20
-5.9742
 30
0.0
 10
11.85049
 20
-5.9742
 30
0.0
 10
11.85049
 20
-4.70078
 30
0.0
 10
11.85049
 20
-4.70078
 30
0.0
 10
11.85049
 20
-4.70078
 30
0.0
 10
12.17525
 20
-4.66645
 30
0.0
 10
12.55881
 20
-4.86869
 30
0.0
 10
12.69065
 20
-5.14284
 30
0.0
 10
12.69065
 20
-5.14284
 30
0.0
 10
12.69065
 20
-5.14284
 30
0.0
 10
12.68166
 20
-6.86856
 30
0.0
 10
12.68166
 20
-6.86856
 30
0.0
 10
12.68166
 20
-6.86856
 30
0.0
 10
12.58981
 20
-7.04347
 30
0.0
 10
12.41479
 20
-7.12989
 30
0.0
 10
12.27533
 20
-7.1734
 30
0.0
 10
12.27533
 20
-7.1734
 30
0.0
 10
12.27533
 20
-7.1734
 30
0.0
 10
11.12182
 20
-7.1734
 30
0.0
 10
11.12182
 20
-7.1734
 30
0.0
 10
11.12182
 20
-7.1734
 30
0.0
 10
11.11279
 20
-6.99783
 30
0.0
 10
11.1617
 20
-6.31444
 30
0.0
 10
11.05148
 20
-6.18844
 30
0.0
 10
11.05148
 20
-6.18844
 30
0.0
 10
11.00667
 20
-6.16049
 30
0.0
 10
10.97211
 20
-6.11965
 30
0.0
 10
10.91798
 20
-6.11561
 30
0.0
 10
10.91798
 20
-6.11561
 30
0.0
 10
10.87506
 20
-6.13354
 30
0.0
 10
10.78625
 20
-6.24136
 30
0.0
 10
10.74939
 20
-6.27788
 30
0.0
 10
10.74939
 20
-6.27788
 30
0.0
 10
10.74939
 20
-6.27788
 30
0.0
 10
10.76458
 20
-8.20896
 30
0.0
 10
10.76458
 20
-8.20896
 30
0.0
 10
10.76458
 20
-8.20896
 30
0.0
 10
10.61875
 20
-8.70852
 30
0.0
 10
9.9516
 20
-8.94123
 30
0.0
 10
9.53031
 20
-8.63521
 30
0.0
 10
9.53031
 20
-8.63521
 30
0.0
 10
9.53031
 20
-8.63521
 30
0.0
 10
9.53031
 20
-7.52604
 30
0.0
 10
9.53031
 20
-7.52604
 30
0.0
 10
9.53031
 20
-7.52604
 30
0.0
 10
9.53031
 20
-7.52604
 30
0.0
 10
9.10752
 20
-7.52604
 30
0.0
 10
9.10752
 20
-7.52604
 30
0.0
 10
9.10752
 20
-7.52604
 30
0.0
 10
9.10752
 20
-7.52604
 30
0.0
 10
9.10752
 20
-8.63123
 30
0.0
 10
9.10752
 20
-8.63123
 30
0.0
  0
SPLINE
  5
47
330
1F
100
AcDbEntity
  8
Livello 1
 62
   250
370
     5
100
AcDbSpline
210
0.0
220
0.0
230
1.0
 70
    11
 71
     3
 72
   112
 73
   108
 74
     0
 42
0.0000000001
 43
0.0000000001
 40
0.0
 40
0.0
 40
0.0
 40
0.0
 40
0.0357142857142857
 40
0.0357142857142857
 40
0.0357142857142857
 40
0.0357142857142857
 40
0.0714285714285714
 40
0.0714285714285714
 40
0.0714285714285714
 40
0.0714285714285714
 40
0.1071428571428571
 40
0.1071428571428571
 40
0.1071428571428571
 40
0.1071428571428571
 40
0.1428571428571428
 40
0.1428571428571428
 40
0.1428571428571428
 40
0.1428571428571428
 40
0.1785714285714286
 40
0.1785714285714286
 40
0.1785714285714286
 40
0.1785714285714286
 40
0.2142857142857143
 40
0.2142857142857143
 40
0.2142857142857143
 40
0.2142857142857143
 40
0.25
 40
0.25
 40
0.25
 40
0.25
 40
0.2857142857142857
 40
0.2857142857142857
 40
0.2857142857142857
 40
0.2857142857142857
 40
0.3214285714285715
 40
0.3214285714285715
 40
0.3214285714285715
 40
0.3214285714285715
 40
0.3571428571428572
 40
0.3571428571428572
 40
0.3571428571428572
 40
0.3571428571428572
 40
0.3928571428571428
 40
0.3928571428571428
 40
0.3928571428571428
 40
0.3928571428571428
 40
0.4285714285714285
 40
0.4285714285714285
 40
0.4285714285714285
 40
0.4285714285714285
 40
0.4642857142857143
 40
0.4642857142857143
 40
0.4642857142857143
 40
0.4642857142857143
 40
0.5
 40
0.5
 40
0.5
 40
0.5
 40
0.5357142857142857
 40
0.5357142857142857
 40
0.5357142857142857
 40
0.5357142857142857
 40
0.5714285714285714
 40
0.5714285714285714
 40
0.5714285714285714
 40
0.5714285714285714
 40
0.6071428571428571
 40
0.6071428571428571
 40
0.6071428571428571
 40
0.6071428571428571
 40
0.6428571428571429
 40
0.6428571428571429
 40
0.6428571428571429
 40
0.6428571428571429
 40
0.6785714285714286
 40
0.6785714285714286
 40
0.6785714285714286
 40
0.6785714285714286
 40
0.7142857142857143
 40
0.7142857142857143
 40
0.7142857142857143
 40
0.7142857142857143
 40
0.75
 40
0.75
 40
0.75
 40
0.75
 40
0.7857142857142857
 40
0.7857142857142857
 40
0.7857142857142857
 40
0.7857142857142857
 40
0.8214285714285714
 40
0.8214285714285714
 40
0.8214285714285714
 40
0.8214285714285714
 40
0.8571428571428571
 40
0.8571428571428571
 40
0.8571428571428571
 40
0.8571428571428571
 40
0.8928571428571429
 40
0.8928571428571429
 40
0.8928571428571429
 40
0.8928571428571429
 40
0.9285714285714286
 40
0.9285714285714286
 40
0.9285714285714286
 40
0.9285714285714286
 40
1.0
 40
1.0
 40
1.0
 40
1.0
 10
10.76427
 20
6.38859
 30
0.0
 10
10.76427
 20
6.38859
 30
0.0
 10
11.16454
 20
7.32161
 30
0.0
 10
11.16454
 20
7.32161
 30
0.0
 10
11.16454
 20
7.32161
 30
0.0
 10
11.16454
 20
7.32161
 30
0.0
 10
9.22064
 20
8.21307
 30
0.0
 10
9.22064
 20
8.21307
 30
0.0
 10
9.22064
 20
8.21307
 30
0.0
 10
9.22064
 20
8.21307
 30
0.0
 10
8.79391
 20
8.65895
 30
0.0
 10
8.79391
 20
8.65895
 30
0.0
 10
8.79391
 20
8.65895
 30
0.0
 10
8.63135
 20
8.86576
 30
0.0
 10
8.72193
 20
8.9973
 30
0.0
 10
8.95142
 20
8.94161
 30
0.0
 10
8.95142
 20
8.94161
 30
0.0
 10
9.19626
 20
8.88485
 30
0.0
 10
9.29216
 20
8.83903
 30
0.0
 10
9.53918
 20
8.81329
 30
0.0
 10
9.53918
 20
8.81329
 30
0.0
 10
9.7236
 20
8.86112
 30
0.0
 10
9.54272
 20
9.09888
 30
0.0
 10
9.71688
 20
9.18533
 30
0.0
 10
9.71688
 20
9.18533
 30
0.0
 10
9.83094
 20
9.25998
 30
0.0
 10
10.04
 20
9.19918
 30
0.0
 10
10.15256
 20
9.10965
 30
0.0
 10
10.15256
 20
9.10965
 30
0.0
 10
10.40016
 20
8.91272
 30
0.0
 10
10.55642
 20
8.52037
 30
0.0
 10
10.69581
 20
8.81843
 30
0.0
 10
10.69581
 20
8.81843
 30
0.0
 10
10.74928
 20
8.92038
 30
0.0
 10
10.773
 20
8.88082
 30
0.0
 10
10.82514
 20
8.80185
 30
0.0
 10
10.82514
 20
8.80185
 30
0.0
 10
10.94173
 20
8.64144
 30
0.0
 10
10.97589
 20
8.35608
 30
0.0
 10
10.99595
 20
8.18678
 30
0.0
 10
10.99595
 20
8.18678
 30
0.0
 10
12.0843
 20
8.43033
 30
0.0
 10
12.96544
 20
8.00121
 30
0.0
 10
13.12075
 20
7.04637
 30
0.0
 10
13.12075
 20
7.04637
 30
0.0
 10
13.231
 20
6.36849
 30
0.0
 10
12.77051
 20
5.88422
 30
0.0
 10
12.1521
 20
5.51007
 30
0.0
 10
12.1521
 20
5.51007
 30
0.0
 10
12.2874
 20
4.79586
 30
0.0
 10
12.22902
 20
4.13016
 30
0.0
 10
11.64785
 20
3.76426
 30
0.0
 10
11.64785
 20
3.76426
 30
0.0
 10
10.82919
 20
3.24882
 30
0.0
 10
9.92437
 20
3.6255
 30
0.0
 10
9.38679
 20
4.60267
 30
0.0
 10
9.38679
 20
4.60267
 30
0.0
 10
9.24659
 20
4.50562
 30
0.0
 10
9.01
 20
4.34244
 30
0.0
 10
8.81259
 20
4.32367
 30
0.0
 10
8.81259
 20
4.32367
 30
0.0
 10
8.71888
 20
4.31052
 30
0.0
 10
8.67355
 20
4.30211
 30
0.0
 10
8.71457
 20
4.40969
 30
0.0
 10
8.71457
 20
4.40969
 30
0.0
 10
8.84582
 20
4.71145
 30
0.0
 10
8.44825
 20
4.56897
 30
0.0
 10
8.13676
 20
4.62427
 30
0.0
 10
8.13676
 20
4.62427
 30
0.0
 10
7.99518
 20
4.64943
 30
0.0
 10
7.81121
 20
4.76591
 30
0.0
 10
7.79173
 20
4.90086
 30
0.0
 10
7.79173
 20
4.90086
 30
0.0
 10
7.74128
 20
5.08864
 30
0.0
 10
8.03925
 20
5.11034
 30
0.0
 10
7.95305
 20
5.28026
 30
0.0
 10
7.95305
 20
5.28026
 30
0.0
 10
7.77029
 20
5.44842
 30
0.0
 10
7.6725
 20
5.48998
 30
0.0
 10
7.46793
 20
5.63599
 30
0.0
 10
7.46793
 20
5.63599
 30
0.0
 10
7.27428
 20
5.77121
 30
0.0
 10
7.31298
 20
5.9262
 30
0.0
 10
7.5756
 20
5.94112
 30
0.0
 10
7.5756
 20
5.94112
 30
0.0
 10
7.5756
 20
5.94112
 30
0.0
 10
8.19228
 20
5.91626
 30
0.0
 10
8.19228
 20
5.91626
 30
0.0
 10
8.19228
 20
5.91626
 30
0.0
 10
8.19228
 20
5.91626
 30
0.0
 10
10.147
 20
5.04874
 30
0.0
 10
10.147
 20
5.04874
 30
0.0
 10
10.147
 20
5.04874
 30
0.0
 10
10.147
 20
5.04874
 30
0.0
 10
10.59225
 20
6.00163
 30
0.0
 10
10.59225
 20
6.00163
 30
0.0
 10
10.59225
 20
6.00163
 30
0.0
 10
10.59225
 20
6.00163
 30
0.0
 10
11.07869
 20
5.75148
 30
0.0
 10
11.07869
 20
5.75148
 30
0.0
 10
11.07869
 20
5.75148
 30
0.0
 10
11.07869
 20
5.75148
 30
0.0
 10
11.27204
 20
6.12746
 30
0.0
 10
11.27204
 20
6.12746
 30
0.0
 10
11.27204
 20
6.12746
 30
0.0
 10
11.27204
 20
6.12746
 30
0.0
 10
10.76427
 20
6.38859
 30
0.0
 10
10.76427
 20
6.38859
 30
0.0
  0
SPLINE
  5
48
330
1F
100
AcDbEntity
  8
Livello 1
 62
   250
370
     5
100
AcDbSpline
210
0.0
220
0.0
230
1.0
 70
    11
 71
     3
 72
    20
 73
    16
 74
     0
 42
0.0000000001
 43
0.0000000001
 40
0.0
 40
0.0
 40
0.0
 40
0.0
 40
0.2
 40
0.2
 40
0.2
 40
0.2
 40
0.4
 40
0.4
 40
0.4
 40
0.4
 40
0.6
 40
0.6
 40
0.6
 40
0.6
 40
1.0
 40
1.0
 40
1.0
 40
1.0
 10
10.90174
 20
5.18615
 30
0.0
 10
11.01967
 20
5.18449
 30
0.0
 10
11.11397
 20
5.08752
 30
0.0
 10
11.11231
 20
4.96958
 30
0.0
 10
11.11231
 20
4.96958
 30
0.0
 10
11.11067
 20
4.85166
 30
0.0
 10
11.01368
 20
4.75737
 30
0.0
 10
10.89574
 20
4.75901
 30
0.0
 10
10.89574
 20
4.75901
 30
0.0
 10
10.77782
 20
4.76067
 30
0.0
 10
10.6835
 20
4.85766
 30
0.0
 10
10.68518
 20
4.97558
 30
0.0
 10
10.68518
 20
4.97558
 30
0.0
 10
10.68682
 20
5.09352
 30
0.0
 10
10.78382
 20
5.18784
 30
0.0
 10
10.90174
 20
5.18615
 30
0.0
  0
SPLINE
  5
49
330
1F
100
AcDbEntity
  8
Livello 1
 62
   250
370
     5
100
AcDbSpline
210
0.0
220
0.0
230
1.0
 70
    11
 71
     3
 72
    20
 73
    16
 74
     0
 42
0.0000000001
 43
0.0000000001
 40
0.0
 40
0.0
 40
0.0
 40
0.0
 40
0.2
 40
0.2
 40
0.2
 40
0.2
 40
0.4
 40
0.4
 40
0.4
 40
0.4
 40
0.6
 40
0.6
 40
0.6
 40
0.6
 40
1.0
 40
1.0
 40
1.0
 40
1.0
 10
11.77233
 20
7.07699
 30
0.0
 10
11.89027
 20
7.07533
 30
0.0
 10
11.98459
 20
6.97835
 30
0.0
 10
11.9829
 20
6.86043
 30
0.0
 10
11.9829
 20
6.86043
 30
0.0
 10
11.98124
 20
6.74249
 30
0.0
 10
11.88427
 20
6.64819
 30
0.0
 10
11.76635
 20
6.64984
 30
0.0
 10
11.76635
 20
6.64984
 30
0.0
 10
11.64839
 20
6.6515
 30
0.0
 10
11.55411
 20
6.7485
 30
0.0
 10
11.55576
 20
6.86643
 30
0.0
 10
11.55576
 20
6.86643
 30
0.0
 10
11.55742
 20
6.98435
 30
0.0
 10
11.65441
 20
7.07864
 30
0.0
 10
11.77233
 20
7.07699
 30
0.0
  0
SPLINE
  5
4A
330
1F
100
AcDbEntity
  8
Livello 1
 62
   250
370
     5
100
AcDbSpline
210
0.0
220
0.0
230
1.0
 70
    11
 71
     3
 72
   116
 73
   112
 74
     0
 42
0.0000000001
 43
0.0000000001
 40
0.0
 40
0.0
 40
0.0
 40
0.0
 40
0.0344827586206897
 40
0.0344827586206897
 40
0.0344827586206897
 40
0.0344827586206897
 40
0.0689655172413793
 40
0.0689655172413793
 40
0.0689655172413793
 40
0.0689655172413793
 40
0.103448275862069
 40
0.103448275862069
 40
0.103448275862069
 40
0.103448275862069
 40
0.1379310344827586
 40
0.1379310344827586
 40
0.1379310344827586
 40
0.1379310344827586
 40
0.1724137931034483
 40
0.1724137931034483
 40
0.1724137931034483
 40
0.1724137931034483
 40
0.2068965517241379
 40
0.2068965517241379
 40
0.2068965517241379
 40
0.2068965517241379
 40
0.2413793103448276
 40
0.2413793103448276
 40
0.2413793103448276
 40
0.2413793103448276
 40
0.2758620689655172
 40
0.2758620689655172
 40
0.2758620689655172
 40
0.2758620689655172
 40
0.3103448275862069
 40
0.3103448275862069
 40
0.3103448275862069
 40
0.3103448275862069
 40
0.3448275862068966
 40
0.3448275862068966
 40
0.3448275862068966
 40
0.3448275862068966
 40
0.3793103448275862
 40
0.3793103448275862
 40
0.3793103448275862
 40
0.3793103448275862
 40
0.4137931034482759
 40
0.4137931034482759
 40
0.4137931034482759
 40
0.4137931034482759
 40
0.4482758620689655
 40
0.4482758620689655
 40
0.4482758620689655
 40
0.4482758620689655
 40
0.4827586206896552
 40
0.4827586206896552
 40
0.4827586206896552
 40
0.4827586206896552
 40
0.5172413793103449
 40
0.5172413793103449
 40
0.5172413793103449
 40
0.5172413793103449
 40
0.5517241379310345
 40
0.5517241379310345
 40
0.5517241379310345
 40
0.5517241379310345
 40
0.5862068965517241
 40
0.5862068965517241
 40
0.5862068965517241
 40
0.5862068965517241
 40
0.6206896551724138
 40
0.6206896551724138
 40
0.6206896551724138
 40
0.6206896551724138
 40
0.6551724137931034
 40
0.6551724137931034
 40
0.6551724137931034
 40
0.6551724137931034
 40
0.6896551724137931
 40
0.6896551724137931
 40
0.6896551724137931
 40
0.6896551724137931
 40
0.7241379310344828
 40
0.7241379310344828
 40
0.7241379310344828
 40
0.7241379310344828
 40
0.7586206896551724
 40
0.7586206896551724
 40
0.7586206896551724
 40
0.7586206896551724
 40
0.7931034482758621
 40
0.7931034482758621
 40
0.7931034482758621
 40
0.7931034482758621
 40
0.8275862068965517
 40
0.8275862068965517
 40
0.8275862068965517
 40
0.8275862068965517
 40
0.8620689655172413
 40
0.8620689655172413
 40
0.8620689655172413
 40
0.8620689655172413
 40
0.896551724137931
 40
0.896551724137931
 40
0.896551724137931
 40
0.896551724137931
 40
0.9310344827586207
 40
0.9310344827586207
 40
0.9310344827586207
 40
0.9310344827586207
 40
1.0
 40
1.0
 40
1.0
 40
1.0
 10
-13.23971
 20
6.18873
 30
0.0
 10
-13.13381
 20
6.21795
 30
0.0
 10
-13.07812
 20
6.28886
 30
0.0
 10
-13.00995
 20
6.34909
 30
0.0
 10
-13.00995
 20
6.34909
 30
0.0
 10
-12.94442
 20
6.31479
 30
0.0
 10
-12.86983
 20
6.18329
 30
0.0
 10
-12.79878
 20
6.10061
 30
0.0
 10
-12.79878
 20
6.10061
 30
0.0
 10
-12.70587
 20
6.12017
 30
0.0
 10
-12.72534
 20
6.32308
 30
0.0
 10
-12.63764
 20
6.34282
 30
0.0
 10
-12.63764
 20
6.34282
 30
0.0
 10
-12.47207
 20
6.29924
 30
0.0
 10
-12.31234
 20
6.14575
 30
0.0
 10
-12.13298
 20
6.15491
 30
0.0
 10
-12.13298
 20
6.15491
 30
0.0
 10
-12.04328
 20
6.26107
 30
0.0
 10
-12.17128
 20
6.5551
 30
0.0
 10
-11.95738
 20
6.62188
 30
0.0
 10
-11.95738
 20
6.62188
 30
0.0
 10
-11.56769
 20
6.43874
 30
0.0
 10
-11.30503
 20
5.84852
 30
0.0
 10
-11.21268
 20
5.50578
 30
0.0
 10
-11.21268
 20
5.50578
 30
0.0
 10
-10.92767
 20
4.44823
 30
0.0
 10
-10.68821
 20
3.18857
 30
0.0
 10
-9.96414
 20
2.42111
 30
0.0
 10
-9.96414
 20
2.42111
 30
0.0
 10
-9.67351
 20
2.46064
 30
0.0
 10
-9.75588
 20
2.65318
 30
0.0
 10
-9.60657
 20
2.71228
 30
0.0
 10
-9.60657
 20
2.71228
 30
0.0
 10
-9.2353
 20
3.04225
 30
0.0
 10
-8.71137
 20
1.92665
 30
0.0
 10
-8.19356
 20
1.56131
 30
0.0
 10
-8.19356
 20
1.56131
 30
0.0
 10
-7.99238
 20
1.70036
 30
0.0
 10
-8.22394
 20
2.09688
 30
0.0
 10
-8.05097
 20
2.24818
 30
0.0
 10
-8.05097
 20
2.24818
 30
0.0
 10
-7.37004
 20
2.3301
 30
0.0
 10
-6.96994
 20
1.59521
 30
0.0
 10
-6.28414
 20
1.84991
 30
0.0
 10
-6.28414
 20
1.84991
 30
0.0
 10
-4.66618
 20
2.5765
 30
0.0
 10
-2.54382
 20
4.56067
 30
0.0
 10
-0.74528
 20
5.22375
 30
0.0
 10
-0.74528
 20
5.22375
 30
0.0
 10
-0.4255
 20
5.34165
 30
0.0
 10
-0.08811
 20
5.44521
 30
0.0
 10
0.29635
 20
5.40959
 30
0.0
 10
0.29635
 20
5.40959
 30
0.0
 10
0.67737
 20
5.39987
 30
0.0
 10
0.7853
 20
4.90229
 30
0.0
 10
1.14062
 20
4.70794
 30
0.0
 10
1.14062
 20
4.70794
 30
0.0
 10
1.4354
 20
4.54672
 30
0.0
 10
1.67278
 20
4.54655
 30
0.0
 10
2.15382
 20
4.61385
 30
0.0
 10
2.15382
 20
4.61385
 30
0.0
 10
2.06281
 20
5.32383
 30
0.0
 10
1.97178
 20
6.03381
 30
0.0
 10
1.88074
 20
6.74378
 30
0.0
 10
1.88074
 20
6.74378
 30
0.0
 10
1.88074
 20
6.74378
 30
0.0
 10
2.3001
 20
6.79755
 30
0.0
 10
2.3001
 20
6.79755
 30
0.0
 10
2.3001
 20
6.79755
 30
0.0
 10
2.3001
 20
6.79755
 30
0.0
 10
2.58531
 20
4.71676
 30
0.0
 10
2.58531
 20
4.71676
 30
0.0
 10
2.58531
 20
4.71676
 30
0.0
 10
3.5607
 20
5.06701
 30
0.0
 10
3.13218
 20
7.32479
 30
0.0
 10
2.30392
 20
8.39703
 30
0.0
 10
2.30392
 20
8.39703
 30
0.0
 10
1.49138
 20
9.44891
 30
0.0
 10
0.4478
 20
9.52808
 30
0.0
 10
-0.37164
 20
9.52456
 30
0.0
 10
-0.37164
 20
9.52456
 30
0.0
 10
-1.46712
 20
9.51985
 30
0.0
 10
-2.70279
 20
9.2464
 30
0.0
 10
-3.75495
 20
8.77954
 30
0.0
 10
-3.75495
 20
8.77954
 30
0.0
 10
-4.74182
 20
8.34156
 30
0.0
 10
-5.5423
 20
7.63457
 30
0.0
 10
-6.38458
 20
7.23016
 30
0.0
 10
-6.38458
 20
7.23016
 30
0.0
 10
-7.06465
 20
7.64257
 30
0.0
 10
-7.36332
 20
8.00733
 30
0.0
 10
-8.08718
 20
8.20753
 30
0.0
 10
-8.08718
 20
8.20753
 30
0.0
 10
-9.25847
 20
8.53145
 30
0.0
 10
-10.63341
 20
7.81297
 30
0.0
 10
-11.43996
 20
8.40128
 30
0.0
 10
-11.43996
 20
8.40128
 30
0.0
 10
-11.79083
 20
8.59008
 30
0.0
 10
-11.69653
 20
9.14221
 30
0.0
 10
-11.82637
 20
9.28817
 30
0.0
 10
-11.82637
 20
9.28817
 30
0.0
 10
-12.1911
 20
9.58146
 30
0.0
 10
-13.42282
 20
9.2092
 30
0.0
 10
-13.55261
 20
8.55434
 30
0.0
 10
-13.55261
 20
8.55434
 30
0.0
 10
-13.59252
 20
8.33103
 30
0.0
 10
-13.61327
 20
7.8704
 30
0.0
 10
-13.63181
 20
7.62666
 30
0.0
 10
-13.63181
 20
7.62666
 30
0.0
 10
-13.65867
 20
7.27249
 30
0.0
 10
-13.57088
 20
6.41669
 30
0.0
 10
-13.23971
 20
6.18873
 30
0.0
  0
SPLINE
  5
4B
330
1F
100
AcDbEntity
  8
Livello 1
 62
   250
370
     5
100
AcDbSpline
210
0.0
220
0.0
230
1.0
 70
    11
 71
     3
 72
    20
 73
    16
 74
     0
 42
0.0000000001
 43
0.0000000001
 40
0.0
 40
0.0
 40
0.0
 40
0.0
 40
0.2
 40
0.2
 40
0.2
 40
0.2
 40
0.4
 40
0.4
 40
0.4
 40
0.4
 40
0.6
 40
0.6
 40
0.6
 40
0.6
 40
1.0
 40
1.0
 40
1.0
 40
1.0
 10
-10.74094
 20
6.70166
 30
0.0
 10
-10.74094
 20
6.70166
 30
0.0
 10
-10.79082
 20
7.12149
 30
0.0
 10
-10.79082
 20
7.12149
 30
0.0
 10
-10.79082
 20
7.12149
 30
0.0
 10
-10.79082
 20
7.12149
 30
0.0
 10
-7.70531
 20
7.488
 30
0.0
 10
-7.70531
 20
7.488
 30
0.0
 10
-7.70531
 20
7.488
 30
0.0
 10
-7.70531
 20
7.488
 30
0.0
 10
-7.65545
 20
7.06815
 30
0.0
 10
-7.65545
 20
7.06815
 30
0.0
 10
-7.65545
 20
7.06815
 30
0.0
 10
-7.65545
 20
7.06815
 30
0.0
 10
-10.74094
 20
6.70166
 30
0.0
 10
-10.74094
 20
6.70166
 30
0.0
  0
SPLINE
  5
4C
330
1F
100
AcDbEntity
  8
Livello 1
 62
   250
370
     9
100
AcDbSpline
210
0.0
220
0.0
230
1.0
 70
    11
 71
     3
 72
    64
 73
    60
 74
     0
 42
0.0000000001
 43
0.0000000001
 40
0.0
 40
0.0
 40
0.0
 40
0.0
 40
0.0625
 40
0.0625
 40
0.0625
 40
0.0625
 40
0.125
 40
0.125
 40
0.125
 40
0.125
 40
0.1875
 40
0.1875
 40
0.1875
 40
0.1875
 40
0.25
 40
0.25
 40
0.25
 40
0.25
 40
0.3125
 40
0.3125
 40
0.3125
 40
0.3125
 40
0.375
 40
0.375
 40
0.375
 40
0.375
 40
0.4375
 40
0.4375
 40
0.4375
 40
0.4375
 40
0.5
 40
0.5
 40
0.5
 40
0.5
 40
0.5625
 40
0.5625
 40
0.5625
 40
0.5625
 40
0.625
 40
0.625
 40
0.625
 40
0.625
 40
0.6875
 40
0.6875
 40
0.6875
 40
0.6875
 40
0.75
 40
0.75
 40
0.75
 40
0.75
 40
0.8125
 40
0.8125
 40
0.8125
 40
0.8125
 40
0.875
 40
0.875
 40
0.875
 40
0.875
 40
1.0
 40
1.0
 40
1.0
 40
1.0
 10
-5.66359
 20
5.23866
 30
0.0
 10
-5.66359
 20
5.23866
 30
0.0
 10
-5.50315
 20
5.46684
 30
0.0
 10
-5.50315
 20
5.46684
 30
0.0
 10
-5.50315
 20
5.46684
 30
0.0
 10
-5.50315
 20
5.46684
 30
0.0
 10
-5.6516
 20
5.67766
 30
0.0
 10
-5.6516
 20
5.67766
 30
0.0
 10
-5.6516
 20
5.67766
 30
0.0
 10
-5.6516
 20
5.67766
 30
0.0
 10
-5.5586
 20
5.67766
 30
0.0
 10
-5.5586
 20
5.67766
 30
0.0
 10
-5.5586
 20
5.67766
 30
0.0
 10
-5.5586
 20
5.67766
 30
0.0
 10
-5.49115
 20
5.57479
 30
0.0
 10
-5.49115
 20
5.57479
 30
0.0
 10
-5.49115
 20
5.57479
 30
0.0
 10
-5.47859
 20
5.55517
 30
0.0
 10
-5.46829
 20
5.5388
 30
0.0
 10
-5.46067
 20
5.52554
 30
0.0
 10
-5.46067
 20
5.52554
 30
0.0
 10
-5.44854
 20
5.54374
 30
0.0
 10
-5.43739
 20
5.55983
 30
0.0
 10
-5.42709
 20
5.57394
 30
0.0
 10
-5.42709
 20
5.57394
 30
0.0
 10
-5.42709
 20
5.57394
 30
0.0
 10
-5.35315
 20
5.67766
 30
0.0
 10
-5.35315
 20
5.67766
 30
0.0
 10
-5.35315
 20
5.67766
 30
0.0
 10
-5.35315
 20
5.67766
 30
0.0
 10
-5.26425
 20
5.67766
 30
0.0
 10
-5.26425
 20
5.67766
 30
0.0
 10
-5.26425
 20
5.67766
 30
0.0
 10
-5.26425
 20
5.67766
 30
0.0
 10
-5.41594
 20
5.47093
 30
0.0
 10
-5.41594
 20
5.47093
 30
0.0
 10
-5.41594
 20
5.47093
 30
0.0
 10
-5.41594
 20
5.47093
 30
0.0
 10
-5.25267
 20
5.23866
 30
0.0
 10
-5.25267
 20
5.23866
 30
0.0
 10
-5.25267
 20
5.23866
 30
0.0
 10
-5.25267
 20
5.23866
 30
0.0
 10
-5.34397
 20
5.23866
 30
0.0
 10
-5.34397
 20
5.23866
 30
0.0
 10
-5.34397
 20
5.23866
 30
0.0
 10
-5.34397
 20
5.23866
 30
0.0
 10
-5.43414
 20
5.37511
 30
0.0
 10
-5.43414
 20
5.37511
 30
0.0
 10
-5.43414
 20
5.37511
 30
0.0
 10
-5.43414
 20
5.37511
 30
0.0
 10
-5.45813
 20
5.41195
 30
0.0
 10
-5.45813
 20
5.41195
 30
0.0
 10
-5.45813
 20
5.41195
 30
0.0
 10
-5.45813
 20
5.41195
 30
0.0
 10
-5.57342
 20
5.23866
 30
0.0
 10
-5.57342
 20
5.23866
 30
0.0
 10
-5.57342
 20
5.23866
 30
0.0
 10
-5.57342
 20
5.23866
 30
0.0
 10
-5.66359
 20
5.23866
 30
0.0
 10
-5.66359
 20
5.23866
 30
0.0
  0
SPLINE
  5
4D
330
1F
100
AcDbEntity
  8
Livello 1
 62
   250
370
     9
100
AcDbSpline
210
0.0
220
0.0
230
1.0
 70
    11
 71
     3
 72
    92
 73
    88
 74
     0
 42
0.0000000001
 43
0.0000000001
 40
0.0
 40
0.0
 40
0.0
 40
0.0
 40
0.0434782608695652
 40
0.0434782608695652
 40
0.0434782608695652
 40
0.0434782608695652
 40
0.0869565217391304
 40
0.0869565217391304
 40
0.0869565217391304
 40
0.0869565217391304
 40
0.1304347826086956
 40
0.1304347826086956
 40
0.1304347826086956
 40
0.1304347826086956
 40
0.1739130434782609
 40
0.1739130434782609
 40
0.1739130434782609
 40
0.1739130434782609
 40
0.2173913043478261
 40
0.2173913043478261
 40
0.2173913043478261
 40
0.2173913043478261
 40
0.2608695652173913
 40
0.2608695652173913
 40
0.2608695652173913
 40
0.2608695652173913
 40
0.3043478260869565
 40
0.3043478260869565
 40
0.3043478260869565
 40
0.3043478260869565
 40
0.3478260869565217
 40
0.3478260869565217
 40
0.3478260869565217
 40
0.3478260869565217
 40
0.391304347826087
 40
0.391304347826087
 40
0.391304347826087
 40
0.391304347826087
 40
0.4347826086956522
 40
0.4347826086956522
 40
0.4347826086956522
 40
0.4347826086956522
 40
0.4782608695652174
 40
0.4782608695652174
 40
0.4782608695652174
 40
0.4782608695652174
 40
0.5217391304347826
 40
0.5217391304347826
 40
0.5217391304347826
 40
0.5217391304347826
 40
0.5652173913043478
 40
0.5652173913043478
 40
0.5652173913043478
 40
0.5652173913043478
 40
0.6086956521739131
 40
0.6086956521739131
 40
0.6086956521739131
 40
0.6086956521739131
 40
0.6521739130434783
 40
0.6521739130434783
 40
0.6521739130434783
 40
0.6521739130434783
 40
0.6956521739130435
 40
0.6956521739130435
 40
0.6956521739130435
 40
0.6956521739130435
 40
0.7391304347826086
 40
0.7391304347826086
 40
0.7391304347826086
 40
0.7391304347826086
 40
0.782608695652174
 40
0.782608695652174
 40
0.782608695652174
 40
0.782608695652174
 40
0.8260869565217391
 40
0.8260869565217391
 40
0.8260869565217391
 40
0.8260869565217391
 40
0.8695652173913043
 40
0.8695652173913043
 40
0.8695652173913043
 40
0.8695652173913043
 40
0.9130434782608695
 40
0.9130434782608695
 40
0.9130434782608695
 40
0.9130434782608695
 40
1.0
 40
1.0
 40
1.0
 40
1.0
 10
-4.82016
 20
5.3102
 30
0.0
 10
-4.82016
 20
5.3102
 30
0.0
 10
-4.82016
 20
5.23866
 30
0.0
 10
-4.82016
 20
5.23866
 30
0.0
 10
-4.82016
 20
5.23866
 30
0.0
 10
-4.82016
 20
5.23866
 30
0.0
 10
-5.22078
 20
5.23866
 30
0.0
 10
-5.22078
 20
5.23866
 30
0.0
 10
-5.22078
 20
5.23866
 30
0.0
 10
-5.22134
 20
5.25658
 30
0.0
 10
-5.21852
 20
5.2738
 30
0.0
 10
-5.21217
 20
5.29031
 30
0.0
 10
-5.21217
 20
5.29031
 30
0.0
 10
-5.20201
 20
5.31768
 30
0.0
 10
-5.18564
 20
5.34449
 30
0.0
 10
-5.1632
 20
5.37102
 30
0.0
 10
-5.1632
 20
5.37102
 30
0.0
 10
-5.14063
 20
5.39741
 30
0.0
 10
-5.10817
 20
5.42803
 30
0.0
 10
-5.06584
 20
5.46275
 30
0.0
 10
-5.06584
 20
5.46275
 30
0.0
 10
-4.99994
 20
5.51679
 30
0.0
 10
-4.95535
 20
5.55955
 30
0.0
 10
-4.9322
 20
5.59116
 30
0.0
 10
-4.9322
 20
5.59116
 30
0.0
 10
-4.90906
 20
5.62262
 30
0.0
 10
-4.89749
 20
5.65254
 30
0.0
 10
-4.89749
 20
5.68062
 30
0.0
 10
-4.89749
 20
5.68062
 30
0.0
 10
-4.89749
 20
5.71011
 30
0.0
 10
-4.90807
 20
5.73495
 30
0.0
 10
-4.9291
 20
5.75527
 30
0.0
 10
-4.9291
 20
5.75527
 30
0.0
 10
-4.95027
 20
5.77545
 30
0.0
 10
-4.97778
 20
5.78561
 30
0.0
 10
-5.01165
 20
5.78561
 30
0.0
 10
-5.01165
 20
5.78561
 30
0.0
 10
-5.04749
 20
5.78561
 30
0.0
 10
-5.07614
 20
5.77488
 30
0.0
 10
-5.09759
 20
5.75329
 30
0.0
 10
-5.09759
 20
5.75329
 30
0.0
 10
-5.11918
 20
5.73185
 30
0.0
 10
-5.13004
 20
5.70207
 30
0.0
 10
-5.13033
 20
5.66411
 30
0.0
 10
-5.13033
 20
5.66411
 30
0.0
 10
-5.13033
 20
5.66411
 30
0.0
 10
-5.20681
 20
5.67187
 30
0.0
 10
-5.20681
 20
5.67187
 30
0.0
 10
-5.20681
 20
5.67187
 30
0.0
 10
-5.20159
 20
5.72902
 30
0.0
 10
-5.18183
 20
5.77249
 30
0.0
 10
-5.14768
 20
5.8024
 30
0.0
 10
-5.14768
 20
5.8024
 30
0.0
 10
-5.11353
 20
5.83232
 30
0.0
 10
-5.06753
 20
5.84727
 30
0.0
 10
-5.00996
 20
5.84727
 30
0.0
 10
-5.00996
 20
5.84727
 30
0.0
 10
-4.95182
 20
5.84727
 30
0.0
 10
-4.90582
 20
5.83105
 30
0.0
 10
-4.87195
 20
5.79887
 30
0.0
 10
-4.87195
 20
5.79887
 30
0.0
 10
-4.83794
 20
5.76656
 30
0.0
 10
-4.82101
 20
5.72662
 30
0.0
 10
-4.82101
 20
5.67893
 30
0.0
 10
-4.82101
 20
5.67893
 30
0.0
 10
-4.82101
 20
5.65466
 30
0.0
 10
-4.82595
 20
5.63081
 30
0.0
 10
-4.83597
 20
5.60738
 30
0.0
 10
-4.83597
 20
5.60738
 30
0.0
 10
-4.84584
 20
5.58396
 30
0.0
 10
-4.86235
 20
5.55927
 30
0.0
 10
-4.88536
 20
5.53344
 30
0.0
 10
-4.88536
 20
5.53344
 30
0.0
 10
-4.90836
 20
5.50748
 30
0.0
 10
-4.9466
 20
5.47192
 30
0.0
 10
-5.00008
 20
5.42676
 30
0.0
 10
-5.00008
 20
5.42676
 30
0.0
 10
-5.04467
 20
5.38923
 30
0.0
 10
-5.07332
 20
5.36383
 30
0.0
 10
-5.08602
 20
5.35042
 30
0.0
 10
-5.08602
 20
5.35042
 30
0.0
 10
-5.09872
 20
5.33716
 30
0.0
 10
-5.10916
 20
5.32375
 30
0.0
 10
-5.11748
 20
5.3102
 30
0.0
 10
-5.11748
 20
5.3102
 30
0.0
 10
-5.11748
 20
5.3102
 30
0.0
 10
-4.82016
 20
5.3102
 30
0.0
 10
-4.82016
 20
5.3102
 30
0.0
  0
SPLINE
  5
4E
330
1F
100
AcDbEntity
  8
Livello 1
 62
   250
370
     5
100
AcDbSpline
210
0.0
220
0.0
230
1.0
 70
    11
 71
     3
 72
    88
 73
    84
 74
     0
 42
0.0000000001
 43
0.0000000001
 40
0.0
 40
0.0
 40
0.0
 40
0.0
 40
0.0454545454545455
 40
0.0454545454545455
 40
0.0454545454545455
 40
0.0454545454545455
 40
0.0909090909090909
 40
0.0909090909090909
 40
0.0909090909090909
 40
0.0909090909090909
 40
0.1363636363636364
 40
0.1363636363636364
 40
0.1363636363636364
 40
0.1363636363636364
 40
0.1818181818181818
 40
0.1818181818181818
 40
0.1818181818181818
 40
0.1818181818181818
 40
0.2272727272727273
 40
0.2272727272727273
 40
0.2272727272727273
 40
0.2272727272727273
 40
0.2727272727272727
 40
0.2727272727272727
 40
0.2727272727272727
 40
0.2727272727272727
 40
0.3181818181818182
 40
0.3181818181818182
 40
0.3181818181818182
 40
0.3181818181818182
 40
0.3636363636363636
 40
0.3636363636363636
 40
0.3636363636363636
 40
0.3636363636363636
 40
0.4090909090909091
 40
0.4090909090909091
 40
0.4090909090909091
 40
0.4090909090909091
 40
0.4545454545454545
 40
0.4545454545454545
 40
0.4545454545454545
 40
0.4545454545454545
 40
0.5
 40
0.5
 40
0.5
 40
0.5
 40
0.5454545454545454
 40
0.5454545454545454
 40
0.5454545454545454
 40
0.5454545454545454
 40
0.5909090909090909
 40
0.5909090909090909
 40
0.5909090909090909
 40
0.5909090909090909
 40
0.6363636363636364
 40
0.6363636363636364
 40
0.6363636363636364
 40
0.6363636363636364
 40
0.6818181818181818
 40
0.6818181818181818
 40
0.6818181818181818
 40
0.6818181818181818
 40
0.7272727272727273
 40
0.7272727272727273
 40
0.7272727272727273
 40
0.7272727272727273
 40
0.7727272727272727
 40
0.7727272727272727
 40
0.7727272727272727
 40
0.7727272727272727
 40
0.8181818181818182
 40
0.8181818181818182
 40
0.8181818181818182
 40
0.8181818181818182
 40
0.8636363636363636
 40
0.8636363636363636
 40
0.8636363636363636
 40
0.8636363636363636
 40
0.9090909090909091
 40
0.9090909090909091
 40
0.9090909090909091
 40
0.9090909090909091
 40
1.0
 40
1.0
 40
1.0
 40
1.0
 10
-2.0635
 20
0.499
 30
0.0
 10
-1.89018
 20
0.34421
 30
0.0
 10
-1.55819
 20
0.0397
 30
0.0
 10
-1.52322
 20
-0.29428
 30
0.0
 10
-1.52322
 20
-0.29428
 30
0.0
 10
-1.54568
 20
-0.7818
 30
0.0
 10
-2.0906
 20
-1.625
 30
0.0
 10
-2.15725
 20
-2.111
 30
0.0
 10
-2.15725
 20
-2.111
 30
0.0
 10
-2.08478
 20
-2.20448
 30
0.0
 10
-1.94993
 20
-2.24629
 30
0.0
 10
-1.84176
 20
-2.22897
 30
0.0
 10
-1.84176
 20
-2.22897
 30
0.0
 10
-1.76256
 20
-2.16812
 30
0.0
 10
-1.85342
 20
-2.02212
 30
0.0
 10
-1.74799
 20
-1.97911
 30
0.0
 10
-1.74799
 20
-1.97911
 30
0.0
 10
-1.63783
 20
-1.94135
 30
0.0
 10
-1.47612
 20
-1.98336
 30
0.0
 10
-1.44538
 20
-2.0546
 30
0.0
 10
-1.44538
 20
-2.0546
 30
0.0
 10
-1.12774
 20
-2.54359
 30
0.0
 10
-1.36307
 20
-3.35998
 30
0.0
 10
-1.93547
 20
-3.51525
 30
0.0
 10
-1.93547
 20
-3.51525
 30
0.0
 10
-2.08943
 20
-3.52848
 30
0.0
 10
-2.20962
 20
-3.4243
 30
0.0
 10
-2.33311
 20
-3.31935
 30
0.0
 10
-2.33311
 20
-3.31935
 30
0.0
 10
-2.48341
 20
-3.56783
 30
0.0
 10
-2.82283
 20
-4.05735
 30
0.0
 10
-3.28176
 20
-3.96288
 30
0.0
 10
-3.28176
 20
-3.96288
 30
0.0
 10
-4.04047
 20
-3.8698
 30
0.0
 10
-4.2756
 20
-3.21403
 30
0.0
 10
-4.527
 20
-2.53282
 30
0.0
 10
-4.527
 20
-2.53282
 30
0.0
 10
-5.46831
 20
-2.61787
 30
0.0
 10
-6.52471
 20
-5.05552
 30
0.0
 10
-7.871
 20
-4.52782
 30
0.0
 10
-7.871
 20
-4.52782
 30
0.0
 10
-8.19819
 20
-4.34396
 30
0.0
 10
-8.18245
 20
-4.08113
 30
0.0
 10
-8.00079
 20
-3.69341
 30
0.0
 10
-8.00079
 20
-3.69341
 30
0.0
 10
-7.53438
 20
-2.96521
 30
0.0
 10
-6.66273
 20
-1.72097
 30
0.0
 10
-6.57786
 20
-1.59828
 30
0.0
 10
-6.57786
 20
-1.59828
 30
0.0
 10
-6.56267
 20
-1.59932
 30
0.0
 10
-6.54737
 20
-1.6019
 30
0.0
 10
-6.532
 20
-1.6057
 30
0.0
 10
-6.532
 20
-1.6057
 30
0.0
 10
-6.532
 20
-1.6057
 30
0.0
 10
-5.83675
 20
-2.09435
 30
0.0
 10
-5.83675
 20
-2.09435
 30
0.0
 10
-5.83675
 20
-2.09435
 30
0.0
 10
-5.83675
 20
-2.09435
 30
0.0
 10
-5.69661
 20
-1.89498
 30
0.0
 10
-5.69661
 20
-1.89498
 30
0.0
 10
-5.69661
 20
-1.89498
 30
0.0
 10
-5.68931
 20
-1.88772
 30
0.0
 10
-5.68202
 20
-1.88002
 30
0.0
 10
-5.67479
 20
-1.87156
 30
0.0
 10
-5.67479
 20
-1.87156
 30
0.0
 10
-5.67417
 20
-1.86824
 30
0.0
 10
-5.67375
 20
-1.86502
 30
0.0
 10
-5.67325
 20
-1.86176
 30
0.0
 10
-5.67325
 20
-1.86176
 30
0.0
 10
-5.67325
 20
-1.86176
 30
0.0
 10
-5.59363
 20
-1.74849
 30
0.0
 10
-5.59363
 20
-1.74849
 30
0.0
 10
-5.59363
 20
-1.74849
 30
0.0
 10
-5.59363
 20
-1.74849
 30
0.0
 10
-6.33022
 20
-1.23074
 30
0.0
 10
-6.33022
 20
-1.23074
 30
0.0
 10
-6.33022
 20
-1.23074
 30
0.0
 10
-5.89991
 20
-0.49303
 30
0.0
 10
-5.21645
 20
0.53683
 30
0.0
 10
-4.32732
 20
0.93368
 30
0.0
 10
-4.32732
 20
0.93368
 30
0.0
 10
-3.66881
 20
1.22761
 30
0.0
 10
-2.88683
 20
1.13992
 30
0.0
 10
-2.0635
 20
0.499
 30
0.0
  0
SPLINE
  5
4F
330
1F
100
AcDbEntity
  8
Livello 1
 62
   250
370
     5
100
AcDbSpline
210
0.0
220
0.0
230
1.0
 70
    11
 71
     3
 72
    20
 73
    16
 74
     0
 42
0.0000000001
 43
0.0000000001
 40
0.0
 40
0.0
 40
0.0
 40
0.0
 40
0.2
 40
0.2
 40
0.2
 40
0.2
 40
0.4
 40
0.4
 40
0.4
 40
0.4
 40
0.6
 40
0.6
 40
0.6
 40
0.6
 40
1.0
 40
1.0
 40
1.0
 40
1.0
 10
-3.38265
 20
0.76749
 30
0.0
 10
-3.38265
 20
0.76749
 30
0.0
 10
-3.80536
 20
0.76023
 30
0.0
 10
-3.80536
 20
0.76023
 30
0.0
 10
-3.80536
 20
0.76023
 30
0.0
 10
-3.80536
 20
0.76023
 30
0.0
 10
-3.76024
 20
-1.86973
 30
0.0
 10
-3.76024
 20
-1.86973
 30
0.0
 10
-3.76024
 20
-1.86973
 30
0.0
 10
-3.76024
 20
-1.86973
 30
0.0
 10
-3.33753
 20
-1.86247
 30
0.0
 10
-3.33753
 20
-1.86247
 30
0.0
 10
-3.33753
 20
-1.86247
 30
0.0
 10
-3.33753
 20
-1.86247
 30
0.0
 10
-3.38265
 20
0.76749
 30
0.0
 10
-3.38265
 20
0.76749
 30
0.0
  0
SPLINE
  5
50
330
1F
100
AcDbEntity
  8
Livello 1
 62
   250
370
     9
100
AcDbSpline
210
0.0
220
0.0
230
1.0
 70
    11
 71
     3
 72
    64
 73
    60
 74
     0
 42
0.0000000001
 43
0.0000000001
 40
0.0
 40
0.0
 40
0.0
 40
0.0
 40
0.0625
 40
0.0625
 40
0.0625
 40
0.0625
 40
0.125
 40
0.125
 40
0.125
 40
0.125
 40
0.1875
 40
0.1875
 40
0.1875
 40
0.1875
 40
0.25
 40
0.25
 40
0.25
 40
0.25
 40
0.3125
 40
0.3125
 40
0.3125
 40
0.3125
 40
0.375
 40
0.375
 40
0.375
 40
0.375
 40
0.4375
 40
0.4375
 40
0.4375
 40
0.4375
 40
0.5
 40
0.5
 40
0.5
 40
0.5
 40
0.5625
 40
0.5625
 40
0.5625
 40
0.5625
 40
0.625
 40
0.625
 40
0.625
 40
0.625
 40
0.6875
 40
0.6875
 40
0.6875
 40
0.6875
 40
0.75
 40
0.75
 40
0.75
 40
0.75
 40
0.8125
 40
0.8125
 40
0.8125
 40
0.8125
 40
0.875
 40
0.875
 40
0.875
 40
0.875
 40
1.0
 40
1.0
 40
1.0
 40
1.0
 10
-5.09688
 20
-0.9255
 30
0.0
 10
-5.09688
 20
-0.9255
 30
0.0
 10
-4.93644
 20
-0.69732
 30
0.0
 10
-4.93644
 20
-0.69732
 30
0.0
 10
-4.93644
 20
-0.69732
 30
0.0
 10
-4.93644
 20
-0.69732
 30
0.0
 10
-5.08489
 20
-0.4865
 30
0.0
 10
-5.08489
 20
-0.4865
 30
0.0
 10
-5.08489
 20
-0.4865
 30
0.0
 10
-5.08489
 20
-0.4865
 30
0.0
 10
-4.99189
 20
-0.4865
 30
0.0
 10
-4.99189
 20
-0.4865
 30
0.0
 10
-4.99189
 20
-0.4865
 30
0.0
 10
-4.99189
 20
-0.4865
 30
0.0
 10
-4.92444
 20
-0.58937
 30
0.0
 10
-4.92444
 20
-0.58937
 30
0.0
 10
-4.92444
 20
-0.58937
 30
0.0
 10
-4.91188
 20
-0.60899
 30
0.0
 10
-4.90158
 20
-0.62536
 30
0.0
 10
-4.89396
 20
-0.63862
 30
0.0
 10
-4.89396
 20
-0.63862
 30
0.0
 10
-4.88183
 20
-0.62042
 30
0.0
 10
-4.87068
 20
-0.60433
 30
0.0
 10
-4.86038
 20
-0.59022
 30
0.0
 10
-4.86038
 20
-0.59022
 30
0.0
 10
-4.86038
 20
-0.59022
 30
0.0
 10
-4.78644
 20
-0.4865
 30
0.0
 10
-4.78644
 20
-0.4865
 30
0.0
 10
-4.78644
 20
-0.4865
 30
0.0
 10
-4.78644
 20
-0.4865
 30
0.0
 10
-4.69754
 20
-0.4865
 30
0.0
 10
-4.69754
 20
-0.4865
 30
0.0
 10
-4.69754
 20
-0.4865
 30
0.0
 10
-4.69754
 20
-0.4865
 30
0.0
 10
-4.84923
 20
-0.69323
 30
0.0
 10
-4.84923
 20
-0.69323
 30
0.0
 10
-4.84923
 20
-0.69323
 30
0.0
 10
-4.84923
 20
-0.69323
 30
0.0
 10
-4.68596
 20
-0.9255
 30
0.0
 10
-4.68596
 20
-0.9255
 30
0.0
 10
-4.68596
 20
-0.9255
 30
0.0
 10
-4.68596
 20
-0.9255
 30
0.0
 10
-4.77726
 20
-0.9255
 30
0.0
 10
-4.77726
 20
-0.9255
 30
0.0
 10
-4.77726
 20
-0.9255
 30
0.0
 10
-4.77726
 20
-0.9255
 30
0.0
 10
-4.86743
 20
-0.78905
 30
0.0
 10
-4.86743
 20
-0.78905
 30
0.0
 10
-4.86743
 20
-0.78905
 30
0.0
 10
-4.86743
 20
-0.78905
 30
0.0
 10
-4.89142
 20
-0.75221
 30
0.0
 10
-4.89142
 20
-0.75221
 30
0.0
 10
-4.89142
 20
-0.75221
 30
0.0
 10
-4.89142
 20
-0.75221
 30
0.0
 10
-5.00671
 20
-0.9255
 30
0.0
 10
-5.00671
 20
-0.9255
 30
0.0
 10
-5.00671
 20
-0.9255
 30
0.0
 10
-5.00671
 20
-0.9255
 30
0.0
 10
-5.09688
 20
-0.9255
 30
0.0
 10
-5.09688
 20
-0.9255
 30
0.0
  0
SPLINE
  5
51
330
1F
100
AcDbEntity
  8
Livello 1
 62
   250
370
     9
100
AcDbSpline
210
0.0
220
0.0
230
1.0
 70
    11
 71
     3
 72
    92
 73
    88
 74
     0
 42
0.0000000001
 43
0.0000000001
 40
0.0
 40
0.0
 40
0.0
 40
0.0
 40
0.0434782608695652
 40
0.0434782608695652
 40
0.0434782608695652
 40
0.0434782608695652
 40
0.0869565217391304
 40
0.0869565217391304
 40
0.0869565217391304
 40
0.0869565217391304
 40
0.1304347826086956
 40
0.1304347826086956
 40
0.1304347826086956
 40
0.1304347826086956
 40
0.1739130434782609
 40
0.1739130434782609
 40
0.1739130434782609
 40
0.1739130434782609
 40
0.2173913043478261
 40
0.2173913043478261
 40
0.2173913043478261
 40
0.2173913043478261
 40
0.2608695652173913
 40
0.2608695652173913
 40
0.2608695652173913
 40
0.2608695652173913
 40
0.3043478260869565
 40
0.3043478260869565
 40
0.3043478260869565
 40
0.3043478260869565
 40
0.3478260869565217
 40
0.3478260869565217
 40
0.3478260869565217
 40
0.3478260869565217
 40
0.391304347826087
 40
0.391304347826087
 40
0.391304347826087
 40
0.391304347826087
 40
0.4347826086956522
 40
0.4347826086956522
 40
0.4347826086956522
 40
0.4347826086956522
 40
0.4782608695652174
 40
0.4782608695652174
 40
0.4782608695652174
 40
0.4782608695652174
 40
0.5217391304347826
 40
0.5217391304347826
 40
0.5217391304347826
 40
0.5217391304347826
 40
0.5652173913043478
 40
0.5652173913043478
 40
0.5652173913043478
 40
0.5652173913043478
 40
0.6086956521739131
 40
0.6086956521739131
 40
0.6086956521739131
 40
0.6086956521739131
 40
0.6521739130434783
 40
0.6521739130434783
 40
0.6521739130434783
 40
0.6521739130434783
 40
0.6956521739130435
 40
0.6956521739130435
 40
0.6956521739130435
 40
0.6956521739130435
 40
0.7391304347826086
 40
0.7391304347826086
 40
0.7391304347826086
 40
0.7391304347826086
 40
0.782608695652174
 40
0.782608695652174
 40
0.782608695652174
 40
0.782608695652174
 40
0.8260869565217391
 40
0.8260869565217391
 40
0.8260869565217391
 40
0.8260869565217391
 40
0.8695652173913043
 40
0.8695652173913043
 40
0.8695652173913043
 40
0.8695652173913043
 40
0.9130434782608695
 40
0.9130434782608695
 40
0.9130434782608695
 40
0.9130434782608695
 40
1.0
 40
1.0
 40
1.0
 40
1.0
 10
-4.25345
 20
-0.85396
 30
0.0
 10
-4.25345
 20
-0.85396
 30
0.0
 10
-4.25345
 20
-0.9255
 30
0.0
 10
-4.25345
 20
-0.9255
 30
0.0
 10
-4.25345
 20
-0.9255
 30
0.0
 10
-4.25345
 20
-0.9255
 30
0.0
 10
-4.65407
 20
-0.9255
 30
0.0
 10
-4.65407
 20
-0.9255
 30
0.0
 10
-4.65407
 20
-0.9255
 30
0.0
 10
-4.65463
 20
-0.90758
 30
0.0
 10
-4.65181
 20
-0.89036
 30
0.0
 10
-4.64546
 20
-0.87385
 30
0.0
 10
-4.64546
 20
-0.87385
 30
0.0
 10
-4.6353
 20
-0.84648
 30
0.0
 10
-4.61893
 20
-0.81967
 30
0.0
 10
-4.59649
 20
-0.79314
 30
0.0
 10
-4.59649
 20
-0.79314
 30
0.0
 10
-4.57392
 20
-0.76675
 30
0.0
 10
-4.54146
 20
-0.73613
 30
0.0
 10
-4.49913
 20
-0.70141
 30
0.0
 10
-4.49913
 20
-0.70141
 30
0.0
 10
-4.43323
 20
-0.64737
 30
0.0
 10
-4.38864
 20
-0.60461
 30
0.0
 10
-4.36549
 20
-0.573
 30
0.0
 10
-4.36549
 20
-0.573
 30
0.0
 10
-4.34235
 20
-0.54154
 30
0.0
 10
-4.33078
 20
-0.51162
 30
0.0
 10
-4.33078
 20
-0.48354
 30
0.0
 10
-4.33078
 20
-0.48354
 30
0.0
 10
-4.33078
 20
-0.45405
 30
0.0
 10
-4.34136
 20
-0.42921
 30
0.0
 10
-4.36239
 20
-0.40889
 30
0.0
 10
-4.36239
 20
-0.40889
 30
0.0
 10
-4.38356
 20
-0.38871
 30
0.0
 10
-4.41107
 20
-0.37855
 30
0.0
 10
-4.44494
 20
-0.37855
 30
0.0
 10
-4.44494
 20
-0.37855
 30
0.0
 10
-4.48078
 20
-0.37855
 30
0.0
 10
-4.50943
 20
-0.38928
 30
0.0
 10
-4.53088
 20
-0.41087
 30
0.0
 10
-4.53088
 20
-0.41087
 30
0.0
 10
-4.55247
 20
-0.43231
 30
0.0
 10
-4.56333
 20
-0.46209
 30
0.0
 10
-4.56362
 20
-0.50005
 30
0.0
 10
-4.56362
 20
-0.50005
 30
0.0
 10
-4.56362
 20
-0.50005
 30
0.0
 10
-4.6401
 20
-0.49229
 30
0.0
 10
-4.6401
 20
-0.49229
 30
0.0
 10
-4.6401
 20
-0.49229
 30
0.0
 10
-4.63488
 20
-0.43514
 30
0.0
 10
-4.61512
 20
-0.39167
 30
0.0
 10
-4.58097
 20
-0.36176
 30
0.0
 10
-4.58097
 20
-0.36176
 30
0.0
 10
-4.54682
 20
-0.33184
 30
0.0
 10
-4.50082
 20
-0.31689
 30
0.0
 10
-4.44325
 20
-0.31689
 30
0.0
 10
-4.44325
 20
-0.31689
 30
0.0
 10
-4.38511
 20
-0.31689
 30
0.0
 10
-4.33911
 20
-0.33311
 30
0.0
 10
-4.30524
 20
-0.36529
 30
0.0
 10
-4.30524
 20
-0.36529
 30
0.0
 10
-4.27123
 20
-0.3976
 30
0.0
 10
-4.2543
 20
-0.43754
 30
0.0
 10
-4.2543
 20
-0.48523
 30
0.0
 10
-4.2543
 20
-0.48523
 30
0.0
 10
-4.2543
 20
-0.5095
 30
0.0
 10
-4.25924
 20
-0.53335
 30
0.0
 10
-4.26926
 20
-0.55678
 30
0.0
 10
-4.26926
 20
-0.55678
 30
0.0
 10
-4.27913
 20
-0.5802
 30
0.0
 10
-4.29564
 20
-0.60489
 30
0.0
 10
-4.31865
 20
-0.63072
 30
0.0
 10
-4.31865
 20
-0.63072
 30
0.0
 10
-4.34165
 20
-0.65668
 30
0.0
 10
-4.37989
 20
-0.69224
 30
0.0
 10
-4.43337
 20
-0.7374
 30
0.0
 10
-4.43337
 20
-0.7374
 30
0.0
 10
-4.47796
 20
-0.77493
 30
0.0
 10
-4.50661
 20
-0.80033
 30
0.0
 10
-4.51931
 20
-0.81374
 30
0.0
 10
-4.51931
 20
-0.81374
 30
0.0
 10
-4.53201
 20
-0.827
 30
0.0
 10
-4.54245
 20
-0.84041
 30
0.0
 10
-4.55077
 20
-0.85396
 30
0.0
 10
-4.55077
 20
-0.85396
 30
0.0
 10
-4.55077
 20
-0.85396
 30
0.0
 10
-4.25345
 20
-0.85396
 30
0.0
 10
-4.25345
 20
-0.85396
 30
0.0
  0
SPLINE
  5
52
330
1F
100
AcDbEntity
  8
Livello 1
 62
   250
370
     5
100
AcDbSpline
210
0.0
220
0.0
230
1.0
 70
    11
 71
     3
 72
    28
 73
    24
 74
     0
 42
0.0000000001
 43
0.0000000001
 40
0.0
 40
0.0
 40
0.0
 40
0.0
 40
0.1428571428571428
 40
0.1428571428571428
 40
0.1428571428571428
 40
0.1428571428571428
 40
0.2857142857142857
 40
0.2857142857142857
 40
0.2857142857142857
 40
0.2857142857142857
 40
0.4285714285714285
 40
0.4285714285714285
 40
0.4285714285714285
 40
0.4285714285714285
 40
0.5714285714285714
 40
0.5714285714285714
 40
0.5714285714285714
 40
0.5714285714285714
 40
0.7142857142857143
 40
0.7142857142857143
 40
0.7142857142857143
 40
0.7142857142857143
 40
1.0
 40
1.0
 40
1.0
 40
1.0
 10
4.36104
 20
-2.00859
 30
0.0
 10
3.62509
 20
-3.73449
 30
0.0
 10
0.79424
 20
-2.50985
 30
0.0
 10
0.20237
 20
-0.92801
 30
0.0
 10
0.20237
 20
-0.92801
 30
0.0
 10
0.04935
 20
-0.51917
 30
0.0
 10
0.08392
 20
-0.07572
 30
0.0
 10
-0.20692
 20
0.21725
 30
0.0
 10
-0.20692
 20
0.21725
 30
0.0
 10
-0.51375
 20
0.5263
 30
0.0
 10
-1.50872
 20
0.65447
 30
0.0
 10
-1.21713
 20
1.36175
 30
0.0
 10
-1.21713
 20
1.36175
 30
0.0
 10
-0.86725
 20
2.21029
 30
0.0
 10
0.94724
 20
2.38025
 30
0.0
 10
1.91741
 20
2.21597
 30
0.0
 10
1.91741
 20
2.21597
 30
0.0
 10
2.84346
 20
2.05918
 30
0.0
 10
4.00973
 20
1.51301
 30
0.0
 10
4.32761
 20
0.43687
 30
0.0
 10
4.32761
 20
0.43687
 30
0.0
 10
4.46168
 20
-0.30734
 30
0.0
 10
4.51624
 20
-1.18939
 30
0.0
 10
4.36104
 20
-2.00859
 30
0.0
  0
SPLINE
  5
53
330
1F
100
AcDbEntity
  8
Livello 1
 62
   250
370
     5
100
AcDbSpline
210
0.0
220
0.0
230
1.0
 70
    11
 71
     3
 72
    20
 73
    16
 74
     0
 42
0.0000000001
 43
0.0000000001
 40
0.0
 40
0.0
 40
0.0
 40
0.0
 40
0.2
 40
0.2
 40
0.2
 40
0.2
 40
0.4
 40
0.4
 40
0.4
 40
0.4
 40
0.6
 40
0.6
 40
0.6
 40
0.6
 40
1.0
 40
1.0
 40
1.0
 40
1.0
 10
3.72897
 20
-2.30147
 30
0.0
 10
3.72897
 20
-2.30147
 30
0.0
 10
3.89599
 20
-1.91307
 30
0.0
 10
3.89599
 20
-1.91307
 30
0.0
 10
3.89599
 20
-1.91307
 30
0.0
 10
3.89599
 20
-1.91307
 30
0.0
 10
1.00701
 20
-0.67077
 30
0.0
 10
1.00701
 20
-0.67077
 30
0.0
 10
1.00701
 20
-0.67077
 30
0.0
 10
1.00701
 20
-0.67077
 30
0.0
 10
0.83999
 20
-1.05919
 30
0.0
 10
0.83999
 20
-1.05919
 30
0.0
 10
0.83999
 20
-1.05919
 30
0.0
 10
0.83999
 20
-1.05919
 30
0.0
 10
3.72897
 20
-2.30147
 30
0.0
 10
3.72897
 20
-2.30147
 30
0.0
  0
SPLINE
  5
54
330
1F
100
AcDbEntity
  8
Livello 1
 62
   250
370
     9
100
AcDbSpline
210
0.0
220
0.0
230
1.0
 70
    11
 71
     3
 72
    64
 73
    60
 74
     0
 42
0.0000000001
 43
0.0000000001
 40
0.0
 40
0.0
 40
0.0
 40
0.0
 40
0.0625
 40
0.0625
 40
0.0625
 40
0.0625
 40
0.125
 40
0.125
 40
0.125
 40
0.125
 40
0.1875
 40
0.1875
 40
0.1875
 40
0.1875
 40
0.25
 40
0.25
 40
0.25
 40
0.25
 40
0.3125
 40
0.3125
 40
0.3125
 40
0.3125
 40
0.375
 40
0.375
 40
0.375
 40
0.375
 40
0.4375
 40
0.4375
 40
0.4375
 40
0.4375
 40
0.5
 40
0.5
 40
0.5
 40
0.5
 40
0.5625
 40
0.5625
 40
0.5625
 40
0.5625
 40
0.625
 40
0.625
 40
0.625
 40
0.625
 40
0.6875
 40
0.6875
 40
0.6875
 40
0.6875
 40
0.75
 40
0.75
 40
0.75
 40
0.75
 40
0.8125
 40
0.8125
 40
0.8125
 40
0.8125
 40
0.875
 40
0.875
 40
0.875
 40
0.875
 40
1.0
 40
1.0
 40
1.0
 40
1.0
 10
1.8574
 20
-0.36254
 30
0.0
 10
1.8574
 20
-0.36254
 30
0.0
 10
2.01784
 20
-0.13436
 30
0.0
 10
2.01784
 20
-0.13436
 30
0.0
 10
2.01784
 20
-0.13436
 30
0.0
 10
2.01784
 20
-0.13436
 30
0.0
 10
1.86939
 20
0.07646
 30
0.0
 10
1.86939
 20
0.07646
 30
0.0
 10
1.86939
 20
0.07646
 30
0.0
 10
1.86939
 20
0.07646
 30
0.0
 10
1.96239
 20
0.07646
 30
0.0
 10
1.96239
 20
0.07646
 30
0.0
 10
1.96239
 20
0.07646
 30
0.0
 10
1.96239
 20
0.07646
 30
0.0
 10
2.02984
 20
-0.02641
 30
0.0
 10
2.02984
 20
-0.02641
 30
0.0
 10
2.02984
 20
-0.02641
 30
0.0
 10
2.0424
 20
-0.04603
 30
0.0
 10
2.0527
 20
-0.0624
 30
0.0
 10
2.06032
 20
-0.07566
 30
0.0
 10
2.06032
 20
-0.07566
 30
0.0
 10
2.07245
 20
-0.05746
 30
0.0
 10
2.0836
 20
-0.04137
 30
0.0
 10
2.0939
 20
-0.02726
 30
0.0
 10
2.0939
 20
-0.02726
 30
0.0
 10
2.0939
 20
-0.02726
 30
0.0
 10
2.16784
 20
0.07646
 30
0.0
 10
2.16784
 20
0.07646
 30
0.0
 10
2.16784
 20
0.07646
 30
0.0
 10
2.16784
 20
0.07646
 30
0.0
 10
2.25674
 20
0.07646
 30
0.0
 10
2.25674
 20
0.07646
 30
0.0
 10
2.25674
 20
0.07646
 30
0.0
 10
2.25674
 20
0.07646
 30
0.0
 10
2.10505
 20
-0.13027
 30
0.0
 10
2.10505
 20
-0.13027
 30
0.0
 10
2.10505
 20
-0.13027
 30
0.0
 10
2.10505
 20
-0.13027
 30
0.0
 10
2.26832
 20
-0.36254
 30
0.0
 10
2.26832
 20
-0.36254
 30
0.0
 10
2.26832
 20
-0.36254
 30
0.0
 10
2.26832
 20
-0.36254
 30
0.0
 10
2.17702
 20
-0.36254
 30
0.0
 10
2.17702
 20
-0.36254
 30
0.0
 10
2.17702
 20
-0.36254
 30
0.0
 10
2.17702
 20
-0.36254
 30
0.0
 10
2.08685
 20
-0.22609
 30
0.0
 10
2.08685
 20
-0.22609
 30
0.0
 10
2.08685
 20
-0.22609
 30
0.0
 10
2.08685
 20
-0.22609
 30
0.0
 10
2.06286
 20
-0.18925
 30
0.0
 10
2.06286
 20
-0.18925
 30
0.0
 10
2.06286
 20
-0.18925
 30
0.0
 10
2.06286
 20
-0.18925
 30
0.0
 10
1.94757
 20
-0.36254
 30
0.0
 10
1.94757
 20
-0.36254
 30
0.0
 10
1.94757
 20
-0.36254
 30
0.0
 10
1.94757
 20
-0.36254
 30
0.0
 10
1.8574
 20
-0.36254
 30
0.0
 10
1.8574
 20
-0.36254
 30
0.0
  0
SPLINE
  5
55
330
1F
100
AcDbEntity
  8
Livello 1
 62
   250
370
     9
100
AcDbSpline
210
0.0
220
0.0
230
1.0
 70
    11
 71
     3
 72
    92
 73
    88
 74
     0
 42
0.0000000001
 43
0.0000000001
 40
0.0
 40
0.0
 40
0.0
 40
0.0
 40
0.0434782608695652
 40
0.0434782608695652
 40
0.0434782608695652
 40
0.0434782608695652
 40
0.0869565217391304
 40
0.0869565217391304
 40
0.0869565217391304
 40
0.0869565217391304
 40
0.1304347826086956
 40
0.1304347826086956
 40
0.1304347826086956
 40
0.1304347826086956
 40
0.1739130434782609
 40
0.1739130434782609
 40
0.1739130434782609
 40
0.1739130434782609
 40
0.2173913043478261
 40
0.2173913043478261
 40
0.2173913043478261
 40
0.2173913043478261
 40
0.2608695652173913
 40
0.2608695652173913
 40
0.2608695652173913
 40
0.2608695652173913
 40
0.3043478260869565
 40
0.3043478260869565
 40
0.3043478260869565
 40
0.3043478260869565
 40
0.3478260869565217
 40
0.3478260869565217
 40
0.3478260869565217
 40
0.3478260869565217
 40
0.391304347826087
 40
0.391304347826087
 40
0.391304347826087
 40
0.391304347826087
 40
0.4347826086956522
 40
0.4347826086956522
 40
0.4347826086956522
 40
0.4347826086956522
 40
0.4782608695652174
 40
0.4782608695652174
 40
0.4782608695652174
 40
0.4782608695652174
 40
0.5217391304347826
 40
0.5217391304347826
 40
0.5217391304347826
 40
0.5217391304347826
 40
0.5652173913043478
 40
0.5652173913043478
 40
0.5652173913043478
 40
0.5652173913043478
 40
0.6086956521739131
 40
0.6086956521739131
 40
0.6086956521739131
 40
0.6086956521739131
 40
0.6521739130434783
 40
0.6521739130434783
 40
0.6521739130434783
 40
0.6521739130434783
 40
0.6956521739130435
 40
0.6956521739130435
 40
0.6956521739130435
 40
0.6956521739130435
 40
0.7391304347826086
 40
0.7391304347826086
 40
0.7391304347826086
 40
0.7391304347826086
 40
0.782608695652174
 40
0.782608695652174
 40
0.782608695652174
 40
0.782608695652174
 40
0.8260869565217391
 40
0.8260869565217391
 40
0.8260869565217391
 40
0.8260869565217391
 40
0.8695652173913043
 40
0.8695652173913043
 40
0.8695652173913043
 40
0.8695652173913043
 40
0.9130434782608695
 40
0.9130434782608695
 40
0.9130434782608695
 40
0.9130434782608695
 40
1.0
 40
1.0
 40
1.0
 40
1.0
 10
2.70083
 20
-0.291
 30
0.0
 10
2.70083
 20
-0.291
 30
0.0
 10
2.70083
 20
-0.36254
 30
0.0
 10
2.70083
 20
-0.36254
 30
0.0
 10
2.70083
 20
-0.36254
 30
0.0
 10
2.70083
 20
-0.36254
 30
0.0
 10
2.30021
 20
-0.36254
 30
0.0
 10
2.30021
 20
-0.36254
 30
0.0
 10
2.30021
 20
-0.36254
 30
0.0
 10
2.29965
 20
-0.34462
 30
0.0
 10
2.30247
 20
-0.3274
 30
0.0
 10
2.30882
 20
-0.31089
 30
0.0
 10
2.30882
 20
-0.31089
 30
0.0
 10
2.31898
 20
-0.28352
 30
0.0
 10
2.33535
 20
-0.25671
 30
0.0
 10
2.35779
 20
-0.23018
 30
0.0
 10
2.35779
 20
-0.23018
 30
0.0
 10
2.38036
 20
-0.20379
 30
0.0
 10
2.41282
 20
-0.17317
 30
0.0
 10
2.45515
 20
-0.13845
 30
0.0
 10
2.45515
 20
-0.13845
 30
0.0
 10
2.52105
 20
-0.08441
 30
0.0
 10
2.56564
 20
-0.04165
 30
0.0
 10
2.58879
 20
-0.01004
 30
0.0
 10
2.58879
 20
-0.01004
 30
0.0
 10
2.61193
 20
0.02142
 30
0.0
 10
2.6235
 20
0.05134
 30
0.0
 10
2.6235
 20
0.07942
 30
0.0
 10
2.6235
 20
0.07942
 30
0.0
 10
2.6235
 20
0.10891
 30
0.0
 10
2.61292
 20
0.13375
 30
0.0
 10
2.59189
 20
0.15407
 30
0.0
 10
2.59189
 20
0.15407
 30
0.0
 10
2.57072
 20
0.17425
 30
0.0
 10
2.54321
 20
0.18441
 30
0.0
 10
2.50934
 20
0.18441
 30
0.0
 10
2.50934
 20
0.18441
 30
0.0
 10
2.4735
 20
0.18441
 30
0.0
 10
2.44485
 20
0.17368
 30
0.0
 10
2.4234
 20
0.15209
 30
0.0
 10
2.4234
 20
0.15209
 30
0.0
 10
2.40181
 20
0.13065
 30
0.0
 10
2.39095
 20
0.10087
 30
0.0
 10
2.39066
 20
0.06291
 30
0.0
 10
2.39066
 20
0.06291
 30
0.0
 10
2.39066
 20
0.06291
 30
0.0
 10
2.31418
 20
0.07067
 30
0.0
 10
2.31418
 20
0.07067
 30
0.0
 10
2.31418
 20
0.07067
 30
0.0
 10
2.3194
 20
0.12782
 30
0.0
 10
2.33916
 20
0.17129
 30
0.0
 10
2.37331
 20
0.2012
 30
0.0
 10
2.37331
 20
0.2012
 30
0.0
 10
2.40746
 20
0.23112
 30
0.0
 10
2.45346
 20
0.24607
 30
0.0
 10
2.51103
 20
0.24607
 30
0.0
 10
2.51103
 20
0.24607
 30
0.0
 10
2.56917
 20
0.24607
 30
0.0
 10
2.61517
 20
0.22985
 30
0.0
 10
2.64904
 20
0.19767
 30
0.0
 10
2.64904
 20
0.19767
 30
0.0
 10
2.68305
 20
0.16536
 30
0.0
 10
2.69998
 20
0.12542
 30
0.0
 10
2.69998
 20
0.07773
 30
0.0
 10
2.69998
 20
0.07773
 30
0.0
 10
2.69998
 20
0.05346
 30
0.0
 10
2.69504
 20
0.02961
 30
0.0
 10
2.68502
 20
0.00618
 30
0.0
 10
2.68502
 20
0.00618
 30
0.0
 10
2.67515
 20
-0.01724
 30
0.0
 10
2.65864
 20
-0.04193
 30
0.0
 10
2.63563
 20
-0.06776
 30
0.0
 10
2.63563
 20
-0.06776
 30
0.0
 10
2.61263
 20
-0.09372
 30
0.0
 10
2.57439
 20
-0.12928
 30
0.0
 10
2.52091
 20
-0.17444
 30
0.0
 10
2.52091
 20
-0.17444
 30
0.0
 10
2.47632
 20
-0.21197
 30
0.0
 10
2.44767
 20
-0.23737
 30
0.0
 10
2.43497
 20
-0.25078
 30
0.0
 10
2.43497
 20
-0.25078
 30
0.0
 10
2.42227
 20
-0.26404
 30
0.0
 10
2.41183
 20
-0.27745
 30
0.0
 10
2.40351
 20
-0.291
 30
0.0
 10
2.40351
 20
-0.291
 30
0.0
 10
2.40351
 20
-0.291
 30
0.0
 10
2.70083
 20
-0.291
 30
0.0
 10
2.70083
 20
-0.291
 30
0.0
  0
SPLINE
  5
56
330
1F
100
AcDbEntity
  8
Livello 1
 62
   250
370
     5
100
AcDbSpline
210
0.0
220
0.0
230
1.0
 70
    11
 71
     3
 72
    20
 73
    16
 74
     0
 42
0.0000000001
 43
0.0000000001
 40
0.0
 40
0.0
 40
0.0
 40
0.0
 40
0.2
 40
0.2
 40
0.2
 40
0.2
 40
0.4
 40
0.4
 40
0.4
 40
0.4
 40
0.6
 40
0.6
 40
0.6
 40
0.6
 40
1.0
 40
1.0
 40
1.0
 40
1.0
 10
6.90705
 20
0.62752
 30
0.0
 10
6.90705
 20
0.62752
 30
0.0
 10
7.01641
 20
0.21913
 30
0.0
 10
7.01641
 20
0.21913
 30
0.0
 10
7.01641
 20
0.21913
 30
0.0
 10
7.01641
 20
0.21913
 30
0.0
 10
9.61958
 20
0.91634
 30
0.0
 10
9.61958
 20
0.91634
 30
0.0
 10
9.61958
 20
0.91634
 30
0.0
 10
9.61958
 20
0.91634
 30
0.0
 10
9.51021
 20
1.32473
 30
0.0
 10
9.51021
 20
1.32473
 30
0.0
 10
9.51021
 20
1.32473
 30
0.0
 10
9.51021
 20
1.32473
 30
0.0
 10
6.90705
 20
0.62752
 30
0.0
 10
6.90705
 20
0.62752
 30
0.0
  0
SPLINE
  5
57
330
1F
100
AcDbEntity
  8
Livello 1
 62
   250
370
     5
100
AcDbSpline
210
0.0
220
0.0
230
1.0
 70
    11
 71
     3
 72
   104
 73
   100
 74
     0
 42
0.0000000001
 43
0.0000000001
 40
0.0
 40
0.0
 40
0.0
 40
0.0
 40
0.0384615384615385
 40
0.0384615384615385
 40
0.0384615384615385
 40
0.0384615384615385
 40
0.0769230769230769
 40
0.0769230769230769
 40
0.0769230769230769
 40
0.0769230769230769
 40
0.1153846153846154
 40
0.1153846153846154
 40
0.1153846153846154
 40
0.1153846153846154
 40
0.1538461538461539
 40
0.1538461538461539
 40
0.1538461538461539
 40
0.1538461538461539
 40
0.1923076923076923
 40
0.1923076923076923
 40
0.1923076923076923
 40
0.1923076923076923
 40
0.2307692307692308
 40
0.2307692307692308
 40
0.2307692307692308
 40
0.2307692307692308
 40
0.2692307692307692
 40
0.2692307692307692
 40
0.2692307692307692
 40
0.2692307692307692
 40
0.3076923076923077
 40
0.3076923076923077
 40
0.3076923076923077
 40
0.3076923076923077
 40
0.3461538461538461
 40
0.3461538461538461
 40
0.3461538461538461
 40
0.3461538461538461
 40
0.3846153846153846
 40
0.3846153846153846
 40
0.3846153846153846
 40
0.3846153846153846
 40
0.4230769230769231
 40
0.4230769230769231
 40
0.4230769230769231
 40
0.4230769230769231
 40
0.4615384615384616
 40
0.4615384615384616
 40
0.4615384615384616
 40
0.4615384615384616
 40
0.5
 40
0.5
 40
0.5
 40
0.5
 40
0.5384615384615384
 40
0.5384615384615384
 40
0.5384615384615384
 40
0.5384615384615384
 40
0.5769230769230769
 40
0.5769230769230769
 40
0.5769230769230769
 40
0.5769230769230769
 40
0.6153846153846154
 40
0.6153846153846154
 40
0.6153846153846154
 40
0.6153846153846154
 40
0.6538461538461539
 40
0.6538461538461539
 40
0.6538461538461539
 40
0.6538461538461539
 40
0.6923076923076923
 40
0.6923076923076923
 40
0.6923076923076923
 40
0.6923076923076923
 40
0.7307692307692307
 40
0.7307692307692307
 40
0.7307692307692307
 40
0.7307692307692307
 40
0.7692307692307693
 40
0.7692307692307693
 40
0.7692307692307693
 40
0.7692307692307693
 40
0.8076923076923077
 40
0.8076923076923077
 40
0.8076923076923077
 40
0.8076923076923077
 40
0.8461538461538461
 40
0.8461538461538461
 40
0.8461538461538461
 40
0.8461538461538461
 40
0.8846153846153846
 40
0.8846153846153846
 40
0.8846153846153846
 40
0.8846153846153846
 40
0.9230769230769231
 40
0.9230769230769231
 40
0.9230769230769231
 40
0.9230769230769231
 40
1.0
 40
1.0
 40
1.0
 40
1.0
 10
7.6789
 20
-1.44954
 30
0.0
 10
7.59487
 20
-1.88227
 30
0.0
 10
7.16887
 20
-2.46056
 30
0.0
 10
6.73714
 20
-2.52311
 30
0.0
 10
6.73714
 20
-2.52311
 30
0.0
 10
6.68056
 20
-2.39446
 30
0.0
 10
6.75863
 20
-2.18425
 30
0.0
 10
6.60436
 20
-2.09889
 30
0.0
 10
6.60436
 20
-2.09889
 30
0.0
 10
6.28213
 20
-1.94541
 30
0.0
 10
5.76502
 20
-2.28476
 30
0.0
 10
5.56941
 20
-2.03375
 30
0.0
 10
5.56941
 20
-2.03375
 30
0.0
 10
5.56941
 20
-2.03375
 30
0.0
 10
5.67163
 20
-1.27851
 30
0.0
 10
5.67163
 20
-1.27851
 30
0.0
 10
5.67163
 20
-1.27851
 30
0.0
 10
5.68913
 20
-1.18356
 30
0.0
 10
5.6243
 20
-1.02377
 30
0.0
 10
5.56022
 20
-1.10868
 30
0.0
 10
5.56022
 20
-1.10868
 30
0.0
 10
5.56022
 20
-1.10868
 30
0.0
 10
5.27125
 20
-1.58743
 30
0.0
 10
5.27125
 20
-1.58743
 30
0.0
 10
5.27125
 20
-1.58743
 30
0.0
 10
4.76749
 20
-1.51651
 30
0.0
 10
5.17379
 20
-0.87554
 30
0.0
 10
5.16587
 20
-0.5632
 30
0.0
 10
5.16587
 20
-0.5632
 30
0.0
 10
5.18369
 20
-0.37069
 30
0.0
 10
5.07828
 20
-0.16694
 30
0.0
 10
5.113
 20
0.01433
 30
0.0
 10
5.113
 20
0.01433
 30
0.0
 10
5.12247
 20
0.18281
 30
0.0
 10
5.47075
 20
0.49114
 30
0.0
 10
5.73115
 20
0.78296
 30
0.0
 10
5.73115
 20
0.78296
 30
0.0
 10
5.88512
 20
0.94078
 30
0.0
 10
5.96879
 20
1.08105
 30
0.0
 10
5.86359
 20
1.19686
 30
0.0
 10
5.86359
 20
1.19686
 30
0.0
 10
5.2552
 20
1.78396
 30
0.0
 10
4.25774
 20
2.18199
 30
0.0
 10
3.61609
 20
2.7859
 30
0.0
 10
3.61609
 20
2.7859
 30
0.0
 10
3.22617
 20
3.18647
 30
0.0
 10
2.96028
 20
3.68513
 30
0.0
 10
3.13661
 20
4.30817
 30
0.0
 10
3.13661
 20
4.30817
 30
0.0
 10
3.15859
 20
4.38583
 30
0.0
 10
3.20191
 20
4.51606
 30
0.0
 10
3.34008
 20
4.58657
 30
0.0
 10
3.34008
 20
4.58657
 30
0.0
 10
4.05745
 20
4.62621
 30
0.0
 10
5.4992
 20
3.94432
 30
0.0
 10
6.5888
 20
3.61321
 30
0.0
 10
6.5888
 20
3.61321
 30
0.0
 10
6.5888
 20
3.61321
 30
0.0
 10
6.38791
 20
3.03374
 30
0.0
 10
6.38791
 20
3.03374
 30
0.0
 10
6.38791
 20
3.03374
 30
0.0
 10
6.37535
 20
3.00261
 30
0.0
 10
6.36433
 20
2.97153
 30
0.0
 10
6.35556
 20
2.94047
 30
0.0
 10
6.35556
 20
2.94047
 30
0.0
 10
6.35556
 20
2.94047
 30
0.0
 10
6.23022
 20
2.57896
 30
0.0
 10
6.23022
 20
2.57896
 30
0.0
 10
6.23022
 20
2.57896
 30
0.0
 10
6.23022
 20
2.57896
 30
0.0
 10
6.62969
 20
2.44045
 30
0.0
 10
6.62969
 20
2.44045
 30
0.0
 10
6.62969
 20
2.44045
 30
0.0
 10
6.62969
 20
2.44045
 30
0.0
 10
6.95764
 20
3.38635
 30
0.0
 10
6.95764
 20
3.38635
 30
0.0
 10
6.95764
 20
3.38635
 30
0.0
 10
6.98298
 20
3.42462
 30
0.0
 10
7.01223
 20
3.45973
 30
0.0
 10
7.04706
 20
3.49027
 30
0.0
 10
7.04706
 20
3.49027
 30
0.0
 10
8.33757
 20
3.06175
 30
0.0
 10
10.16761
 20
2.18859
 30
0.0
 10
10.18026
 20
0.67898
 30
0.0
 10
10.18026
 20
0.67898
 30
0.0
 10
10.15374
 20
0.04366
 30
0.0
 10
9.88151
 20
-0.66651
 30
0.0
 10
9.33039
 20
-1.16026
 30
0.0
 10
9.33039
 20
-1.16026
 30
0.0
 10
9.33039
 20
-1.16026
 30
0.0
 10
7.07476
 20
-0.976
 30
0.0
 10
7.07476
 20
-0.976
 30
0.0
 10
7.07476
 20
-0.976
 30
0.0
 10
7.07476
 20
-0.976
 30
0.0
 10
7.04033
 20
-1.3974
 30
0.0
 10
7.04033
 20
-1.3974
 30
0.0
 10
7.04033
 20
-1.3974
 30
0.0
 10
7.04033
 20
-1.3974
 30
0.0
 10
7.6789
 20
-1.44954
 30
0.0
 10
7.6789
 20
-1.44954
 30
0.0
  0
SPLINE
  5
58
330
1F
100
AcDbEntity
  8
Livello 1
 62
   250
370
     9
100
AcDbSpline
210
0.0
220
0.0
230
1.0
 70
    11
 71
     3
 72
    64
 73
    60
 74
     0
 42
0.0000000001
 43
0.0000000001
 40
0.0
 40
0.0
 40
0.0
 40
0.0
 40
0.0625
 40
0.0625
 40
0.0625
 40
0.0625
 40
0.125
 40
0.125
 40
0.125
 40
0.125
 40
0.1875
 40
0.1875
 40
0.1875
 40
0.1875
 40
0.25
 40
0.25
 40
0.25
 40
0.25
 40
0.3125
 40
0.3125
 40
0.3125
 40
0.3125
 40
0.375
 40
0.375
 40
0.375
 40
0.375
 40
0.4375
 40
0.4375
 40
0.4375
 40
0.4375
 40
0.5
 40
0.5
 40
0.5
 40
0.5
 40
0.5625
 40
0.5625
 40
0.5625
 40
0.5625
 40
0.625
 40
0.625
 40
0.625
 40
0.625
 40
0.6875
 40
0.6875
 40
0.6875
 40
0.6875
 40
0.75
 40
0.75
 40
0.75
 40
0.75
 40
0.8125
 40
0.8125
 40
0.8125
 40
0.8125
 40
0.875
 40
0.875
 40
0.875
 40
0.875
 40
1.0
 40
1.0
 40
1.0
 40
1.0
 10
6.14491
 20
-0.67583
 30
0.0
 10
6.14491
 20
-0.67583
 30
0.0
 10
6.30535
 20
-0.44765
 30
0.0
 10
6.30535
 20
-0.44765
 30
0.0
 10
6.30535
 20
-0.44765
 30
0.0
 10
6.30535
 20
-0.44765
 30
0.0
 10
6.1569
 20
-0.23683
 30
0.0
 10
6.1569
 20
-0.23683
 30
0.0
 10
6.1569
 20
-0.23683
 30
0.0
 10
6.1569
 20
-0.23683
 30
0.0
 10
6.2499
 20
-0.23683
 30
0.0
 10
6.2499
 20
-0.23683
 30
0.0
 10
6.2499
 20
-0.23683
 30
0.0
 10
6.2499
 20
-0.23683
 30
0.0
 10
6.31735
 20
-0.3397
 30
0.0
 10
6.31735
 20
-0.3397
 30
0.0
 10
6.31735
 20
-0.3397
 30
0.0
 10
6.32991
 20
-0.35932
 30
0.0
 10
6.34021
 20
-0.37569
 30
0.0
 10
6.34783
 20
-0.38895
 30
0.0
 10
6.34783
 20
-0.38895
 30
0.0
 10
6.35996
 20
-0.37075
 30
0.0
 10
6.37111
 20
-0.35466
 30
0.0
 10
6.38141
 20
-0.34055
 30
0.0
 10
6.38141
 20
-0.34055
 30
0.0
 10
6.38141
 20
-0.34055
 30
0.0
 10
6.45535
 20
-0.23683
 30
0.0
 10
6.45535
 20
-0.23683
 30
0.0
 10
6.45535
 20
-0.23683
 30
0.0
 10
6.45535
 20
-0.23683
 30
0.0
 10
6.54425
 20
-0.23683
 30
0.0
 10
6.54425
 20
-0.23683
 30
0.0
 10
6.54425
 20
-0.23683
 30
0.0
 10
6.54425
 20
-0.23683
 30
0.0
 10
6.39256
 20
-0.44356
 30
0.0
 10
6.39256
 20
-0.44356
 30
0.0
 10
6.39256
 20
-0.44356
 30
0.0
 10
6.39256
 20
-0.44356
 30
0.0
 10
6.55583
 20
-0.67583
 30
0.0
 10
6.55583
 20
-0.67583
 30
0.0
 10
6.55583
 20
-0.67583
 30
0.0
 10
6.55583
 20
-0.67583
 30
0.0
 10
6.46453
 20
-0.67583
 30
0.0
 10
6.46453
 20
-0.67583
 30
0.0
 10
6.46453
 20
-0.67583
 30
0.0
 10
6.46453
 20
-0.67583
 30
0.0
 10
6.37436
 20
-0.53938
 30
0.0
 10
6.37436
 20
-0.53938
 30
0.0
 10
6.37436
 20
-0.53938
 30
0.0
 10
6.37436
 20
-0.53938
 30
0.0
 10
6.35037
 20
-0.50254
 30
0.0
 10
6.35037
 20
-0.50254
 30
0.0
 10
6.35037
 20
-0.50254
 30
0.0
 10
6.35037
 20
-0.50254
 30
0.0
 10
6.23508
 20
-0.67583
 30
0.0
 10
6.23508
 20
-0.67583
 30
0.0
 10
6.23508
 20
-0.67583
 30
0.0
 10
6.23508
 20
-0.67583
 30
0.0
 10
6.14491
 20
-0.67583
 30
0.0
 10
6.14491
 20
-0.67583
 30
0.0
  0
SPLINE
  5
59
330
1F
100
AcDbEntity
  8
Livello 1
 62
   250
370
     9
100
AcDbSpline
210
0.0
220
0.0
230
1.0
 70
    11
 71
     3
 72
    92
 73
    88
 74
     0
 42
0.0000000001
 43
0.0000000001
 40
0.0
 40
0.0
 40
0.0
 40
0.0
 40
0.0434782608695652
 40
0.0434782608695652
 40
0.0434782608695652
 40
0.0434782608695652
 40
0.0869565217391304
 40
0.0869565217391304
 40
0.0869565217391304
 40
0.0869565217391304
 40
0.1304347826086956
 40
0.1304347826086956
 40
0.1304347826086956
 40
0.1304347826086956
 40
0.1739130434782609
 40
0.1739130434782609
 40
0.1739130434782609
 40
0.1739130434782609
 40
0.2173913043478261
 40
0.2173913043478261
 40
0.2173913043478261
 40
0.2173913043478261
 40
0.2608695652173913
 40
0.2608695652173913
 40
0.2608695652173913
 40
0.2608695652173913
 40
0.3043478260869565
 40
0.3043478260869565
 40
0.3043478260869565
 40
0.3043478260869565
 40
0.3478260869565217
 40
0.3478260869565217
 40
0.3478260869565217
 40
0.3478260869565217
 40
0.391304347826087
 40
0.391304347826087
 40
0.391304347826087
 40
0.391304347826087
 40
0.4347826086956522
 40
0.4347826086956522
 40
0.4347826086956522
 40
0.4347826086956522
 40
0.4782608695652174
 40
0.4782608695652174
 40
0.4782608695652174
 40
0.4782608695652174
 40
0.5217391304347826
 40
0.5217391304347826
 40
0.5217391304347826
 40
0.5217391304347826
 40
0.5652173913043478
 40
0.5652173913043478
 40
0.5652173913043478
 40
0.5652173913043478
 40
0.6086956521739131
 40
0.6086956521739131
 40
0.6086956521739131
 40
0.6086956521739131
 40
0.6521739130434783
 40
0.6521739130434783
 40
0.6521739130434783
 40
0.6521739130434783
 40
0.6956521739130435
 40
0.6956521739130435
 40
0.6956521739130435
 40
0.6956521739130435
 40
0.7391304347826086
 40
0.7391304347826086
 40
0.7391304347826086
 40
0.7391304347826086
 40
0.782608695652174
 40
0.782608695652174
 40
0.782608695652174
 40
0.782608695652174
 40
0.8260869565217391
 40
0.8260869565217391
 40
0.8260869565217391
 40
0.8260869565217391
 40
0.8695652173913043
 40
0.8695652173913043
 40
0.8695652173913043
 40
0.8695652173913043
 40
0.9130434782608695
 40
0.9130434782608695
 40
0.9130434782608695
 40
0.9130434782608695
 40
1.0
 40
1.0
 40
1.0
 40
1.0
 10
6.98834
 20
-0.60429
 30
0.0
 10
6.98834
 20
-0.60429
 30
0.0
 10
6.98834
 20
-0.67583
 30
0.0
 10
6.98834
 20
-0.67583
 30
0.0
 10
6.98834
 20
-0.67583
 30
0.0
 10
6.98834
 20
-0.67583
 30
0.0
 10
6.58772
 20
-0.67583
 30
0.0
 10
6.58772
 20
-0.67583
 30
0.0
 10
6.58772
 20
-0.67583
 30
0.0
 10
6.58716
 20
-0.65791
 30
0.0
 10
6.58998
 20
-0.64069
 30
0.0
 10
6.59633
 20
-0.62418
 30
0.0
 10
6.59633
 20
-0.62418
 30
0.0
 10
6.60649
 20
-0.59681
 30
0.0
 10
6.62286
 20
-0.57
 30
0.0
 10
6.6453
 20
-0.54347
 30
0.0
 10
6.6453
 20
-0.54347
 30
0.0
 10
6.66787
 20
-0.51708
 30
0.0
 10
6.70033
 20
-0.48646
 30
0.0
 10
6.74266
 20
-0.45174
 30
0.0
 10
6.74266
 20
-0.45174
 30
0.0
 10
6.80856
 20
-0.3977
 30
0.0
 10
6.85315
 20
-0.35494
 30
0.0
 10
6.8763
 20
-0.32333
 30
0.0
 10
6.8763
 20
-0.32333
 30
0.0
 10
6.89944
 20
-0.29187
 30
0.0
 10
6.91101
 20
-0.26195
 30
0.0
 10
6.91101
 20
-0.23387
 30
0.0
 10
6.91101
 20
-0.23387
 30
0.0
 10
6.91101
 20
-0.20438
 30
0.0
 10
6.90043
 20
-0.17954
 30
0.0
 10
6.8794
 20
-0.15922
 30
0.0
 10
6.8794
 20
-0.15922
 30
0.0
 10
6.85823
 20
-0.13904
 30
0.0
 10
6.83072
 20
-0.12888
 30
0.0
 10
6.79685
 20
-0.12888
 30
0.0
 10
6.79685
 20
-0.12888
 30
0.0
 10
6.76101
 20
-0.12888
 30
0.0
 10
6.73236
 20
-0.13961
 30
0.0
 10
6.71091
 20
-0.1612
 30
0.0
 10
6.71091
 20
-0.1612
 30
0.0
 10
6.68932
 20
-0.18264
 30
0.0
 10
6.67846
 20
-0.21242
 30
0.0
 10
6.67817
 20
-0.25038
 30
0.0
 10
6.67817
 20
-0.25038
 30
0.0
 10
6.67817
 20
-0.25038
 30
0.0
 10
6.60169
 20
-0.24262
 30
0.0
 10
6.60169
 20
-0.24262
 30
0.0
 10
6.60169
 20
-0.24262
 30
0.0
 10
6.60691
 20
-0.18547
 30
0.0
 10
6.62667
 20
-0.142
 30
0.0
 10
6.66082
 20
-0.11209
 30
0.0
 10
6.66082
 20
-0.11209
 30
0.0
 10
6.69497
 20
-0.08217
 30
0.0
 10
6.74097
 20
-0.06722
 30
0.0
 10
6.79854
 20
-0.06722
 30
0.0
 10
6.79854
 20
-0.06722
 30
0.0
 10
6.85668
 20
-0.06722
 30
0.0
 10
6.90268
 20
-0.08344
 30
0.0
 10
6.93655
 20
-0.11562
 30
0.0
 10
6.93655
 20
-0.11562
 30
0.0
 10
6.97056
 20
-0.14793
 30
0.0
 10
6.98749
 20
-0.18787
 30
0.0
 10
6.98749
 20
-0.23556
 30
0.0
 10
6.98749
 20
-0.23556
 30
0.0
 10
6.98749
 20
-0.25983
 30
0.0
 10
6.98255
 20
-0.28368
 30
0.0
 10
6.97253
 20
-0.30711
 30
0.0
 10
6.97253
 20
-0.30711
 30
0.0
 10
6.96266
 20
-0.33053
 30
0.0
 10
6.94615
 20
-0.35522
 30
0.0
 10
6.92314
 20
-0.38105
 30
0.0
 10
6.92314
 20
-0.38105
 30
0.0
 10
6.90014
 20
-0.40701
 30
0.0
 10
6.8619
 20
-0.44257
 30
0.0
 10
6.80842
 20
-0.48773
 30
0.0
 10
6.80842
 20
-0.48773
 30
0.0
 10
6.76383
 20
-0.52526
 30
0.0
 10
6.73518
 20
-0.55066
 30
0.0
 10
6.72248
 20
-0.56407
 30
0.0
 10
6.72248
 20
-0.56407
 30
0.0
 10
6.70978
 20
-0.57733
 30
0.0
 10
6.69934
 20
-0.59074
 30
0.0
 10
6.69102
 20
-0.60429
 30
0.0
 10
6.69102
 20
-0.60429
 30
0.0
 10
6.69102
 20
-0.60429
 30
0.0
 10
6.98834
 20
-0.60429
 30
0.0
 10
6.98834
 20
-0.60429
 30
0.0
  0
SPLINE
  5
5A
330
1F
100
AcDbEntity
  8
Livello 1
 62
   250
370
     5
100
AcDbSpline
210
0.0
220
0.0
230
1.0
 70
    11
 71
     3
 72
   104
 73
   100
 74
     0
 42
0.0000000001
 43
0.0000000001
 40
0.0
 40
0.0
 40
0.0
 40
0.0
 40
0.0384615384615385
 40
0.0384615384615385
 40
0.0384615384615385
 40
0.0384615384615385
 40
0.0769230769230769
 40
0.0769230769230769
 40
0.0769230769230769
 40
0.0769230769230769
 40
0.1153846153846154
 40
0.1153846153846154
 40
0.1153846153846154
 40
0.1153846153846154
 40
0.1538461538461539
 40
0.1538461538461539
 40
0.1538461538461539
 40
0.1538461538461539
 40
0.1923076923076923
 40
0.1923076923076923
 40
0.1923076923076923
 40
0.1923076923076923
 40
0.2307692307692308
 40
0.2307692307692308
 40
0.2307692307692308
 40
0.2307692307692308
 40
0.2692307692307692
 40
0.2692307692307692
 40
0.2692307692307692
 40
0.2692307692307692
 40
0.3076923076923077
 40
0.3076923076923077
 40
0.3076923076923077
 40
0.3076923076923077
 40
0.3461538461538461
 40
0.3461538461538461
 40
0.3461538461538461
 40
0.3461538461538461
 40
0.3846153846153846
 40
0.3846153846153846
 40
0.3846153846153846
 40
0.3846153846153846
 40
0.4230769230769231
 40
0.4230769230769231
 40
0.4230769230769231
 40
0.4230769230769231
 40
0.4615384615384616
 40
0.4615384615384616
 40
0.4615384615384616
 40
0.4615384615384616
 40
0.5
 40
0.5
 40
0.5
 40
0.5
 40
0.5384615384615384
 40
0.5384615384615384
 40
0.5384615384615384
 40
0.5384615384615384
 40
0.5769230769230769
 40
0.5769230769230769
 40
0.5769230769230769
 40
0.5769230769230769
 40
0.6153846153846154
 40
0.6153846153846154
 40
0.6153846153846154
 40
0.6153846153846154
 40
0.6538461538461539
 40
0.6538461538461539
 40
0.6538461538461539
 40
0.6538461538461539
 40
0.6923076923076923
 40
0.6923076923076923
 40
0.6923076923076923
 40
0.6923076923076923
 40
0.7307692307692307
 40
0.7307692307692307
 40
0.7307692307692307
 40
0.7307692307692307
 40
0.7692307692307693
 40
0.7692307692307693
 40
0.7692307692307693
 40
0.7692307692307693
 40
0.8076923076923077
 40
0.8076923076923077
 40
0.8076923076923077
 40
0.8076923076923077
 40
0.8461538461538461
 40
0.8461538461538461
 40
0.8461538461538461
 40
0.8461538461538461
 40
0.8846153846153846
 40
0.8846153846153846
 40
0.8846153846153846
 40
0.8846153846153846
 40
0.9230769230769231
 40
0.9230769230769231
 40
0.9230769230769231
 40
0.9230769230769231
 40
1.0
 40
1.0
 40
1.0
 40
1.0
 10
4.95537
 20
-5.9376
 30
0.0
 10
4.08895
 20
-6.28917
 30
0.0
 10
3.41182
 20
-6.61757
 30
0.0
 10
2.75887
 20
-7.15246
 30
0.0
 10
2.75887
 20
-7.15246
 30
0.0
 10
2.61441
 20
-7.2692
 30
0.0
 10
2.83083
 20
-7.45582
 30
0.0
 10
2.6517
 20
-7.55096
 30
0.0
 10
2.6517
 20
-7.55096
 30
0.0
 10
2.49995
 20
-7.67055
 30
0.0
 10
2.29698
 20
-7.56699
 30
0.0
 10
2.13152
 20
-7.64677
 30
0.0
 10
2.13152
 20
-7.64677
 30
0.0
 10
2.03392
 20
-7.74952
 30
0.0
 10
1.9454
 20
-7.8662
 30
0.0
 10
1.84379
 20
-7.95993
 30
0.0
 10
1.84379
 20
-7.95993
 30
0.0
 10
1.46567
 20
-8.19603
 30
0.0
 10
1.05994
 20
-8.1372
 30
0.0
 10
0.65739
 20
-8.25039
 30
0.0
 10
0.65739
 20
-8.25039
 30
0.0
 10
-0.17978
 20
-8.48578
 30
0.0
 10
-0.85262
 20
-9.15951
 30
0.0
 10
-1.75616
 20
-9.22659
 30
0.0
 10
-1.75616
 20
-9.22659
 30
0.0
 10
-2.46871
 20
-8.13479
 30
0.0
 10
-4.02423
 20
-8.63009
 30
0.0
 10
-5.46573
 20
-8.48831
 30
0.0
 10
-5.46573
 20
-8.48831
 30
0.0
 10
-6.24004
 20
-8.41208
 30
0.0
 10
-6.97879
 20
-8.13108
 30
0.0
 10
-7.59822
 20
-7.52013
 30
0.0
 10
-7.59822
 20
-7.52013
 30
0.0
 10
-8.003
 20
-7.1209
 30
0.0
 10
-8.5327
 20
-6.53818
 30
0.0
 10
-8.23863
 20
-5.89119
 30
0.0
 10
-8.23863
 20
-5.89119
 30
0.0
 10
-8.02811
 20
-5.4281
 30
0.0
 10
-7.0041
 20
-4.68991
 30
0.0
 10
-6.37897
 20
-4.43976
 30
0.0
 10
-6.37897
 20
-4.43976
 30
0.0
 10
-6.08619
 20
-4.32258
 30
0.0
 10
-5.57322
 20
-4.19369
 30
0.0
 10
-5.17377
 20
-4.34034
 30
0.0
 10
-5.17377
 20
-4.34034
 30
0.0
 10
-4.78667
 20
-4.4824
 30
0.0
 10
-4.60723
 20
-4.86517
 30
0.0
 10
-4.14048
 20
-5.0864
 30
0.0
 10
-4.14048
 20
-5.0864
 30
0.0
 10
-3.69507
 20
-5.29746
 30
0.0
 10
-3.18534
 20
-5.37086
 30
0.0
 10
-2.74599
 20
-5.62391
 30
0.0
 10
-2.74599
 20
-5.62391
 30
0.0
 10
-2.44706
 20
-5.79604
 30
0.0
 10
-2.14722
 20
-6.0408
 30
0.0
 10
-1.92385
 20
-6.27779
 30
0.0
 10
-1.92385
 20
-6.27779
 30
0.0
 10
-1.79869
 20
-6.41055
 30
0.0
 10
-1.68179
 20
-6.64409
 30
0.0
 10
-1.56663
 20
-6.67777
 30
0.0
 10
-1.56663
 20
-6.67777
 30
0.0
 10
-1.33622
 20
-6.74513
 30
0.0
 10
-0.96078
 20
-6.44068
 30
0.0
 10
-0.63749
 20
-6.29889
 30
0.0
 10
-0.63749
 20
-6.29889
 30
0.0
 10
0.54861
 20
-5.77845
 30
0.0
 10
2.31891
 20
-5.50831
 30
0.0
 10
3.22557
 20
-4.79161
 30
0.0
 10
3.22557
 20
-4.79161
 30
0.0
 10
3.73175
 20
-4.3914
 30
0.0
 10
3.99835
 20
-3.93494
 30
0.0
 10
4.38888
 20
-4.01281
 30
0.0
 10
4.38888
 20
-4.01281
 30
0.0
 10
4.70187
 20
-4.17283
 30
0.0
 10
5.70856
 20
-5.21584
 30
0.0
 10
5.24273
 20
-5.62734
 30
0.0
 10
5.24273
 20
-5.62734
 30
0.0
 10
5.24273
 20
-5.62734
 30
0.0
 10
4.63333
 20
-4.98281
 30
0.0
 10
4.63333
 20
-4.98281
 30
0.0
 10
4.63333
 20
-4.98281
 30
0.0
 10
4.63333
 20
-4.98281
 30
0.0
 10
4.43034
 20
-4.75944
 30
0.0
 10
4.43034
 20
-4.75944
 30
0.0
 10
4.43034
 20
-4.75944
 30
0.0
 10
4.43034
 20
-4.75944
 30
0.0
 10
4.13491
 20
-5.0279
 30
0.0
 10
4.13491
 20
-5.0279
 30
0.0
 10
4.13491
 20
-5.0279
 30
0.0
 10
4.13491
 20
-5.0279
 30
0.0
 10
4.2659
 20
-5.17204
 30
0.0
 10
4.2659
 20
-5.17204
 30
0.0
 10
4.2659
 20
-5.17204
 30
0.0
 10
4.2714
 20
-5.17987
 30
0.0
 10
4.27749
 20
-5.18741
 30
0.0
 10
4.28421
 20
-5.19461
 30
0.0
 10
4.28421
 20
-5.19461
 30
0.0
 10
4.28421
 20
-5.19461
 30
0.0
 10
4.95537
 20
-5.9376
 30
0.0
 10
4.95537
 20
-5.9376
 30
0.0
  0
SPLINE
  5
5B
330
1F
100
AcDbEntity
  8
Livello 1
 62
   250
370
     5
100
AcDbSpline
210
0.0
220
0.0
230
1.0
 70
    11
 71
     3
 72
    20
 73
    16
 74
     0
 42
0.0000000001
 43
0.0000000001
 40
0.0
 40
0.0
 40
0.0
 40
0.0
 40
0.2
 40
0.2
 40
0.2
 40
0.2
 40
0.4
 40
0.4
 40
0.4
 40
0.4
 40
0.6
 40
0.6
 40
0.6
 40
0.6
 40
1.0
 40
1.0
 40
1.0
 40
1.0
 10
-7.62148
 20
-6.42805
 30
0.0
 10
-7.62148
 20
-6.42805
 30
0.0
 10
-7.84609
 20
-6.09802
 30
0.0
 10
-7.84609
 20
-6.09802
 30
0.0
 10
-7.84609
 20
-6.09802
 30
0.0
 10
-7.84609
 20
-6.09802
 30
0.0
 10
-5.58046
 20
-4.55596
 30
0.0
 10
-5.58046
 20
-4.55596
 30
0.0
 10
-5.58046
 20
-4.55596
 30
0.0
 10
-5.58046
 20
-4.55596
 30
0.0
 10
-5.35583
 20
-4.88597
 30
0.0
 10
-5.35583
 20
-4.88597
 30
0.0
 10
-5.35583
 20
-4.88597
 30
0.0
 10
-5.35583
 20
-4.88597
 30
0.0
 10
-7.62148
 20
-6.42805
 30
0.0
 10
-7.62148
 20
-6.42805
 30
0.0
  0
SPLINE
  5
5C
330
1F
100
AcDbEntity
  8
Livello 1
 62
   250
370
     5
100
AcDbSpline
210
0.0
220
0.0
230
1.0
 70
    11
 71
     3
 72
    76
 73
    72
 74
     0
 42
0.0000000001
 43
0.0000000001
 40
0.0
 40
0.0
 40
0.0
 40
0.0
 40
0.0526315789473684
 40
0.0526315789473684
 40
0.0526315789473684
 40
0.0526315789473684
 40
0.1052631578947368
 40
0.1052631578947368
 40
0.1052631578947368
 40
0.1052631578947368
 40
0.1578947368421053
 40
0.1578947368421053
 40
0.1578947368421053
 40
0.1578947368421053
 40
0.2105263157894737
 40
0.2105263157894737
 40
0.2105263157894737
 40
0.2105263157894737
 40
0.2631578947368421
 40
0.2631578947368421
 40
0.2631578947368421
 40
0.2631578947368421
 40
0.3157894736842105
 40
0.3157894736842105
 40
0.3157894736842105
 40
0.3157894736842105
 40
0.3684210526315789
 40
0.3684210526315789
 40
0.3684210526315789
 40
0.3684210526315789
 40
0.4210526315789473
 40
0.4210526315789473
 40
0.4210526315789473
 40
0.4210526315789473
 40
0.4736842105263158
 40
0.4736842105263158
 40
0.4736842105263158
 40
0.4736842105263158
 40
0.5263157894736842
 40
0.5263157894736842
 40
0.5263157894736842
 40
0.5263157894736842
 40
0.5789473684210527
 40
0.5789473684210527
 40
0.5789473684210527
 40
0.5789473684210527
 40
0.631578947368421
 40
0.631578947368421
 40
0.631578947368421
 40
0.631578947368421
 40
0.6842105263157895
 40
0.6842105263157895
 40
0.6842105263157895
 40
0.6842105263157895
 40
0.7368421052631579
 40
0.7368421052631579
 40
0.7368421052631579
 40
0.7368421052631579
 40
0.7894736842105263
 40
0.7894736842105263
 40
0.7894736842105263
 40
0.7894736842105263
 40
0.8421052631578947
 40
0.8421052631578947
 40
0.8421052631578947
 40
0.8421052631578947
 40
0.8947368421052632
 40
0.8947368421052632
 40
0.8947368421052632
 40
0.8947368421052632
 40
1.0
 40
1.0
 40
1.0
 40
1.0
 10
-12.76418
 20
-6.75557
 30
0.0
 10
-13.13127
 20
-5.66649
 30
0.0
 10
-12.73969
 20
-4.53116
 30
0.0
 10
-12.29697
 20
-3.23113
 30
0.0
 10
-12.29697
 20
-3.23113
 30
0.0
 10
-11.92081
 20
-2.41033
 30
0.0
 10
-11.7372
 20
-1.70613
 30
0.0
 10
-11.63597
 20
-1.04112
 30
0.0
 10
-11.63597
 20
-1.04112
 30
0.0
 10
-11.46733
 20
-0.54679
 30
0.0
 10
-10.88957
 20
-0.1911
 30
0.0
 10
-10.1919
 20
-0.25033
 30
0.0
 10
-10.1919
 20
-0.25033
 30
0.0
 10
-9.23975
 20
0.79566
 30
0.0
 10
-7.7316
 20
0.61264
 30
0.0
 10
-6.54662
 20
1.13446
 30
0.0
 10
-6.54662
 20
1.13446
 30
0.0
 10
-6.34309
 20
1.22413
 30
0.0
 10
-6.2128
 20
1.4462
 30
0.0
 10
-5.94541
 20
1.37538
 30
0.0
 10
-5.94541
 20
1.37538
 30
0.0
 10
-5.217
 20
0.6631
 30
0.0
 10
-6.02261
 20
0.25952
 30
0.0
 10
-6.7023
 20
-0.18623
 30
0.0
 10
-6.7023
 20
-0.18623
 30
0.0
 10
-7.48504
 20
-0.69969
 30
0.0
 10
-7.94819
 20
-1.03193
 30
0.0
 10
-8.73073
 20
-1.548
 30
0.0
 10
-8.73073
 20
-1.548
 30
0.0
 10
-9.09741
 20
-1.7898
 30
0.0
 10
-9.54448
 20
-1.98228
 30
0.0
 10
-9.71629
 20
-2.25754
 30
0.0
 10
-9.71629
 20
-2.25754
 30
0.0
 10
-9.80216
 20
-2.66623
 30
0.0
 10
-9.88448
 20
-3.36531
 30
0.0
 10
-9.94797
 20
-3.96795
 30
0.0
 10
-9.94797
 20
-3.96795
 30
0.0
 10
-10.01129
 20
-4.56932
 30
0.0
 10
-10.0526
 20
-5.22172
 30
0.0
 10
-10.07578
 20
-5.66201
 30
0.0
 10
-10.07578
 20
-5.66201
 30
0.0
 10
-10.11368
 20
-6.38281
 30
0.0
 10
-10.02236
 20
-7.12567
 30
0.0
 10
-10.76033
 20
-7.32049
 30
0.0
 10
-10.76033
 20
-7.32049
 30
0.0
 10
-10.76033
 20
-7.32049
 30
0.0
 10
-10.76564
 20
-7.24639
 30
0.0
 10
-10.76564
 20
-7.24639
 30
0.0
 10
-10.76564
 20
-7.24639
 30
0.0
 10
-10.76564
 20
-7.24639
 30
0.0
 10
-10.76564
 20
-6.23267
 30
0.0
 10
-10.76564
 20
-6.23267
 30
0.0
 10
-10.76564
 20
-6.23267
 30
0.0
 10
-10.76564
 20
-6.22288
 30
0.0
 10
-10.76634
 20
-6.21324
 30
0.0
 10
-10.76764
 20
-6.2038
 30
0.0
 10
-10.76764
 20
-6.2038
 30
0.0
 10
-10.76764
 20
-6.2038
 30
0.0
 10
-10.76764
 20
-6.00591
 30
0.0
 10
-10.76764
 20
-6.00591
 30
0.0
 10
-10.76764
 20
-6.00591
 30
0.0
 10
-10.76764
 20
-6.00591
 30
0.0
 10
-11.16684
 20
-6.00591
 30
0.0
 10
-11.16684
 20
-6.00591
 30
0.0
 10
-11.16684
 20
-6.00591
 30
0.0
 10
-11.16684
 20
-6.00591
 30
0.0
 10
-11.16684
 20
-7.34835
 30
0.0
 10
-11.16684
 20
-7.34835
 30
0.0
 10
-11.16684
 20
-7.34835
 30
0.0
 10
-11.65711
 20
-7.63349
 30
0.0
 10
-12.58145
 20
-7.33337
 30
0.0
 10
-12.76418
 20
-6.75557
 30
0.0
  0
ENDSEC
  0
SECTION
  2
OBJECTS
  0
DICTIONARY
  5
C
330
0
100
AcDbDictionary
281
     1
  3
ACAD_GROUP
350
D
  3
ACAD_LAYOUT
350
1A
  3
ACAD_MATERIAL
350
3B
  3
ACAD_MLEADERSTYLE
350
7E
  3
ACAD_MLINESTYLE
350
17
  3
ACAD_PLOTSETTINGS
350
19
  3
ACAD_PLOTSTYLENAME
350
E
  3
ACAD_TABLESTYLE
350
7D
  3
ACAD_VISUALSTYLE
350
2A
  0
DICTIONARY
  5
D
102
{ACAD_REACTORS
330
C
102
}
330
C
100
AcDbDictionary
281
     1
  0
DICTIONARY
  5
1A
102
{ACAD_REACTORS
330
C
102
}
330
C
100
AcDbDictionary
281
     1
  3
Layout1
350
1E
  3
Layout2
350
26
  3
Model
350
22
  0
DICTIONARY
  5
3B
102
{ACAD_REACTORS
330
C
102
}
330
C
100
AcDbDictionary
281
     1
  3
ByBlock
350
3D
  3
ByLayer
350
3C
  3
Global
350
3E
  0
DICTIONARY
  5
7E
102
{ACAD_REACTORS
330
C
102
}
330
C
100
AcDbDictionary
281
     1
  0
DICTIONARY
  5
17
102
{ACAD_REACTORS
330
C
102
}
330
C
100
AcDbDictionary
281
     1
  3
Standard
350
18
  0
DICTIONARY
  5
19
102
{ACAD_REACTORS
330
C
102
}
330
C
100
AcDbDictionary
281
     1
  0
ACDBDICTIONARYWDFLT
  5
E
102
{ACAD_REACTORS
330
C
102
}
330
C
100
AcDbDictionary
281
     1
  3
Normal
350
F
100
AcDbDictionaryWithDefault
340
F
  0
DICTIONARY
  5
7D
102
{ACAD_REACTORS
330
C
102
}
330
C
100
AcDbDictionary
281
     1
  0
DICTIONARY
  5
2A
102
{ACAD_REACTORS
330
C
102
}
330
C
100
AcDbDictionary
281
     1
  3
2dWireframe
350
2F
  3
3D Hidden
350
31
  3
3dWireframe
350
30
  3
Basic
350
32
  3
Brighten
350
36
  3
ColorChange
350
3A
  3
Conceptual
350
34
  3
Dim
350
35
  3
Facepattern
350
39
  3
Flat
350
2B
  3
FlatWithEdges
350
2C
  3
Gouraud
350
2D
  3
GouraudWithEdges
350
2E
  3
Linepattern
350
38
  3
Realistic
350
33
  3
Thicken
350
37
  0
LAYOUT
  5
1E
102
{ACAD_REACTORS
330
1A
102
}
330
1A
100
AcDbPlotSettings
  1

  2
none_device
  4

  6

 40
0.0
 41
0.0
 42
0.0
 43
0.0
 44
0.0
 45
0.0
 46
0.0
 47
0.0
 48
0.0
 49
0.0
140
0.0
141
0.0
142
1.0
143
1.0
 70
   688
 72
     0
 73
     0
 74
     5
  7

 75
    16
 76
     0
 77
     2
 78
   300
147
1.0
148
0.0
149
0.0
100
AcDbLayout
  1
Layout1
 70
     1
 71
     1
 10
0.0
 20
0.0
 11
12.0
 21
9.0
 12
0.0
 22
0.0
 32
0.0
 14
1.000000000000000E+20
 24
1.000000000000000E+20
 34
1.000000000000000E+20
 15
-1.000000000000000E+20
 25
-1.000000000000000E+20
 35
-1.000000000000000E+20
146
0.0
 13
0.0
 23
0.0
 33
0.0
 16
1.0
 26
0.0
 36
0.0
 17
0.0
 27
1.0
 37
0.0
 76
     0
330
1B
  0
LAYOUT
  5
26
102
{ACAD_REACTORS
330
1A
102
}
330
1A
100
AcDbPlotSettings
  1

  2
none_device
  4

  6

 40
0.0
 41
0.0
 42
0.0
 43
0.0
 44
0.0
 45
0.0
 46
0.0
 47
0.0
 48
0.0
 49
0.0
140
0.0
141
0.0
142
1.0
143
1.0
 70
   688
 72
     0
 73
     0
 74
     5
  7

 75
    16
 76
     0
 77
     2
 78
   300
147
1.0
148
0.0
149
0.0
100
AcDbLayout
  1
Layout2
 70
     1
 71
     2
 10
0.0
 20
0.0
 11
0.0
 21
0.0
 12
0.0
 22
0.0
 32
0.0
 14
0.0
 24
0.0
 34
0.0
 15
0.0
 25
0.0
 35
0.0
146
0.0
 13
0.0
 23
0.0
 33
0.0
 16
1.0
 26
0.0
 36
0.0
 17
0.0
 27
1.0
 37
0.0
 76
     0
330
23
  0
LAYOUT
  5
22
102
{ACAD_REACTORS
330
1A
102
}
330
1A
100
AcDbPlotSettings
  1

  2
none_device
  4

  6

 40
0.0
 41
0.0
 42
0.0
 43
0.0
 44
0.0
 45
0.0
 46
0.0
 47
0.0
 48
0.0
 49
0.0
140
0.0
141
0.0
142
1.0
143
1.0
 70
  1712
 72
     0
 73
     0
 74
     0
  7

 75
     0
 76
     0
 77
     2
 78
   300
147
1.0
148
0.0
149
0.0
100
AcDbLayout
  1
Model
 70
     1
 71
     0
 10
0.0
 20
0.0
 11
12.0
 21
9.0
 12
0.0
 22
0.0
 32
0.0
 14
-13.64006
 24
-9.23056
 34
0.0
 15
13.14085
 25
9.52842
 35
0.0
146
0.0
 13
0.0
 23
0.0
 33
0.0
 16
1.0
 26
0.0
 36
0.0
 17
0.0
 27
1.0
 37
0.0
 76
     0
330
1F
331
29
  0
MATERIAL
  5
3D
102
{ACAD_REACTORS
330
3B
102
}
330
3B
100
AcDbMaterial
  1
ByBlock
 72
     1
 94
      127
  0
MATERIAL
  5
3C
102
{ACAD_REACTORS
330
3B
102
}
330
3B
100
AcDbMaterial
  1
ByLayer
 72
     1
 94
      127
  0
MATERIAL
  5
3E
102
{ACAD_REACTORS
330
3B
102
}
330
3B
100
AcDbMaterial
  1
Global
 72
     1
 94
      127
  0
MLINESTYLE
  5
18
102
{ACAD_REACTORS
330
17
102
}
330
17
100
AcDbMlineStyle
  2
Standard
 70
     0
  3

 62
   256
 51
90.0
 52
90.0
 71
     2
 49
0.5
 62
   256
  6
BYLAYER
 49
-0.5
 62
   256
  6
BYLAYER
  0
ACDBPLACEHOLDER
  5
F
102
{ACAD_REACTORS
330
E
102
}
330
E
  0
VISUALSTYLE
  5
2F
102
{ACAD_REACTORS
330
2A
102
}
102
{ACAD_XDICTIONARY
360
65
102
}
330
2A
100
AcDbVisualStyle
  2
2dWireframe
 70
     4
 71
     0
 72
     2
 73
     0
 90
        0
 40
-0.6
 41
-30.0
 62
     5
 63
     7
421
 16777215
 74
     1
 91
        4
 64
     7
 65
   257
 75
     1
175
     1
 42
1.0
 92
        0
 66
   257
 43
1.0
 76
     1
 77
     6
 78
     2
 67
     7
 79
     5
170
     0
171
     0
290
     0
174
     0
 93
        1
 44
0.0
173
     0
291
     0
 45
0.0
  0
VISUALSTYLE
  5
31
102
{ACAD_REACTORS
330
2A
102
}
102
{ACAD_XDICTIONARY
360
69
102
}
330
2A
100
AcDbVisualStyle
  2
3D Hidden
 70
     6
 71
     1
 72
     2
 73
     2
 90
        0
 40
-0.6
 41
-30.0
 62
     5
 63
     7
421
 16777215
 74
     2
 91
        2
 64
     7
 65
   257
 75
     2
175
     1
 42
40.0
 92
        0
 66
   257
 43
1.0
 76
     1
 77
     6
 78
     2
 67
     7
 79
     3
170
     0
171
     0
290
     0
174
     0
 93
        1
 44
0.0
173
     0
291
     0
 45
0.0
  0
VISUALSTYLE
  5
30
102
{ACAD_REACTORS
330
2A
102
}
102
{ACAD_XDICTIONARY
360
67
102
}
330
2A
100
AcDbVisualStyle
  2
3dWireframe
 70
     5
 71
     0
 72
     2
 73
     0
 90
        0
 40
-0.6
 41
-30.0
 62
     5
 63
     7
421
 16777215
 74
     1
 91
        4
 64
     7
 65
   257
 75
     1
175
     1
 42
1.0
 92
        0
 66
   257
 43
1.0
 76
     1
 77
     6
 78
     2
 67
     7
 79
     5
170
     0
171
     0
290
     0
174
     0
 93
        1
 44
0.0
173
     0
291
     0
 45
0.0
  0
VISUALSTYLE
  5
32
102
{ACAD_REACTORS
330
2A
102
}
102
{ACAD_XDICTIONARY
360
6B
102
}
330
2A
100
AcDbVisualStyle
  2
Basic
 70
     7
 71
     1
 72
     0
 73
     1
 90
        0
 40
-0.6
 41
-30.0
 62
     5
 63
     7
421
 16777215
 74
     0
 91
        4
 64
     7
 65
   257
 75
     1
175
     1
 42
1.0
 92
        8
 66
     7
 43
1.0
 76
     1
 77
     6
 78
     2
 67
     7
 79
     5
170
     0
171
     0
290
     0
174
     0
 93
        1
 44
0.0
173
     0
291
     1
 45
0.0
  0
VISUALSTYLE
  5
36
102
{ACAD_REACTORS
330
2A
102
}
102
{ACAD_XDICTIONARY
360
73
102
}
330
2A
100
AcDbVisualStyle
  2
Brighten
 70
    12
 71
     2
 72
     2
 73
     0
 90
        0
 40
-0.6
 41
-30.0
 62
     5
 63
     7
421
 16777215
 74
     1
 91
        4
 64
     7
 65
   257
 75
     1
175
     1
 42
1.0
 92
        8
 66
     7
 43
1.0
 76
     1
 77
     6
 78
     2
 67
     7
 79
     5
170
     0
171
     0
290
     0
174
     0
 93
        1
 44
50.0
173
     0
291
     1
 45
0.0
  0
VISUALSTYLE
  5
3A
102
{ACAD_REACTORS
330
2A
102
}
102
{ACAD_XDICTIONARY
360
7B
102
}
330
2A
100
AcDbVisualStyle
  2
ColorChange
 70
    16
 71
     2
 72
     2
 73
     3
 90
        0
 40
-0.6
 41
-30.0
 62
     5
 63
     8
421
  8421504
 74
     1
 91
        4
 64
     7
 65
   257
 75
     1
175
     1
 42
1.0
 92
        8
 66
     8
424
  8421504
 43
1.0
 76
     1
 77
     6
 78
     2
 67
     7
 79
     5
170
     0
171
     0
290
     0
174
     0
 93
        1
 44
0.0
173
     0
291
     1
 45
0.0
  0
VISUALSTYLE
  5
34
102
{ACAD_REACTORS
330
2A
102
}
102
{ACAD_XDICTIONARY
360
6F
102
}
330
2A
100
AcDbVisualStyle
  2
Conceptual
 70
     9
 71
     3
 72
     2
 73
     0
 90
        0
 40
-0.6
 41
-30.0
 62
     5
 63
     7
421
 16777215
 74
     2
 91
        2
 64
     7
 65
   257
 75
     1
175
     1
 42
40.0
 92
        8
 66
     7
 43
1.0
 76
     1
 77
     6
 78
     2
 67
     7
 79
     3
170
     0
171
     0
290
     0
174
     0
 93
        1
 44
0.0
173
     0
291
     0
 45
0.0
  0
VISUALSTYLE
  5
35
102
{ACAD_REACTORS
330
2A
102
}
102
{ACAD_XDICTIONARY
360
71
102
}
330
2A
100
AcDbVisualStyle
  2
Dim
 70
    11
 71
     2
 72
     2
 73
     0
 90
        0
 40
-0.6
 41
-30.0
 62
     5
 63
     7
421
 16777215
 74
     1
 91
        4
 64
     7
 65
   257
 75
     1
175
     1
 42
1.0
 92
        8
 66
     7
 43
1.0
 76
     1
 77
     6
 78
     2
 67
     7
 79
     5
170
     0
171
     0
290
     0
174
     0
 93
        1
 44
-50.0
173
     0
291
     1
 45
0.0
  0
VISUALSTYLE
  5
39
102
{ACAD_REACTORS
330
2A
102
}
102
{ACAD_XDICTIONARY
360
79
102
}
330
2A
100
AcDbVisualStyle
  2
Facepattern
 70
    15
 71
     2
 72
     2
 73
     0
 90
        0
 40
-0.6
 41
-30.0
 62
     5
 63
     7
421
 16777215
 74
     1
 91
        4
 64
     7
 65
   257
 75
     1
175
     1
 42
1.0
 92
        8
 66
     7
 43
1.0
 76
     1
 77
     6
 78
     2
 67
     7
 79
     5
170
     0
171
     0
290
     0
174
     0
 93
        1
 44
0.0
173
     0
291
     1
 45
0.0
  0
VISUALSTYLE
  5
2B
102
{ACAD_REACTORS
330
2A
102
}
102
{ACAD_XDICTIONARY
360
5D
102
}
330
2A
100
AcDbVisualStyle
  2
Flat
 70
     0
 71
     2
 72
     1
 73
     1
 90
        2
 40
-0.6
 41
30.0
 62
     5
 63
     7
421
 16777215
 74
     0
 91
        4
 64
     7
 65
   257
 75
     1
175
     1
 42
1.0
 92
        8
 66
     7
 43
1.0
 76
     1
 77
     6
 78
     2
 67
     7
 79
     5
170
     0
171
     0
290
     0
174
     0
 93
       13
 44
0.0
173
     0
291
     1
 45
0.0
  0
VISUALSTYLE
  5
2C
102
{ACAD_REACTORS
330
2A
102
}
102
{ACAD_XDICTIONARY
360
5F
102
}
330
2A
100
AcDbVisualStyle
  2
FlatWithEdges
 70
     1
 71
     2
 72
     1
 73
     1
 90
        2
 40
-0.6
 41
30.0
 62
     5
 63
     7
421
 16777215
 74
     1
 91
        4
 64
     7
 65
   257
 75
     1
175
     1
 42
1.0
 92
        0
 66
   257
 43
1.0
 76
     1
 77
     6
 78
     2
 67
     7
 79
     5
170
     0
171
     0
290
     0
174
     0
 93
       13
 44
0.0
173
     0
291
     1
 45
0.0
  0
VISUALSTYLE
  5
2D
102
{ACAD_REACTORS
330
2A
102
}
102
{ACAD_XDICTIONARY
360
61
102
}
330
2A
100
AcDbVisualStyle
  2
Gouraud
 70
     2
 71
     2
 72
     2
 73
     1
 90
        2
 40
-0.6
 41
30.0
 62
     5
 63
     7
421
 16777215
 74
     0
 91
        4
 64
     7
 65
   257
 75
     1
175
     1
 42
1.0
 92
        0
 66
     7
 43
1.0
 76
     1
 77
     6
 78
     2
 67
     7
 79
     5
170
     0
171
     0
290
     0
174
     0
 93
       13
 44
0.0
173
     0
291
     1
 45
0.0
  0
VISUALSTYLE
  5
2E
102
{ACAD_REACTORS
330
2A
102
}
102
{ACAD_XDICTIONARY
360
63
102
}
330
2A
100
AcDbVisualStyle
  2
GouraudWithEdges
 70
     3
 71
     2
 72
     2
 73
     1
 90
        2
 40
-0.6
 41
30.0
 62
     5
 63
     7
421
 16777215
 74
     1
 91
        4
 64
     7
 65
   257
 75
     1
175
     1
 42
1.0
 92
        0
 66
   257
 43
1.0
 76
     1
 77
     6
 78
     2
 67
     7
 79
     5
170
     0
171
     0
290
     0
174
     0
 93
       13
 44
0.0
173
     0
291
     1
 45
0.0
  0
VISUALSTYLE
  5
38
102
{ACAD_REACTORS
330
2A
102
}
102
{ACAD_XDICTIONARY
360
77
102
}
330
2A
100
AcDbVisualStyle
  2
Linepattern
 70
    14
 71
     2
 72
     2
 73
     0
 90
        0
 40
-0.6
 41
-30.0
 62
     5
 63
     7
421
 16777215
 74
     1
 91
        4
 64
     7
 65
   257
 75
     7
175
     7
 42
1.0
 92
        8
 66
     7
 43
1.0
 76
     1
 77
     6
 78
     2
 67
     7
 79
     5
170
     0
171
     0
290
     0
174
     0
 93
        1
 44
0.0
173
     0
291
     1
 45
0.0
  0
VISUALSTYLE
  5
33
102
{ACAD_REACTORS
330
2A
102
}
102
{ACAD_XDICTIONARY
360
6D
102
}
330
2A
100
AcDbVisualStyle
  2
Realistic
 70
     8
 71
     2
 72
     2
 73
     0
 90
        0
 40
-0.6
 41
-30.0
 62
     5
 63
     7
421
 16777215
 74
     1
 91
        0
 64
     7
 65
   257
 75
     1
175
     1
 42
1.0
 92
        8
 66
     8
424
  7895160
 43
1.0
 76
     1
 77
     6
 78
     2
 67
     7
 79
     5
170
     0
171
     0
290
     0
174
     0
 93
       13
 44
0.0
173
     0
291
     0
 45
0.0
  0
VISUALSTYLE
  5
37
102
{ACAD_REACTORS
330
2A
102
}
102
{ACAD_XDICTIONARY
360
75
102
}
330
2A
100
AcDbVisualStyle
  2
Thicken
 70
    13
 71
     2
 72
     2
 73
     0
 90
        0
 40
-0.6
 41
-30.0
 62
     5
 63
     7
421
 16777215
 74
     1
 91
        4
 64
     7
 65
   257
 75
     1
175
     1
 42
1.0
 92
       12
 66
     7
 43
1.0
 76
     1
 77
     6
 78
     2
 67
     7
 79
     5
170
     0
171
     0
290
     0
174
     0
 93
        1
 44
0.0
173
     0
291
     1
 45
0.0
  0
DICTIONARY
  5
65
330
2F
100
AcDbDictionary
280
     1
281
     1
  3
ACAD_XREC_ROUNDTRIP
360
66
  0
DICTIONARY
  5
69
330
31
100
AcDbDictionary
280
     1
281
     1
  3
ACAD_XREC_ROUNDTRIP
360
6A
  0
DICTIONARY
  5
67
330
30
100
AcDbDictionary
280
     1
281
     1
  3
ACAD_XREC_ROUNDTRIP
360
68
  0
DICTIONARY
  5
6B
330
32
100
AcDbDictionary
280
     1
281
     1
  3
ACAD_XREC_ROUNDTRIP
360
6C
  0
DICTIONARY
  5
73
330
36
100
AcDbDictionary
280
     1
281
     1
  3
ACAD_XREC_ROUNDTRIP
360
74
  0
DICTIONARY
  5
7B
330
3A
100
AcDbDictionary
280
     1
281
     1
  3
ACAD_XREC_ROUNDTRIP
360
7C
  0
DICTIONARY
  5
6F
330
34
100
AcDbDictionary
280
     1
281
     1
  3
ACAD_XREC_ROUNDTRIP
360
70
  0
DICTIONARY
  5
71
330
35
100
AcDbDictionary
280
     1
281
     1
  3
ACAD_XREC_ROUNDTRIP
360
72
  0
DICTIONARY
  5
79
330
39
100
AcDbDictionary
280
     1
281
     1
  3
ACAD_XREC_ROUNDTRIP
360
7A
  0
DICTIONARY
  5
5D
330
2B
100
AcDbDictionary
280
     1
281
     1
  3
ACAD_XREC_ROUNDTRIP
360
5E
  0
DICTIONARY
  5
5F
330
2C
100
AcDbDictionary
280
     1
281
     1
  3
ACAD_XREC_ROUNDTRIP
360
60
  0
DICTIONARY
  5
61
330
2D
100
AcDbDictionary
280
     1
281
     1
  3
ACAD_XREC_ROUNDTRIP
360
62
  0
DICTIONARY
  5
63
330
2E
100
AcDbDictionary
280
     1
281
     1
  3
ACAD_XREC_ROUNDTRIP
360
64
  0
DICTIONARY
  5
77
330
38
100
AcDbDictionary
280
     1
281
     1
  3
ACAD_XREC_ROUNDTRIP
360
78
  0
DICTIONARY
  5
6D
330
33
100
AcDbDictionary
280
     1
281
     1
  3
ACAD_XREC_ROUNDTRIP
360
6E
  0
DICTIONARY
  5
75
330
37
100
AcDbDictionary
280
     1
281
     1
  3
ACAD_XREC_ROUNDTRIP
360
76
  0
XRECORD
  5
66
102
{ACAD_REACTORS
330
65
102
}
330
65
100
AcDbXrecord
280
     1
102
RTVSPropertyOp0
 70
     1
102
RTVSPropertyOp1
 70
     1
102
RTVSPropertyOp2
 70
     1
102
RTVSPropertyOp3
 70
     1
102
RTVSPropertyOp4
 70
     1
102
RTVSPropertyOp5
 70
     1
102
RTVSPropertyOp6
 70
     1
102
RTVSPropertyOp7
 70
     1
102
RTVSPropertyOp8
 70
     1
102
RTVSPropertyOp9
 70
     1
102
RTVSPropertyOp10
 70
     1
102
RTVSPropertyOp11
 70
     1
102
RTVSPropertyOp12
 70
     1
102
RTVSPropertyOp13
 70
     1
102
RTVSPropertyOp14
 70
     1
102
RTVSPropertyOp15
 70
     1
102
RTVSPropertyOp16
 70
     1
102
RTVSPropertyOp17
 70
     1
102
RTVSPropertyOp18
 70
     1
102
RTVSPropertyOp19
 70
     1
102
RTVSPropertyOp20
 70
     1
102
RTVSPropertyOp21
 70
     1
102
RTVSPropertyOp22
 70
     1
102
RTVSPropertyOp23
 70
     1
102
RTVSPropertyOp24
 70
     1
102
RTVSPropertyOp25
 70
     1
102
RTVSPropertyOp26
 70
     1
102
RTVSPropertyOp27
 70
     1
  0
XRECORD
  5
6A
102
{ACAD_REACTORS
330
69
102
}
330
69
100
AcDbXrecord
280
     1
102
RTVSPropertyOp0
 70
     1
102
RTVSPropertyOp1
 70
     1
102
RTVSPropertyOp2
 70
     1
102
RTVSPropertyOp3
 70
     1
102
RTVSPropertyOp4
 70
     1
102
RTVSPropertyOp5
 70
     1
102
RTVSPropertyOp6
 70
     1
102
RTVSPropertyOp7
 70
     1
102
RTVSPropertyOp8
 70
     1
102
RTVSPropertyOp9
 70
     1
102
RTVSPropertyOp10
 70
     1
102
RTVSPropertyOp11
 70
     1
102
RTVSPropertyOp12
 70
     1
102
RTVSPropertyOp13
 70
     1
102
RTVSPropertyOp14
 70
     1
102
RTVSPropertyOp15
 70
     1
102
RTVSPropertyOp16
 70
     1
102
RTVSPropertyOp17
 70
     1
102
RTVSPropertyOp18
 70
     1
102
RTVSPropertyOp19
 70
     1
102
RTVSPropertyOp20
 70
     1
102
RTVSPropertyOp21
 70
     1
102
RTVSPropertyOp22
 70
     1
102
RTVSPropertyOp23
 70
     1
102
RTVSPropertyOp24
 70
     1
102
RTVSPropertyOp25
 70
     1
102
RTVSPropertyOp26
 70
     1
102
RTVSPropertyOp27
 70
     1
  0
XRECORD
  5
68
102
{ACAD_REACTORS
330
67
102
}
330
67
100
AcDbXrecord
280
     1
102
RTVSPropertyOp0
 70
     1
102
RTVSPropertyOp1
 70
     1
102
RTVSPropertyOp2
 70
     1
102
RTVSPropertyOp3
 70
     1
102
RTVSPropertyOp4
 70
     1
102
RTVSPropertyOp5
 70
     1
102
RTVSPropertyOp6
 70
     1
102
RTVSPropertyOp7
 70
     1
102
RTVSPropertyOp8
 70
     1
102
RTVSPropertyOp9
 70
     1
102
RTVSPropertyOp10
 70
     1
102
RTVSPropertyOp11
 70
     1
102
RTVSPropertyOp12
 70
     1
102
RTVSPropertyOp13
 70
     1
102
RTVSPropertyOp14
 70
     1
102
RTVSPropertyOp15
 70
     1
102
RTVSPropertyOp16
 70
     1
102
RTVSPropertyOp17
 70
     1
102
RTVSPropertyOp18
 70
     1
102
RTVSPropertyOp19
 70
     1
102
RTVSPropertyOp20
 70
     1
102
RTVSPropertyOp21
 70
     1
102
RTVSPropertyOp22
 70
     1
102
RTVSPropertyOp23
 70
     1
102
RTVSPropertyOp24
 70
     1
102
RTVSPropertyOp25
 70
     1
102
RTVSPropertyOp26
 70
     1
102
RTVSPropertyOp27
 70
     1
  0
XRECORD
  5
6C
102
{ACAD_REACTORS
330
6B
102
}
330
6B
100
AcDbXrecord
280
     1
102
RTVSPropertyOp0
 70
     1
102
RTVSPropertyOp1
 70
     1
102
RTVSPropertyOp2
 70
     1
102
RTVSPropertyOp3
 70
     1
102
RTVSPropertyOp4
 70
     1
102
RTVSPropertyOp5
 70
     1
102
RTVSPropertyOp6
 70
     1
102
RTVSPropertyOp7
 70
     1
102
RTVSPropertyOp8
 70
     1
102
RTVSPropertyOp9
 70
     1
102
RTVSPropertyOp10
 70
     1
102
RTVSPropertyOp11
 70
     1
102
RTVSPropertyOp12
 70
     1
102
RTVSPropertyOp13
 70
     1
102
RTVSPropertyOp14
 70
     1
102
RTVSPropertyOp15
 70
     1
102
RTVSPropertyOp16
 70
     1
102
RTVSPropertyOp17
 70
     1
102
RTVSPropertyOp18
 70
     1
102
RTVSPropertyOp19
 70
     1
102
RTVSPropertyOp20
 70
     1
102
RTVSPropertyOp21
 70
     1
102
RTVSPropertyOp22
 70
     1
102
RTVSPropertyOp23
 70
     1
102
RTVSPropertyOp24
 70
     1
102
RTVSPropertyOp25
 70
     1
102
RTVSPropertyOp26
 70
     1
102
RTVSPropertyOp27
 70
     1
  0
XRECORD
  5
74
102
{ACAD_REACTORS
330
73
102
}
330
73
100
AcDbXrecord
280
     1
102
RTVSPropertyOp0
 70
     1
102
RTVSPropertyOp1
 70
     1
102
RTVSPropertyOp2
 70
     1
102
RTVSPropertyOp3
 70
     1
102
RTVSPropertyOp4
 70
     1
102
RTVSPropertyOp5
 70
     1
102
RTVSPropertyOp6
 70
     1
102
RTVSPropertyOp7
 70
     1
102
RTVSPropertyOp8
 70
     1
102
RTVSPropertyOp9
 70
     1
102
RTVSPropertyOp10
 70
     1
102
RTVSPropertyOp11
 70
     1
102
RTVSPropertyOp12
 70
     1
102
RTVSPropertyOp13
 70
     1
102
RTVSPropertyOp14
 70
     1
102
RTVSPropertyOp15
 70
     1
102
RTVSPropertyOp16
 70
     1
102
RTVSPropertyOp17
 70
     1
102
RTVSPropertyOp18
 70
     1
102
RTVSPropertyOp19
 70
     1
102
RTVSPropertyOp20
 70
     1
102
RTVSPropertyOp21
 70
     1
102
RTVSPropertyOp22
 70
     1
102
RTVSPropertyOp23
 70
     1
102
RTVSPropertyOp24
 70
     1
102
RTVSPropertyOp25
 70
     1
102
RTVSPropertyOp26
 70
     1
102
RTVSPropertyOp27
 70
     1
  0
XRECORD
  5
7C
102
{ACAD_REACTORS
330
7B
102
}
330
7B
100
AcDbXrecord
280
     1
102
RTVSPropertyOp0
 70
     1
102
RTVSPropertyOp1
 70
     1
102
RTVSPropertyOp2
 70
     1
102
RTVSPropertyOp3
 70
     1
102
RTVSPropertyOp4
 70
     1
102
RTVSPropertyOp5
 70
     1
102
RTVSPropertyOp6
 70
     1
102
RTVSPropertyOp7
 70
     1
102
RTVSPropertyOp8
 70
     1
102
RTVSPropertyOp9
 70
     1
102
RTVSPropertyOp10
 70
     1
102
RTVSPropertyOp11
 70
     1
102
RTVSPropertyOp12
 70
     1
102
RTVSPropertyOp13
 70
     1
102
RTVSPropertyOp14
 70
     1
102
RTVSPropertyOp15
 70
     1
102
RTVSPropertyOp16
 70
     1
102
RTVSPropertyOp17
 70
     1
102
RTVSPropertyOp18
 70
     1
102
RTVSPropertyOp19
 70
     1
102
RTVSPropertyOp20
 70
     1
102
RTVSPropertyOp21
 70
     1
102
RTVSPropertyOp22
 70
     1
102
RTVSPropertyOp23
 70
     1
102
RTVSPropertyOp24
 70
     1
102
RTVSPropertyOp25
 70
     1
102
RTVSPropertyOp26
 70
     1
102
RTVSPropertyOp27
 70
     1
  0
XRECORD
  5
70
102
{ACAD_REACTORS
330
6F
102
}
330
6F
100
AcDbXrecord
280
     1
102
RTVSPropertyOp0
 70
     1
102
RTVSPropertyOp1
 70
     1
102
RTVSPropertyOp2
 70
     1
102
RTVSPropertyOp3
 70
     1
102
RTVSPropertyOp4
 70
     1
102
RTVSPropertyOp5
 70
     1
102
RTVSPropertyOp6
 70
     1
102
RTVSPropertyOp7
 70
     1
102
RTVSPropertyOp8
 70
     1
102
RTVSPropertyOp9
 70
     1
102
RTVSPropertyOp10
 70
     1
102
RTVSPropertyOp11
 70
     1
102
RTVSPropertyOp12
 70
     1
102
RTVSPropertyOp13
 70
     1
102
RTVSPropertyOp14
 70
     1
102
RTVSPropertyOp15
 70
     1
102
RTVSPropertyOp16
 70
     1
102
RTVSPropertyOp17
 70
     1
102
RTVSPropertyOp18
 70
     1
102
RTVSPropertyOp19
 70
     1
102
RTVSPropertyOp20
 70
     1
102
RTVSPropertyOp21
 70
     1
102
RTVSPropertyOp22
 70
     1
102
RTVSPropertyOp23
 70
     1
102
RTVSPropertyOp24
 70
     1
102
RTVSPropertyOp25
 70
     1
102
RTVSPropertyOp26
 70
     1
102
RTVSPropertyOp27
 70
     1
  0
XRECORD
  5
72
102
{ACAD_REACTORS
330
71
102
}
330
71
100
AcDbXrecord
280
     1
102
RTVSPropertyOp0
 70
     1
102
RTVSPropertyOp1
 70
     1
102
RTVSPropertyOp2
 70
     1
102
RTVSPropertyOp3
 70
     1
102
RTVSPropertyOp4
 70
     1
102
RTVSPropertyOp5
 70
     1
102
RTVSPropertyOp6
 70
     1
102
RTVSPropertyOp7
 70
     1
102
RTVSPropertyOp8
 70
     1
102
RTVSPropertyOp9
 70
     1
102
RTVSPropertyOp10
 70
     1
102
RTVSPropertyOp11
 70
     1
102
RTVSPropertyOp12
 70
     1
102
RTVSPropertyOp13
 70
     1
102
RTVSPropertyOp14
 70
     1
102
RTVSPropertyOp15
 70
     1
102
RTVSPropertyOp16
 70
     1
102
RTVSPropertyOp17
 70
     1
102
RTVSPropertyOp18
 70
     1
102
RTVSPropertyOp19
 70
     1
102
RTVSPropertyOp20
 70
     1
102
RTVSPropertyOp21
 70
     1
102
RTVSPropertyOp22
 70
     1
102
RTVSPropertyOp23
 70
     1
102
RTVSPropertyOp24
 70
     1
102
RTVSPropertyOp25
 70
     1
102
RTVSPropertyOp26
 70
     1
102
RTVSPropertyOp27
 70
     1
  0
XRECORD
  5
7A
102
{ACAD_REACTORS
330
79
102
}
330
79
100
AcDbXrecord
280
     1
102
RTVSPropertyOp0
 70
     1
102
RTVSPropertyOp1
 70
     1
102
RTVSPropertyOp2
 70
     1
102
RTVSPropertyOp3
 70
     1
102
RTVSPropertyOp4
 70
     1
102
RTVSPropertyOp5
 70
     1
102
RTVSPropertyOp6
 70
     1
102
RTVSPropertyOp7
 70
     1
102
RTVSPropertyOp8
 70
     1
102
RTVSPropertyOp9
 70
     1
102
RTVSPropertyOp10
 70
     1
102
RTVSPropertyOp11
 70
     1
102
RTVSPropertyOp12
 70
     1
102
RTVSPropertyOp13
 70
     1
102
RTVSPropertyOp14
 70
     1
102
RTVSPropertyOp15
 70
     1
102
RTVSPropertyOp16
 70
     1
102
RTVSPropertyOp17
 70
     1
102
RTVSPropertyOp18
 70
     1
102
RTVSPropertyOp19
 70
     1
102
RTVSPropertyOp20
 70
     1
102
RTVSPropertyOp21
 70
     1
102
RTVSPropertyOp22
 70
     1
102
RTVSPropertyOp23
 70
     1
102
RTVSPropertyOp24
 70
     1
102
RTVSPropertyOp25
 70
     1
102
RTVSPropertyOp26
 70
     1
102
RTVSPropertyOp27
 70
     1
  0
XRECORD
  5
5E
102
{ACAD_REACTORS
330
5D
102
}
330
5D
100
AcDbXrecord
280
     1
102
RTVSPropertyOp0
 70
     1
102
RTVSPropertyOp1
 70
     1
102
RTVSPropertyOp2
 70
     1
102
RTVSPropertyOp3
 70
     1
102
RTVSPropertyOp4
 70
     1
102
RTVSPropertyOp5
 70
     1
102
RTVSPropertyOp6
 70
     1
102
RTVSPropertyOp7
 70
     1
102
RTVSPropertyOp8
 70
     1
102
RTVSPropertyOp9
 70
     1
102
RTVSPropertyOp10
 70
     1
102
RTVSPropertyOp11
 70
     1
102
RTVSPropertyOp12
 70
     1
102
RTVSPropertyOp13
 70
     1
102
RTVSPropertyOp14
 70
     1
102
RTVSPropertyOp15
 70
     1
102
RTVSPropertyOp16
 70
     1
102
RTVSPropertyOp17
 70
     1
102
RTVSPropertyOp18
 70
     1
102
RTVSPropertyOp19
 70
     1
102
RTVSPropertyOp20
 70
     1
102
RTVSPropertyOp21
 70
     1
102
RTVSPropertyOp22
 70
     1
102
RTVSPropertyOp23
 70
     1
102
RTVSPropertyOp24
 70
     1
102
RTVSPropertyOp25
 70
     1
102
RTVSPropertyOp26
 70
     1
102
RTVSPropertyOp27
 70
     1
  0
XRECORD
  5
60
102
{ACAD_REACTORS
330
5F
102
}
330
5F
100
AcDbXrecord
280
     1
102
RTVSPropertyOp0
 70
     1
102
RTVSPropertyOp1
 70
     1
102
RTVSPropertyOp2
 70
     1
102
RTVSPropertyOp3
 70
     1
102
RTVSPropertyOp4
 70
     1
102
RTVSPropertyOp5
 70
     1
102
RTVSPropertyOp6
 70
     1
102
RTVSPropertyOp7
 70
     1
102
RTVSPropertyOp8
 70
     1
102
RTVSPropertyOp9
 70
     1
102
RTVSPropertyOp10
 70
     1
102
RTVSPropertyOp11
 70
     1
102
RTVSPropertyOp12
 70
     1
102
RTVSPropertyOp13
 70
     1
102
RTVSPropertyOp14
 70
     1
102
RTVSPropertyOp15
 70
     1
102
RTVSPropertyOp16
 70
     1
102
RTVSPropertyOp17
 70
     1
102
RTVSPropertyOp18
 70
     1
102
RTVSPropertyOp19
 70
     1
102
RTVSPropertyOp20
 70
     1
102
RTVSPropertyOp21
 70
     1
102
RTVSPropertyOp22
 70
     1
102
RTVSPropertyOp23
 70
     1
102
RTVSPropertyOp24
 70
     1
102
RTVSPropertyOp25
 70
     1
102
RTVSPropertyOp26
 70
     1
102
RTVSPropertyOp27
 70
     1
  0
XRECORD
  5
62
102
{ACAD_REACTORS
330
61
102
}
330
61
100
AcDbXrecord
280
     1
102
RTVSPropertyOp0
 70
     1
102
RTVSPropertyOp1
 70
     1
102
RTVSPropertyOp2
 70
     1
102
RTVSPropertyOp3
 70
     1
102
RTVSPropertyOp4
 70
     1
102
RTVSPropertyOp5
 70
     1
102
RTVSPropertyOp6
 70
     1
102
RTVSPropertyOp7
 70
     1
102
RTVSPropertyOp8
 70
     1
102
RTVSPropertyOp9
 70
     1
102
RTVSPropertyOp10
 70
     1
102
RTVSPropertyOp11
 70
     1
102
RTVSPropertyOp12
 70
     1
102
RTVSPropertyOp13
 70
     1
102
RTVSPropertyOp14
 70
     1
102
RTVSPropertyOp15
 70
     1
102
RTVSPropertyOp16
 70
     1
102
RTVSPropertyOp17
 70
     1
102
RTVSPropertyOp18
 70
     1
102
RTVSPropertyOp19
 70
     1
102
RTVSPropertyOp20
 70
     1
102
RTVSPropertyOp21
 70
     1
102
RTVSPropertyOp22
 70
     1
102
RTVSPropertyOp23
 70
     1
102
RTVSPropertyOp24
 70
     1
102
RTVSPropertyOp25
 70
     1
102
RTVSPropertyOp26
 70
     1
102
RTVSPropertyOp27
 70
     1
  0
XRECORD
  5
64
102
{ACAD_REACTORS
330
63
102
}
330
63
100
AcDbXrecord
280
     1
102
RTVSPropertyOp0
 70
     1
102
RTVSPropertyOp1
 70
     1
102
RTVSPropertyOp2
 70
     1
102
RTVSPropertyOp3
 70
     1
102
RTVSPropertyOp4
 70
     1
102
RTVSPropertyOp5
 70
     1
102
RTVSPropertyOp6
 70
     1
102
RTVSPropertyOp7
 70
     1
102
RTVSPropertyOp8
 70
     1
102
RTVSPropertyOp9
 70
     1
102
RTVSPropertyOp10
 70
     1
102
RTVSPropertyOp11
 70
     1
102
RTVSPropertyOp12
 70
     1
102
RTVSPropertyOp13
 70
     1
102
RTVSPropertyOp14
 70
     1
102
RTVSPropertyOp15
 70
     1
102
RTVSPropertyOp16
 70
     1
102
RTVSPropertyOp17
 70
     1
102
RTVSPropertyOp18
 70
     1
102
RTVSPropertyOp19
 70
     1
102
RTVSPropertyOp20
 70
     1
102
RTVSPropertyOp21
 70
     1
102
RTVSPropertyOp22
 70
     1
102
RTVSPropertyOp23
 70
     1
102
RTVSPropertyOp24
 70
     1
102
RTVSPropertyOp25
 70
     1
102
RTVSPropertyOp26
 70
     1
102
RTVSPropertyOp27
 70
     1
  0
XRECORD
  5
78
102
{ACAD_REACTORS
330
77
102
}
330
77
100
AcDbXrecord
280
     1
102
RTVSPropertyOp0
 70
     1
102
RTVSPropertyOp1
 70
     1
102
RTVSPropertyOp2
 70
     1
102
RTVSPropertyOp3
 70
     1
102
RTVSPropertyOp4
 70
     1
102
RTVSPropertyOp5
 70
     1
102
RTVSPropertyOp6
 70
     1
102
RTVSPropertyOp7
 70
     1
102
RTVSPropertyOp8
 70
     1
102
RTVSPropertyOp9
 70
     1
102
RTVSPropertyOp10
 70
     1
102
RTVSPropertyOp11
 70
     1
102
RTVSPropertyOp12
 70
     1
102
RTVSPropertyOp13
 70
     1
102
RTVSPropertyOp14
 70
     1
102
RTVSPropertyOp15
 70
     1
102
RTVSPropertyOp16
 70
     1
102
RTVSPropertyOp17
 70
     1
102
RTVSPropertyOp18
 70
     1
102
RTVSPropertyOp19
 70
     1
102
RTVSPropertyOp20
 70
     1
102
RTVSPropertyOp21
 70
     1
102
RTVSPropertyOp22
 70
     1
102
RTVSPropertyOp23
 70
     1
102
RTVSPropertyOp24
 70
     1
102
RTVSPropertyOp25
 70
     1
102
RTVSPropertyOp26
 70
     1
102
RTVSPropertyOp27
 70
     1
  0
XRECORD
  5
6E
102
{ACAD_REACTORS
330
6D
102
}
330
6D
100
AcDbXrecord
280
     1
102
RTVSPropertyOp0
 70
     1
102
RTVSPropertyOp1
 70
     1
102
RTVSPropertyOp2
 70
     1
102
RTVSPropertyOp3
 70
     1
102
RTVSPropertyOp4
 70
     1
102
RTVSPropertyOp5
 70
     1
102
RTVSPropertyOp6
 70
     1
102
RTVSPropertyOp7
 70
     1
102
RTVSPropertyOp8
 70
     1
102
RTVSPropertyOp9
 70
     1
102
RTVSPropertyOp10
 70
     1
102
RTVSPropertyOp11
 70
     1
102
RTVSPropertyOp12
 70
     1
102
RTVSPropertyOp13
 70
     1
102
RTVSPropertyOp14
 70
     1
102
RTVSPropertyOp15
 70
     1
102
RTVSPropertyOp16
 70
     1
102
RTVSPropertyOp17
 70
     1
102
RTVSPropertyOp18
 70
     1
102
RTVSPropertyOp19
 70
     1
102
RTVSPropertyOp20
 70
     1
102
RTVSPropertyOp21
 70
     1
102
RTVSPropertyOp22
 70
     1
102
RTVSPropertyOp23
 70
     1
102
RTVSPropertyOp24
 70
     1
102
RTVSPropertyOp25
 70
     1
102
RTVSPropertyOp26
 70
     1
102
RTVSPropertyOp27
 70
     1
  0
XRECORD
  5
76
102
{ACAD_REACTORS
330
75
102
}
330
75
100
AcDbXrecord
280
     1
102
RTVSPropertyOp0
 70
     1
102
RTVSPropertyOp1
 70
     1
102
RTVSPropertyOp2
 70
     1
102
RTVSPropertyOp3
 70
     1
102
RTVSPropertyOp4
 70
     1
102
RTVSPropertyOp5
 70
     1
102
RTVSPropertyOp6
 70
     1
102
RTVSPropertyOp7
 70
     1
102
RTVSPropertyOp8
 70
     1
102
RTVSPropertyOp9
 70
     1
102
RTVSPropertyOp10
 70
     1
102
RTVSPropertyOp11
 70
     1
102
RTVSPropertyOp12
 70
     1
102
RTVSPropertyOp13
 70
     1
102
RTVSPropertyOp14
 70
     1
102
RTVSPropertyOp15
 70
     1
102
RTVSPropertyOp16
 70
     1
102
RTVSPropertyOp17
 70
     1
102
RTVSPropertyOp18
 70
     1
102
RTVSPropertyOp19
 70
     1
102
RTVSPropertyOp20
 70
     1
102
RTVSPropertyOp21
 70
     1
102
RTVSPropertyOp22
 70
     1
102
RTVSPropertyOp23
 70
     1
102
RTVSPropertyOp24
 70
     1
102
RTVSPropertyOp25
 70
     1
102
RTVSPropertyOp26
 70
     1
102
RTVSPropertyOp27
 70
     1
  0
ENDSEC
  0
EOF
