  0
SECTION
  2
HEADER
  9
$ACADVER
  1
AC1021
  9
$ACADMAINTVER
 70
    25
  9
$DWGCODEPAGE
  3
ANSI_1252
  9
$INSBASE
 10
0.0
 20
0.0
 30
0.0
  9
$EXTMIN
 10
-13.00681
 20
-8.78176
 30
0.0
  9
$EXTMAX
 10
13.46004
 20
9.44954
 30
0.0
  9
$LIMMIN
 10
0.0
 20
0.0
  9
$LIMMAX
 10
12.0
 20
9.0
  9
$ORTHOMODE
 70
     0
  9
$REGENMODE
 70
     1
  9
$FILLMODE
 70
     1
  9
$QTEXTMODE
 70
     0
  9
$MIRRTEXT
 70
     1
  9
$LTSCALE
 40
1.0
  9
$ATTMODE
 70
     1
  9
$TEXTSIZE
 40
0.2
  9
$TRACEWID
 40
0.05
  9
$TEXTSTYLE
  7
Standard
  9
$CLAYER
  8
0
  9
$CELTYPE
  6
ByLayer
  9
$CECOLOR
 62
   256
  9
$CELTSCALE
 40
1.0
  9
$DISPSILH
 70
     0
  9
$DIMSCALE
 40
1.0
  9
$DIMASZ
 40
0.18
  9
$DIMEXO
 40
0.0625
  9
$DIMDLI
 40
0.38
  9
$DIMRND
 40
0.0
  9
$DIMDLE
 40
0.0
  9
$DIMEXE
 40
0.18
  9
$DIMTP
 40
0.0
  9
$DIMTM
 40
0.0
  9
$DIMTXT
 40
0.18
  9
$DIMCEN
 40
0.09
  9
$DIMTSZ
 40
0.0
  9
$DIMTOL
 70
     0
  9
$DIMLIM
 70
     0
  9
$DIMTIH
 70
     1
  9
$DIMTOH
 70
     1
  9
$DIMSE1
 70
     0
  9
$DIMSE2
 70
     0
  9
$DIMTAD
 70
     0
  9
$DIMZIN
 70
     0
  9
$DIMBLK
  1

  9
$DIMASO
 70
     1
  9
$DIMSHO
 70
     1
  9
$DIMPOST
  1

  9
$DIMAPOST
  1

  9
$DIMALT
 70
     0
  9
$DIMALTD
 70
     2
  9
$DIMALTF
 40
25.4
  9
$DIMLFAC
 40
1.0
  9
$DIMTOFL
 70
     0
  9
$DIMTVP
 40
0.0
  9
$DIMTIX
 70
     0
  9
$DIMSOXD
 70
     0
  9
$DIMSAH
 70
     0
  9
$DIMBLK1
  1

  9
$DIMBLK2
  1

  9
$DIMSTYLE
  2
Standard
  9
$DIMCLRD
 70
     0
  9
$DIMCLRE
 70
     0
  9
$DIMCLRT
 70
     0
  9
$DIMTFAC
 40
1.0
  9
$DIMGAP
 40
0.09
  9
$DIMJUST
 70
     0
  9
$DIMSD1
 70
     0
  9
$DIMSD2
 70
     0
  9
$DIMTOLJ
 70
     1
  9
$DIMTZIN
 70
     0
  9
$DIMALTZ
 70
     0
  9
$DIMALTTZ
 70
     0
  9
$DIMUPT
 70
     0
  9
$DIMDEC
 70
     4
  9
$DIMTDEC
 70
     4
  9
$DIMALTU
 70
     2
  9
$DIMALTTD
 70
     2
  9
$DIMTXSTY
  7
Standard
  9
$DIMAUNIT
 70
     0
  9
$DIMADEC
 70
     0
  9
$DIMALTRND
 40
0.0
  9
$DIMAZIN
 70
     0
  9
$DIMDSEP
 70
    46
  9
$DIMATFIT
 70
     3
  9
$DIMFRAC
 70
     0
  9
$DIMLDRBLK
  1

  9
$DIMLUNIT
 70
     2
  9
$DIMLWD
 70
    -2
  9
$DIMLWE
 70
    -2
  9
$DIMTMOVE
 70
     0
  9
$DIMFXL
 40
1.0
  9
$DIMFXLON
 70
     0
  9
$DIMJOGANG
 40
0.7853981633974483
  9
$DIMTFILL
 70
     0
  9
$DIMTFILLCLR
 70
     0
  9
$DIMARCSYM
 70
     0
  9
$DIMLTYPE
  6

  9
$DIMLTEX1
  6

  9
$DIMLTEX2
  6

  9
$LUNITS
 70
     2
  9
$LUPREC
 70
     4
  9
$SKETCHINC
 40
0.1
  9
$FILLETRAD
 40
0.5
  9
$AUNITS
 70
     0
  9
$AUPREC
 70
     0
  9
$MENU
  1
.
  9
$ELEVATION
 40
0.0
  9
$PELEVATION
 40
0.0
  9
$THICKNESS
 40
0.0
  9
$LIMCHECK
 70
     0
  9
$CHAMFERA
 40
0.5
  9
$CHAMFERB
 40
0.5
  9
$CHAMFERC
 40
1.0
  9
$CHAMFERD
 40
0.0
  9
$SKPOLY
 70
     0
  9
$TDCREATE
 40
2455293.892065729
  9
$TDUCREATE
 40
2455293.808732396
  9
$TDUPDATE
 40
2455293.892065741
  9
$TDUUPDATE
 40
2455293.808732408
  9
$TDINDWG
 40
0.0000000116
  9
$TDUSRTIMER
 40
0.0000000116
  9
$USRTIMER
 70
     1
  9
$ANGBASE
 50
0.0
  9
$ANGDIR
 70
     0
  9
$PDMODE
 70
     0
  9
$PDSIZE
 40
0.0
  9
$PLINEWID
 40
0.0
  9
$SPLFRAME
 70
     0
  9
$SPLINETYPE
 70
     6
  9
$SPLINESEGS
 70
     8
  9
$HANDSEED
  5
72
  9
$SURFTAB1
 70
     6
  9
$SURFTAB2
 70
     6
  9
$SURFTYPE
 70
     6
  9
$SURFU
 70
     6
  9
$SURFV
 70
     6
  9
$UCSBASE
  2

  9
$UCSNAME
  2

  9
$UCSORG
 10
0.0
 20
0.0
 30
0.0
  9
$UCSXDIR
 10
1.0
 20
0.0
 30
0.0
  9
$UCSYDIR
 10
0.0
 20
1.0
 30
0.0
  9
$UCSORTHOREF
  2

  9
$UCSORTHOVIEW
 70
     0
  9
$UCSORGTOP
 10
0.0
 20
0.0
 30
0.0
  9
$UCSORGBOTTOM
 10
0.0
 20
0.0
 30
0.0
  9
$UCSORGLEFT
 10
0.0
 20
0.0
 30
0.0
  9
$UCSORGRIGHT
 10
0.0
 20
0.0
 30
0.0
  9
$UCSORGFRONT
 10
0.0
 20
0.0
 30
0.0
  9
$UCSORGBACK
 10
0.0
 20
0.0
 30
0.0
  9
$PUCSBASE
  2

  9
$PUCSNAME
  2

  9
$PUCSORG
 10
0.0
 20
0.0
 30
0.0
  9
$PUCSXDIR
 10
1.0
 20
0.0
 30
0.0
  9
$PUCSYDIR
 10
0.0
 20
1.0
 30
0.0
  9
$PUCSORTHOREF
  2

  9
$PUCSORTHOVIEW
 70
     0
  9
$PUCSORGTOP
 10
0.0
 20
0.0
 30
0.0
  9
$PUCSORGBOTTOM
 10
0.0
 20
0.0
 30
0.0
  9
$PUCSORGLEFT
 10
0.0
 20
0.0
 30
0.0
  9
$PUCSORGRIGHT
 10
0.0
 20
0.0
 30
0.0
  9
$PUCSORGFRONT
 10
0.0
 20
0.0
 30
0.0
  9
$PUCSORGBACK
 10
0.0
 20
0.0
 30
0.0
  9
$USERI1
 70
     0
  9
$USERI2
 70
     0
  9
$USERI3
 70
     0
  9
$USERI4
 70
     0
  9
$USERI5
 70
     0
  9
$USERR1
 40
0.0
  9
$USERR2
 40
0.0
  9
$USERR3
 40
0.0
  9
$USERR4
 40
0.0
  9
$USERR5
 40
0.0
  9
$WORLDVIEW
 70
     1
  9
$SHADEDGE
 70
     3
  9
$SHADEDIF
 70
    70
  9
$TILEMODE
 70
     1
  9
$MAXACTVP
 70
    64
  9
$PINSBASE
 10
0.0
 20
0.0
 30
0.0
  9
$PLIMCHECK
 70
     0
  9
$PEXTMIN
 10
1.000000000000000E+20
 20
1.000000000000000E+20
 30
1.000000000000000E+20
  9
$PEXTMAX
 10
-1.000000000000000E+20
 20
-1.000000000000000E+20
 30
-1.000000000000000E+20
  9
$PLIMMIN
 10
0.0
 20
0.0
  9
$PLIMMAX
 10
12.0
 20
9.0
  9
$UNITMODE
 70
     0
  9
$VISRETAIN
 70
     1
  9
$PLINEGEN
 70
     0
  9
$PSLTSCALE
 70
     1
  9
$TREEDEPTH
 70
  3020
  9
$CMLSTYLE
  2
Standard
  9
$CMLJUST
 70
     0
  9
$CMLSCALE
 40
1.0
  9
$PROXYGRAPHICS
 70
     1
  9
$MEASUREMENT
 70
     0
  9
$CELWEIGHT
370
    -1
  9
$ENDCAPS
280
     0
  9
$JOINSTYLE
280
     0
  9
$LWDISPLAY
290
     0
  9
$INSUNITS
 70
     5
  9
$HYPERLINKBASE
  1

  9
$STYLESHEET
  1

  9
$XEDIT
290
     1
  9
$CEPSNTYPE
380
     0
  9
$PSTYLEMODE
290
     1
  9
$FINGERPRINTGUID
  2
{62B480B9-94A5-4CD6-AC39-CB0C4DA15FFB}
  9
$VERSIONGUID
  2
{FAEB1C32-E019-11D5-929B-00C0DF256EC4}
  9
$EXTNAMES
290
     1
  9
$PSVPSCALE
 40
0.0
  9
$OLESTARTUP
290
     0
  9
$SORTENTS
280
   127
  9
$INDEXCTL
280
     0
  9
$HIDETEXT
280
     1
  9
$XCLIPFRAME
290
     0
  9
$HALOGAP
280
     0
  9
$OBSCOLOR
 70
   257
  9
$OBSLTYPE
280
     0
  9
$INTERSECTIONDISPLAY
280
     0
  9
$INTERSECTIONCOLOR
 70
   257
  9
$DIMASSOC
280
     2
  9
$PROJECTNAME
  1

  9
$CAMERADISPLAY
290
     0
  9
$LENSLENGTH
 40
50.0
  9
$CAMERAHEIGHT
 40
0.0
  9
$STEPSPERSEC
 40
2.0
  9
$STEPSIZE
 40
6.0
  9
$3DDWFPREC
 40
2.0
  9
$PSOLWIDTH
 40
0.25
  9
$PSOLHEIGHT
 40
4.0
  9
$LOFTANG1
 40
1.570796326794897
  9
$LOFTANG2
 40
1.570796326794897
  9
$LOFTMAG1
 40
0.0
  9
$LOFTMAG2
 40
0.0
  9
$LOFTPARAM
 70
     7
  9
$LOFTNORMALS
280
     1
  9
$LATITUDE
 40
37.795
  9
$LONGITUDE
 40
-122.394
  9
$NORTHDIRECTION
 40
0.0
  9
$TIMEZONE
 70
 -8000
  9
$LIGHTGLYPHDISPLAY
280
     1
  9
$TILEMODELIGHTSYNCH
280
     1
  9
$SOLIDHIST
280
     1
  9
$SHOWHIST
280
     1
  9
$DWFFRAME
280
     2
  9
$DGNFRAME
280
     2
  9
$REALWORLDSCALE
290
     1
  9
$INTERFERECOLOR
 62
   256
  9
$CSHADOW
280
     0
  9
$SHADOWPLANELOCATION
 40
0.0
  0
ENDSEC
  0
SECTION
  2
CLASSES
  0
CLASS
  1
ACDBDICTIONARYWDFLT
  2
AcDbDictionaryWithDefault
  3
ObjectDBX Classes
 90
        0
 91
        4
280
     0
281
     0
  0
CLASS
  1
VISUALSTYLE
  2
AcDbVisualStyle
  3
ObjectDBX Classes
 90
     4095
 91
        4
280
     0
281
     0
  0
CLASS
  1
MATERIAL
  2
AcDbMaterial
  3
ObjectDBX Classes
 90
     1153
 91
        4
280
     0
281
     0
  0
ENDSEC
  0
SECTION
  2
TABLES
  0
TABLE
  2
VPORT
  5
8
330
0
100
AcDbSymbolTable
 70
     1
  0
VPORT
  5
29
330
8
100
AcDbSymbolTableRecord
100
AcDbViewportTableRecord
  2
*Active
 70
     0
 10
0.0
 20
0.0
 11
1.0
 21
1.0
 12
10.42990654205607
 22
4.5
 13
0.0
 23
0.0
 14
0.5
 24
0.5
 15
0.5
 25
0.5
 16
0.0
 26
0.0
 36
1.0
 17
0.0
 27
0.0
 37
0.0
 40
9.0
 41
1.972972972850329
 42
50.0
 43
0.0
 44
0.0
 50
0.0
 51
0.0
 71
     0
 72
   100
 73
     1
 74
     3
 75
     0
 76
     0
 77
     0
 78
     0
281
     0
 65
     1
110
0.0
120
0.0
130
0.0
111
1.0
121
0.0
131
0.0
112
0.0
122
1.0
132
0.0
 79
     0
146
0.0
 60
     3
 61
     5
292
     1
282
     1
141
0.0
142
0.0
 63
   250
  0
ENDTAB
  0
TABLE
  2
LTYPE
  5
5
330
0
100
AcDbSymbolTable
 70
     1
  0
LTYPE
  5
14
330
5
100
AcDbSymbolTableRecord
100
AcDbLinetypeTableRecord
  2
ByBlock
 70
     0
  3

 72
    65
 73
     0
 40
0.0
  0
LTYPE
  5
15
330
5
100
AcDbSymbolTableRecord
100
AcDbLinetypeTableRecord
  2
ByLayer
 70
     0
  3

 72
    65
 73
     0
 40
0.0
  0
LTYPE
  5
16
330
5
100
AcDbSymbolTableRecord
100
AcDbLinetypeTableRecord
  2
Continuous
 70
     0
  3
Solid line
 72
    65
 73
     0
 40
0.0
  0
ENDTAB
  0
TABLE
  2
LAYER
  5
2
330
0
100
AcDbSymbolTable
 70
     2
  0
LAYER
  5
10
330
2
100
AcDbSymbolTableRecord
100
AcDbLayerTableRecord
  2
0
 70
     0
 62
     7
  6
Continuous
370
    -3
390
F
347
3E
  0
LAYER
  5
40
330
2
100
AcDbSymbolTableRecord
100
AcDbLayerTableRecord
  2
Livello 1
 70
     0
 62
     7
  6
Continuous
370
    -3
390
F
347
3E
  0
ENDTAB
  0
TABLE
  2
STYLE
  5
3
330
0
100
AcDbSymbolTable
 70
     1
  0
STYLE
  5
11
330
3
100
AcDbSymbolTableRecord
100
AcDbTextStyleTableRecord
  2
Standard
 70
     0
 40
0.0
 41
1.0
 50
0.0
 71
     0
 42
0.2
  3
txt
  4

  0
ENDTAB
  0
TABLE
  2
VIEW
  5
6
330
0
100
AcDbSymbolTable
 70
     0
  0
ENDTAB
  0
TABLE
  2
UCS
  5
7
330
0
100
AcDbSymbolTable
 70
     0
  0
ENDTAB
  0
TABLE
  2
APPID
  5
9
330
0
100
AcDbSymbolTable
 70
     2
  0
APPID
  5
12
330
9
100
AcDbSymbolTableRecord
100
AcDbRegAppTableRecord
  2
ACAD
 70
     0
  0
APPID
  5
3F
330
9
100
AcDbSymbolTableRecord
100
AcDbRegAppTableRecord
  2
ODA
 70
     0
  0
ENDTAB
  0
TABLE
  2
DIMSTYLE
  5
A
330
0
100
AcDbSymbolTable
 70
     1
100
AcDbDimStyleTable
  0
DIMSTYLE
105
27
330
A
100
AcDbSymbolTableRecord
100
AcDbDimStyleTableRecord
  2
Standard
 70
     0
340
11
  0
ENDTAB
  0
TABLE
  2
BLOCK_RECORD
  5
1
330
0
100
AcDbSymbolTable
 70
     1
  0
BLOCK_RECORD
  5
1F
330
1
100
AcDbSymbolTableRecord
100
AcDbBlockTableRecord
  2
*Model_Space
340
22
 70
     0
280
     1
281
     0
  0
BLOCK_RECORD
  5
1B
330
1
100
AcDbSymbolTableRecord
100
AcDbBlockTableRecord
  2
*Paper_Space
340
1E
 70
     0
280
     1
281
     0
  0
BLOCK_RECORD
  5
23
330
1
100
AcDbSymbolTableRecord
100
AcDbBlockTableRecord
  2
*Paper_Space0
340
26
 70
     0
280
     1
281
     0
  0
ENDTAB
  0
ENDSEC
  0
SECTION
  2
BLOCKS
  0
BLOCK
  5
20
330
1F
100
AcDbEntity
  8
0
100
AcDbBlockBegin
  2
*Model_Space
 70
     0
 10
0.0
 20
0.0
 30
0.0
  3
*Model_Space
  1

  0
ENDBLK
  5
21
330
1F
100
AcDbEntity
  8
0
100
AcDbBlockEnd
  0
BLOCK
  5
1C
330
1B
100
AcDbEntity
 67
     1
  8
0
100
AcDbBlockBegin
  2
*Paper_Space
 70
     0
 10
0.0
 20
0.0
 30
0.0
  3
*Paper_Space
  1

  0
ENDBLK
  5
1D
330
1B
100
AcDbEntity
 67
     1
  8
0
100
AcDbBlockEnd
  0
BLOCK
  5
24
330
23
100
AcDbEntity
  8
0
100
AcDbBlockBegin
  2
*Paper_Space0
 70
     0
 10
0.0
 20
0.0
 30
0.0
  3
*Paper_Space0
  1

  0
ENDBLK
  5
25
330
23
100
AcDbEntity
  8
0
100
AcDbBlockEnd
  0
ENDSEC
  0
SECTION
  2
ENTITIES
  0
SPLINE
  5
41
330
1F
100
AcDbEntity
  8
Livello 1
 62
   250
370
     5
100
AcDbSpline
210
0.0
220
0.0
230
1.0
 70
    11
 71
     3
 72
   180
 73
   176
 74
     0
 42
0.0000000001
 43
0.0000000001
 40
0.0
 40
0.0
 40
0.0
 40
0.0
 40
0.0222222222222222
 40
0.0222222222222222
 40
0.0222222222222222
 40
0.0222222222222222
 40
0.0444444444444444
 40
0.0444444444444444
 40
0.0444444444444444
 40
0.0444444444444444
 40
0.0666666666666667
 40
0.0666666666666667
 40
0.0666666666666667
 40
0.0666666666666667
 40
0.0888888888888889
 40
0.0888888888888889
 40
0.0888888888888889
 40
0.0888888888888889
 40
0.1111111111111111
 40
0.1111111111111111
 40
0.1111111111111111
 40
0.1111111111111111
 40
0.1333333333333333
 40
0.1333333333333333
 40
0.1333333333333333
 40
0.1333333333333333
 40
0.1555555555555556
 40
0.1555555555555556
 40
0.1555555555555556
 40
0.1555555555555556
 40
0.1777777777777778
 40
0.1777777777777778
 40
0.1777777777777778
 40
0.1777777777777778
 40
0.2
 40
0.2
 40
0.2
 40
0.2
 40
0.2222222222222222
 40
0.2222222222222222
 40
0.2222222222222222
 40
0.2222222222222222
 40
0.2444444444444444
 40
0.2444444444444444
 40
0.2444444444444444
 40
0.2444444444444444
 40
0.2666666666666667
 40
0.2666666666666667
 40
0.2666666666666667
 40
0.2666666666666667
 40
0.2888888888888889
 40
0.2888888888888889
 40
0.2888888888888889
 40
0.2888888888888889
 40
0.3111111111111111
 40
0.3111111111111111
 40
0.3111111111111111
 40
0.3111111111111111
 40
0.3333333333333333
 40
0.3333333333333333
 40
0.3333333333333333
 40
0.3333333333333333
 40
0.3555555555555556
 40
0.3555555555555556
 40
0.3555555555555556
 40
0.3555555555555556
 40
0.3777777777777778
 40
0.3777777777777778
 40
0.3777777777777778
 40
0.3777777777777778
 40
0.4
 40
0.4
 40
0.4
 40
0.4
 40
0.4222222222222222
 40
0.4222222222222222
 40
0.4222222222222222
 40
0.4222222222222222
 40
0.4444444444444444
 40
0.4444444444444444
 40
0.4444444444444444
 40
0.4444444444444444
 40
0.4666666666666667
 40
0.4666666666666667
 40
0.4666666666666667
 40
0.4666666666666667
 40
0.4888888888888889
 40
0.4888888888888889
 40
0.4888888888888889
 40
0.4888888888888889
 40
0.5111111111111111
 40
0.5111111111111111
 40
0.5111111111111111
 40
0.5111111111111111
 40
0.5333333333333333
 40
0.5333333333333333
 40
0.5333333333333333
 40
0.5333333333333333
 40
0.5555555555555556
 40
0.5555555555555556
 40
0.5555555555555556
 40
0.5555555555555556
 40
0.5777777777777777
 40
0.5777777777777777
 40
0.5777777777777777
 40
0.5777777777777777
 40
0.6
 40
0.6
 40
0.6
 40
0.6
 40
0.6222222222222222
 40
0.6222222222222222
 40
0.6222222222222222
 40
0.6222222222222222
 40
0.6444444444444445
 40
0.6444444444444445
 40
0.6444444444444445
 40
0.6444444444444445
 40
0.6666666666666666
 40
0.6666666666666666
 40
0.6666666666666666
 40
0.6666666666666666
 40
0.6888888888888889
 40
0.6888888888888889
 40
0.6888888888888889
 40
0.6888888888888889
 40
0.7111111111111111
 40
0.7111111111111111
 40
0.7111111111111111
 40
0.7111111111111111
 40
0.7333333333333333
 40
0.7333333333333333
 40
0.7333333333333333
 40
0.7333333333333333
 40
0.7555555555555555
 40
0.7555555555555555
 40
0.7555555555555555
 40
0.7555555555555555
 40
0.7777777777777778
 40
0.7777777777777778
 40
0.7777777777777778
 40
0.7777777777777778
 40
0.8
 40
0.8
 40
0.8
 40
0.8
 40
0.8222222222222222
 40
0.8222222222222222
 40
0.8222222222222222
 40
0.8222222222222222
 40
0.8444444444444444
 40
0.8444444444444444
 40
0.8444444444444444
 40
0.8444444444444444
 40
0.8666666666666667
 40
0.8666666666666667
 40
0.8666666666666667
 40
0.8666666666666667
 40
0.8888888888888888
 40
0.8888888888888888
 40
0.8888888888888888
 40
0.8888888888888888
 40
0.9111111111111111
 40
0.9111111111111111
 40
0.9111111111111111
 40
0.9111111111111111
 40
0.9333333333333333
 40
0.9333333333333333
 40
0.9333333333333333
 40
0.9333333333333333
 40
0.9555555555555556
 40
0.9555555555555556
 40
0.9555555555555556
 40
0.9555555555555556
 40
1.0
 40
1.0
 40
1.0
 40
1.0
 10
-1.33762
 20
-8.77492
 30
0.0
 10
-1.60273
 20
-8.80113
 30
0.0
 10
-1.9725
 20
-8.6573
 30
0.0
 10
-2.1939
 20
-8.52941
 30
0.0
 10
-2.1939
 20
-8.52941
 30
0.0
 10
-2.19168
 20
-8.49818
 30
0.0
 10
-2.18609
 20
-8.46737
 30
0.0
 10
-2.17803
 20
-8.43685
 30
0.0
 10
-2.17803
 20
-8.43685
 30
0.0
 10
-2.17803
 20
-8.43685
 30
0.0
 10
-1.81634
 20
-7.68705
 30
0.0
 10
-1.81634
 20
-7.68705
 30
0.0
 10
-1.81634
 20
-7.68705
 30
0.0
 10
-1.81634
 20
-7.68705
 30
0.0
 10
-2.19717
 20
-7.50338
 30
0.0
 10
-2.19717
 20
-7.50338
 30
0.0
 10
-2.19717
 20
-7.50338
 30
0.0
 10
-2.19717
 20
-7.50338
 30
0.0
 10
-2.63729
 20
-8.41575
 30
0.0
 10
-2.63729
 20
-8.41575
 30
0.0
 10
-2.63729
 20
-8.41575
 30
0.0
 10
-3.15161
 20
-8.18424
 30
0.0
 10
-3.34324
 20
-7.77503
 30
0.0
 10
-3.67362
 20
-7.50271
 30
0.0
 10
-3.67362
 20
-7.50271
 30
0.0
 10
-4.37705
 20
-6.92292
 30
0.0
 10
-5.22573
 20
-6.52415
 30
0.0
 10
-6.12479
 20
-6.453
 30
0.0
 10
-6.12479
 20
-6.453
 30
0.0
 10
-7.12685
 20
-6.26153
 30
0.0
 10
-7.95029
 20
-6.77168
 30
0.0
 10
-9.1795
 20
-6.64198
 30
0.0
 10
-9.1795
 20
-6.64198
 30
0.0
 10
-10.0783
 20
-6.54709
 30
0.0
 10
-10.91563
 20
-6.18764
 30
0.0
 10
-11.92982
 20
-5.47931
 30
0.0
 10
-11.92982
 20
-5.47931
 30
0.0
 10
-12.33848
 20
-5.19389
 30
0.0
 10
-12.87351
 20
-4.95022
 30
0.0
 10
-12.61601
 20
-4.41982
 30
0.0
 10
-12.61601
 20
-4.41982
 30
0.0
 10
-12.3125
 20
-4.49448
 30
0.0
 10
-12.01151
 20
-4.56856
 30
0.0
 10
-11.70865
 20
-4.64308
 30
0.0
 10
-11.70865
 20
-4.64308
 30
0.0
 10
-11.67493
 20
-4.50592
 30
0.0
 10
-11.64417
 20
-4.38099
 30
0.0
 10
-11.60766
 20
-4.23253
 30
0.0
 10
-11.60766
 20
-4.23253
 30
0.0
 10
-11.60766
 20
-4.23253
 30
0.0
 10
-12.4901
 20
-4.01538
 30
0.0
 10
-12.4901
 20
-4.01538
 30
0.0
 10
-12.4901
 20
-4.01538
 30
0.0
 10
-12.4901
 20
-4.01538
 30
0.0
 10
-12.49024
 20
-4.01529
 30
0.0
 10
-12.49024
 20
-4.01529
 30
0.0
 10
-12.49024
 20
-4.01529
 30
0.0
 10
-12.4894
 20
-3.76217
 30
0.0
 10
-12.36678
 20
-3.48539
 30
0.0
 10
-12.24782
 20
-3.27011
 30
0.0
 10
-12.24782
 20
-3.27011
 30
0.0
 10
-12.24782
 20
-3.27011
 30
0.0
 10
-11.59282
 20
-3.79784
 30
0.0
 10
-11.59282
 20
-3.79784
 30
0.0
 10
-11.59282
 20
-3.79784
 30
0.0
 10
-11.59282
 20
-3.79784
 30
0.0
 10
-11.29772
 20
-3.51306
 30
0.0
 10
-11.29772
 20
-3.51306
 30
0.0
 10
-11.29772
 20
-3.51306
 30
0.0
 10
-11.29772
 20
-3.51306
 30
0.0
 10
-10.42809
 20
-4.28553
 30
0.0
 10
-10.42809
 20
-4.28553
 30
0.0
 10
-10.42809
 20
-4.28553
 30
0.0
 10
-10.42809
 20
-4.28553
 30
0.0
 10
-10.71168
 20
-4.6324
 30
0.0
 10
-10.71168
 20
-4.6324
 30
0.0
 10
-10.71168
 20
-4.6324
 30
0.0
 10
-10.71168
 20
-4.6324
 30
0.0
 10
-10.06545
 20
-5.21479
 30
0.0
 10
-10.06545
 20
-5.21479
 30
0.0
 10
-10.06545
 20
-5.21479
 30
0.0
 10
-10.06545
 20
-5.21479
 30
0.0
 10
-7.74223
 20
-5.17839
 30
0.0
 10
-7.74223
 20
-5.17839
 30
0.0
 10
-7.74223
 20
-5.17839
 30
0.0
 10
-7.74223
 20
-5.17839
 30
0.0
 10
-7.73386
 20
-4.75868
 30
0.0
 10
-7.73386
 20
-4.75868
 30
0.0
 10
-7.73386
 20
-4.75868
 30
0.0
 10
-7.72982
 20
-4.7029
 30
0.0
 10
-7.62428
 20
-4.68208
 30
0.0
 10
-7.55937
 20
-4.67928
 30
0.0
 10
-7.55937
 20
-4.67928
 30
0.0
 10
-7.55937
 20
-4.67928
 30
0.0
 10
-6.58254
 20
-4.68217
 30
0.0
 10
-6.58254
 20
-4.68217
 30
0.0
 10
-6.58254
 20
-4.68217
 30
0.0
 10
-6.58254
 20
-4.68217
 30
0.0
 10
-6.57577
 20
-5.09195
 30
0.0
 10
-6.57577
 20
-5.09195
 30
0.0
 10
-6.57577
 20
-5.09195
 30
0.0
 10
-5.21617
 20
-5.07166
 30
0.0
 10
-4.76287
 20
-4.98844
 30
0.0
 10
-4.10886
 20
-5.55853
 30
0.0
 10
-4.10886
 20
-5.55853
 30
0.0
 10
-4.10886
 20
-5.55853
 30
0.0
 10
-3.85547
 20
-5.1745
 30
0.0
 10
-3.85547
 20
-5.1745
 30
0.0
 10
-3.85547
 20
-5.1745
 30
0.0
 10
-3.85547
 20
-5.1745
 30
0.0
 10
-2.8783
 20
-5.8238
 30
0.0
 10
-2.8783
 20
-5.8238
 30
0.0
 10
-2.8783
 20
-5.8238
 30
0.0
 10
-2.8783
 20
-5.8238
 30
0.0
 10
-3.0756
 20
-6.17331
 30
0.0
 10
-3.0756
 20
-6.17331
 30
0.0
 10
-3.0756
 20
-6.17331
 30
0.0
 10
-3.0756
 20
-6.17331
 30
0.0
 10
-2.2293
 20
-6.81175
 30
0.0
 10
-2.2293
 20
-6.81175
 30
0.0
 10
-2.2293
 20
-6.81175
 30
0.0
 10
-2.2293
 20
-6.81175
 30
0.0
 10
-1.88054
 20
-6.53641
 30
0.0
 10
-1.88054
 20
-6.53641
 30
0.0
 10
-1.88054
 20
-6.53641
 30
0.0
 10
-0.59055
 20
-6.93756
 30
0.0
 10
0.88038
 20
-6.25201
 30
0.0
 10
1.54053
 20
-5.56777
 30
0.0
 10
1.54053
 20
-5.56777
 30
0.0
 10
2.37606
 20
-4.81879
 30
0.0
 10
2.46256
 20
-3.49535
 30
0.0
 10
3.44102
 20
-2.82754
 30
0.0
 10
3.44102
 20
-2.82754
 30
0.0
 10
4.22666
 20
-2.29135
 30
0.0
 10
5.28502
 20
-2.29378
 30
0.0
 10
6.12053
 20
-2.57517
 30
0.0
 10
6.12053
 20
-2.57517
 30
0.0
 10
7.06258
 20
-2.89231
 30
0.0
 10
7.85822
 20
-3.66223
 30
0.0
 10
8.12005
 20
-4.59086
 30
0.0
 10
8.12005
 20
-4.59086
 30
0.0
 10
8.43302
 20
-5.92493
 30
0.0
 10
7.78756
 20
-7.17527
 30
0.0
 10
6.38566
 20
-7.56364
 30
0.0
 10
6.38566
 20
-7.56364
 30
0.0
 10
6.09784
 20
-7.61756
 30
0.0
 10
5.53773
 20
-7.59427
 30
0.0
 10
5.12404
 20
-7.41534
 30
0.0
 10
5.12404
 20
-7.41534
 30
0.0
 10
4.53375
 20
-7.20897
 30
0.0
 10
4.35025
 20
-6.38651
 30
0.0
 10
5.1786
 20
-6.47819
 30
0.0
 10
5.1786
 20
-6.47819
 30
0.0
 10
5.60151
 20
-6.53123
 30
0.0
 10
6.07569
 20
-6.57844
 30
0.0
 10
6.27854
 20
-6.50727
 30
0.0
 10
6.27854
 20
-6.50727
 30
0.0
 10
7.58409
 20
-5.81797
 30
0.0
 10
7.23821
 20
-4.19213
 30
0.0
 10
6.06355
 20
-3.66987
 30
0.0
 10
6.06355
 20
-3.66987
 30
0.0
 10
5.31438
 20
-3.33674
 30
0.0
 10
4.435
 20
-3.54381
 30
0.0
 10
3.82066
 20
-4.32896
 30
0.0
 10
3.82066
 20
-4.32896
 30
0.0
 10
3.21889
 20
-5.07849
 30
0.0
 10
3.16668
 20
-5.88696
 30
0.0
 10
2.56006
 20
-6.58331
 30
0.0
 10
2.56006
 20
-6.58331
 30
0.0
 10
2.00252
 20
-7.22327
 30
0.0
 10
1.17864
 20
-7.77607
 30
0.0
 10
0.30769
 20
-8.0458
 30
0.0
 10
0.30769
 20
-8.0458
 30
0.0
 10
-0.22769
 20
-8.21152
 30
0.0
 10
-1.04379
 20
-8.06082
 30
0.0
 10
-1.33762
 20
-8.77492
 30
0.0
  0
SPLINE
  5
42
330
1F
100
AcDbEntity
  8
Livello 1
 62
   250
370
     5
100
AcDbSpline
210
0.0
220
0.0
230
1.0
 70
    11
 71
     3
 72
    32
 73
    28
 74
     0
 42
0.0000000001
 43
0.0000000001
 40
0.0
 40
0.0
 40
0.0
 40
0.0
 40
0.125
 40
0.125
 40
0.125
 40
0.125
 40
0.25
 40
0.25
 40
0.25
 40
0.25
 40
0.375
 40
0.375
 40
0.375
 40
0.375
 40
0.5
 40
0.5
 40
0.5
 40
0.5
 40
0.625
 40
0.625
 40
0.625
 40
0.625
 40
0.75
 40
0.75
 40
0.75
 40
0.75
 40
1.0
 40
1.0
 40
1.0
 40
1.0
 10
6.73398
 20
7.65886
 30
0.0
 10
7.68625
 20
8.37907
 30
0.0
 10
9.02599
 20
8.90525
 30
0.0
 10
10.13231
 20
8.23715
 30
0.0
 10
10.13231
 20
8.23715
 30
0.0
 10
10.72617
 20
7.87848
 30
0.0
 10
11.78143
 20
6.78711
 30
0.0
 10
12.45927
 20
5.90854
 30
0.0
 10
12.45927
 20
5.90854
 30
0.0
 10
12.89055
 20
5.34955
 30
0.0
 10
13.34107
 20
4.76408
 30
0.0
 10
13.43261
 20
4.18662
 30
0.0
 10
13.43261
 20
4.18662
 30
0.0
 10
13.51028
 20
3.69675
 30
0.0
 10
13.40135
 20
3.32711
 30
0.0
 10
13.04852
 20
3.07406
 30
0.0
 10
13.04852
 20
3.07406
 30
0.0
 10
12.10735
 20
2.39912
 30
0.0
 10
10.45796
 20
2.91213
 30
0.0
 10
9.66755
 20
3.72185
 30
0.0
 10
9.66755
 20
3.72185
 30
0.0
 10
8.78833
 20
3.05175
 30
0.0
 10
6.67489
 20
2.94249
 30
0.0
 10
5.55238
 20
3.89952
 30
0.0
 10
5.55238
 20
3.89952
 30
0.0
 10
4.33095
 20
4.91364
 30
0.0
 10
5.40378
 20
6.75932
 30
0.0
 10
6.73398
 20
7.65886
 30
0.0
  0
SPLINE
  5
43
330
1F
100
AcDbEntity
  8
Livello 1
 62
   250
370
     5
100
AcDbSpline
210
0.0
220
0.0
230
1.0
 70
    11
 71
     3
 72
    20
 73
    16
 74
     0
 42
0.0000000001
 43
0.0000000001
 40
0.0
 40
0.0
 40
0.0
 40
0.0
 40
0.2
 40
0.2
 40
0.2
 40
0.2
 40
0.4
 40
0.4
 40
0.4
 40
0.4
 40
0.6
 40
0.6
 40
0.6
 40
0.6
 40
1.0
 40
1.0
 40
1.0
 40
1.0
 10
5.57662
 20
5.3342
 30
0.0
 10
5.57662
 20
5.3342
 30
0.0
 10
5.42448
 20
4.93974
 30
0.0
 10
5.42448
 20
4.93974
 30
0.0
 10
5.42448
 20
4.93974
 30
0.0
 10
5.42448
 20
4.93974
 30
0.0
 10
8.32346
 20
3.82148
 30
0.0
 10
8.32346
 20
3.82148
 30
0.0
 10
8.32346
 20
3.82148
 30
0.0
 10
8.32346
 20
3.82148
 30
0.0
 10
8.47562
 20
4.21594
 30
0.0
 10
8.47562
 20
4.21594
 30
0.0
 10
8.47562
 20
4.21594
 30
0.0
 10
8.47562
 20
4.21594
 30
0.0
 10
5.57662
 20
5.3342
 30
0.0
 10
5.57662
 20
5.3342
 30
0.0
  0
SPLINE
  5
44
330
1F
100
AcDbEntity
  8
Livello 1
 62
   250
370
     9
100
AcDbSpline
210
0.0
220
0.0
230
1.0
 70
    11
 71
     3
 72
    64
 73
    60
 74
     0
 42
0.0000000001
 43
0.0000000001
 40
0.0
 40
0.0
 40
0.0
 40
0.0
 40
0.0625
 40
0.0625
 40
0.0625
 40
0.0625
 40
0.125
 40
0.125
 40
0.125
 40
0.125
 40
0.1875
 40
0.1875
 40
0.1875
 40
0.1875
 40
0.25
 40
0.25
 40
0.25
 40
0.25
 40
0.3125
 40
0.3125
 40
0.3125
 40
0.3125
 40
0.375
 40
0.375
 40
0.375
 40
0.375
 40
0.4375
 40
0.4375
 40
0.4375
 40
0.4375
 40
0.5
 40
0.5
 40
0.5
 40
0.5
 40
0.5625
 40
0.5625
 40
0.5625
 40
0.5625
 40
0.625
 40
0.625
 40
0.625
 40
0.625
 40
0.6875
 40
0.6875
 40
0.6875
 40
0.6875
 40
0.75
 40
0.75
 40
0.75
 40
0.75
 40
0.8125
 40
0.8125
 40
0.8125
 40
0.8125
 40
0.875
 40
0.875
 40
0.875
 40
0.875
 40
1.0
 40
1.0
 40
1.0
 40
1.0
 10
9.24296
 20
5.65313
 30
0.0
 10
9.24296
 20
5.65313
 30
0.0
 10
9.4034
 20
5.88131
 30
0.0
 10
9.4034
 20
5.88131
 30
0.0
 10
9.4034
 20
5.88131
 30
0.0
 10
9.4034
 20
5.88131
 30
0.0
 10
9.25495
 20
6.09213
 30
0.0
 10
9.25495
 20
6.09213
 30
0.0
 10
9.25495
 20
6.09213
 30
0.0
 10
9.25495
 20
6.09213
 30
0.0
 10
9.34795
 20
6.09213
 30
0.0
 10
9.34795
 20
6.09213
 30
0.0
 10
9.34795
 20
6.09213
 30
0.0
 10
9.34795
 20
6.09213
 30
0.0
 10
9.4154
 20
5.98926
 30
0.0
 10
9.4154
 20
5.98926
 30
0.0
 10
9.4154
 20
5.98926
 30
0.0
 10
9.42796
 20
5.96964
 30
0.0
 10
9.43826
 20
5.95327
 30
0.0
 10
9.44588
 20
5.94001
 30
0.0
 10
9.44588
 20
5.94001
 30
0.0
 10
9.45801
 20
5.95821
 30
0.0
 10
9.46916
 20
5.9743
 30
0.0
 10
9.47946
 20
5.98841
 30
0.0
 10
9.47946
 20
5.98841
 30
0.0
 10
9.47946
 20
5.98841
 30
0.0
 10
9.5534
 20
6.09213
 30
0.0
 10
9.5534
 20
6.09213
 30
0.0
 10
9.5534
 20
6.09213
 30
0.0
 10
9.5534
 20
6.09213
 30
0.0
 10
9.6423
 20
6.09213
 30
0.0
 10
9.6423
 20
6.09213
 30
0.0
 10
9.6423
 20
6.09213
 30
0.0
 10
9.6423
 20
6.09213
 30
0.0
 10
9.49061
 20
5.8854
 30
0.0
 10
9.49061
 20
5.8854
 30
0.0
 10
9.49061
 20
5.8854
 30
0.0
 10
9.49061
 20
5.8854
 30
0.0
 10
9.65388
 20
5.65313
 30
0.0
 10
9.65388
 20
5.65313
 30
0.0
 10
9.65388
 20
5.65313
 30
0.0
 10
9.65388
 20
5.65313
 30
0.0
 10
9.56258
 20
5.65313
 30
0.0
 10
9.56258
 20
5.65313
 30
0.0
 10
9.56258
 20
5.65313
 30
0.0
 10
9.56258
 20
5.65313
 30
0.0
 10
9.47241
 20
5.78958
 30
0.0
 10
9.47241
 20
5.78958
 30
0.0
 10
9.47241
 20
5.78958
 30
0.0
 10
9.47241
 20
5.78958
 30
0.0
 10
9.44842
 20
5.82642
 30
0.0
 10
9.44842
 20
5.82642
 30
0.0
 10
9.44842
 20
5.82642
 30
0.0
 10
9.44842
 20
5.82642
 30
0.0
 10
9.33313
 20
5.65313
 30
0.0
 10
9.33313
 20
5.65313
 30
0.0
 10
9.33313
 20
5.65313
 30
0.0
 10
9.33313
 20
5.65313
 30
0.0
 10
9.24296
 20
5.65313
 30
0.0
 10
9.24296
 20
5.65313
 30
0.0
  0
SPLINE
  5
45
330
1F
100
AcDbEntity
  8
Livello 1
 62
   250
370
     9
100
AcDbSpline
210
0.0
220
0.0
230
1.0
 70
    11
 71
     3
 72
    92
 73
    88
 74
     0
 42
0.0000000001
 43
0.0000000001
 40
0.0
 40
0.0
 40
0.0
 40
0.0
 40
0.0434782608695652
 40
0.0434782608695652
 40
0.0434782608695652
 40
0.0434782608695652
 40
0.0869565217391304
 40
0.0869565217391304
 40
0.0869565217391304
 40
0.0869565217391304
 40
0.1304347826086956
 40
0.1304347826086956
 40
0.1304347826086956
 40
0.1304347826086956
 40
0.1739130434782609
 40
0.1739130434782609
 40
0.1739130434782609
 40
0.1739130434782609
 40
0.2173913043478261
 40
0.2173913043478261
 40
0.2173913043478261
 40
0.2173913043478261
 40
0.2608695652173913
 40
0.2608695652173913
 40
0.2608695652173913
 40
0.2608695652173913
 40
0.3043478260869565
 40
0.3043478260869565
 40
0.3043478260869565
 40
0.3043478260869565
 40
0.3478260869565217
 40
0.3478260869565217
 40
0.3478260869565217
 40
0.3478260869565217
 40
0.391304347826087
 40
0.391304347826087
 40
0.391304347826087
 40
0.391304347826087
 40
0.4347826086956522
 40
0.4347826086956522
 40
0.4347826086956522
 40
0.4347826086956522
 40
0.4782608695652174
 40
0.4782608695652174
 40
0.4782608695652174
 40
0.4782608695652174
 40
0.5217391304347826
 40
0.5217391304347826
 40
0.5217391304347826
 40
0.5217391304347826
 40
0.5652173913043478
 40
0.5652173913043478
 40
0.5652173913043478
 40
0.5652173913043478
 40
0.6086956521739131
 40
0.6086956521739131
 40
0.6086956521739131
 40
0.6086956521739131
 40
0.6521739130434783
 40
0.6521739130434783
 40
0.6521739130434783
 40
0.6521739130434783
 40
0.6956521739130435
 40
0.6956521739130435
 40
0.6956521739130435
 40
0.6956521739130435
 40
0.7391304347826086
 40
0.7391304347826086
 40
0.7391304347826086
 40
0.7391304347826086
 40
0.782608695652174
 40
0.782608695652174
 40
0.782608695652174
 40
0.782608695652174
 40
0.8260869565217391
 40
0.8260869565217391
 40
0.8260869565217391
 40
0.8260869565217391
 40
0.8695652173913043
 40
0.8695652173913043
 40
0.8695652173913043
 40
0.8695652173913043
 40
0.9130434782608695
 40
0.9130434782608695
 40
0.9130434782608695
 40
0.9130434782608695
 40
1.0
 40
1.0
 40
1.0
 40
1.0
 10
10.08639
 20
5.72467
 30
0.0
 10
10.08639
 20
5.72467
 30
0.0
 10
10.08639
 20
5.65313
 30
0.0
 10
10.08639
 20
5.65313
 30
0.0
 10
10.08639
 20
5.65313
 30
0.0
 10
10.08639
 20
5.65313
 30
0.0
 10
9.68577
 20
5.65313
 30
0.0
 10
9.68577
 20
5.65313
 30
0.0
 10
9.68577
 20
5.65313
 30
0.0
 10
9.68521
 20
5.67105
 30
0.0
 10
9.68803
 20
5.68827
 30
0.0
 10
9.69438
 20
5.70478
 30
0.0
 10
9.69438
 20
5.70478
 30
0.0
 10
9.70454
 20
5.73215
 30
0.0
 10
9.72091
 20
5.75896
 30
0.0
 10
9.74335
 20
5.78549
 30
0.0
 10
9.74335
 20
5.78549
 30
0.0
 10
9.76592
 20
5.81188
 30
0.0
 10
9.79838
 20
5.8425
 30
0.0
 10
9.84071
 20
5.87722
 30
0.0
 10
9.84071
 20
5.87722
 30
0.0
 10
9.90661
 20
5.93126
 30
0.0
 10
9.9512
 20
5.97402
 30
0.0
 10
9.97435
 20
6.00563
 30
0.0
 10
9.97435
 20
6.00563
 30
0.0
 10
9.99749
 20
6.03709
 30
0.0
 10
10.00906
 20
6.06701
 30
0.0
 10
10.00906
 20
6.09509
 30
0.0
 10
10.00906
 20
6.09509
 30
0.0
 10
10.00906
 20
6.12458
 30
0.0
 10
9.99848
 20
6.14942
 30
0.0
 10
9.97745
 20
6.16974
 30
0.0
 10
9.97745
 20
6.16974
 30
0.0
 10
9.95628
 20
6.18992
 30
0.0
 10
9.92877
 20
6.20008
 30
0.0
 10
9.8949
 20
6.20008
 30
0.0
 10
9.8949
 20
6.20008
 30
0.0
 10
9.85906
 20
6.20008
 30
0.0
 10
9.83041
 20
6.18935
 30
0.0
 10
9.80896
 20
6.16776
 30
0.0
 10
9.80896
 20
6.16776
 30
0.0
 10
9.78737
 20
6.14632
 30
0.0
 10
9.77651
 20
6.11654
 30
0.0
 10
9.77622
 20
6.07858
 30
0.0
 10
9.77622
 20
6.07858
 30
0.0
 10
9.77622
 20
6.07858
 30
0.0
 10
9.69974
 20
6.08634
 30
0.0
 10
9.69974
 20
6.08634
 30
0.0
 10
9.69974
 20
6.08634
 30
0.0
 10
9.70496
 20
6.14349
 30
0.0
 10
9.72472
 20
6.18696
 30
0.0
 10
9.75887
 20
6.21687
 30
0.0
 10
9.75887
 20
6.21687
 30
0.0
 10
9.79302
 20
6.24679
 30
0.0
 10
9.83902
 20
6.26174
 30
0.0
 10
9.89659
 20
6.26174
 30
0.0
 10
9.89659
 20
6.26174
 30
0.0
 10
9.95473
 20
6.26174
 30
0.0
 10
10.00073
 20
6.24552
 30
0.0
 10
10.0346
 20
6.21334
 30
0.0
 10
10.0346
 20
6.21334
 30
0.0
 10
10.06861
 20
6.18103
 30
0.0
 10
10.08554
 20
6.14109
 30
0.0
 10
10.08554
 20
6.0934
 30
0.0
 10
10.08554
 20
6.0934
 30
0.0
 10
10.08554
 20
6.06913
 30
0.0
 10
10.0806
 20
6.04528
 30
0.0
 10
10.07058
 20
6.02185
 30
0.0
 10
10.07058
 20
6.02185
 30
0.0
 10
10.06071
 20
5.99843
 30
0.0
 10
10.0442
 20
5.97374
 30
0.0
 10
10.02119
 20
5.94791
 30
0.0
 10
10.02119
 20
5.94791
 30
0.0
 10
9.99819
 20
5.92195
 30
0.0
 10
9.95995
 20
5.88639
 30
0.0
 10
9.90647
 20
5.84123
 30
0.0
 10
9.90647
 20
5.84123
 30
0.0
 10
9.86188
 20
5.8037
 30
0.0
 10
9.83323
 20
5.7783
 30
0.0
 10
9.82053
 20
5.76489
 30
0.0
 10
9.82053
 20
5.76489
 30
0.0
 10
9.80783
 20
5.75163
 30
0.0
 10
9.79739
 20
5.73822
 30
0.0
 10
9.78907
 20
5.72467
 30
0.0
 10
9.78907
 20
5.72467
 30
0.0
 10
9.78907
 20
5.72467
 30
0.0
 10
10.08639
 20
5.72467
 30
0.0
 10
10.08639
 20
5.72467
 30
0.0
  0
SPLINE
  5
46
330
1F
100
AcDbEntity
  8
Livello 1
 62
   250
370
     5
100
AcDbSpline
210
0.0
220
0.0
230
1.0
 70
    11
 71
     3
 72
   112
 73
   108
 74
     0
 42
0.0000000001
 43
0.0000000001
 40
0.0
 40
0.0
 40
0.0
 40
0.0
 40
0.0357142857142857
 40
0.0357142857142857
 40
0.0357142857142857
 40
0.0357142857142857
 40
0.0714285714285714
 40
0.0714285714285714
 40
0.0714285714285714
 40
0.0714285714285714
 40
0.1071428571428571
 40
0.1071428571428571
 40
0.1071428571428571
 40
0.1071428571428571
 40
0.1428571428571428
 40
0.1428571428571428
 40
0.1428571428571428
 40
0.1428571428571428
 40
0.1785714285714286
 40
0.1785714285714286
 40
0.1785714285714286
 40
0.1785714285714286
 40
0.2142857142857143
 40
0.2142857142857143
 40
0.2142857142857143
 40
0.2142857142857143
 40
0.25
 40
0.25
 40
0.25
 40
0.25
 40
0.2857142857142857
 40
0.2857142857142857
 40
0.2857142857142857
 40
0.2857142857142857
 40
0.3214285714285715
 40
0.3214285714285715
 40
0.3214285714285715
 40
0.3214285714285715
 40
0.3571428571428572
 40
0.3571428571428572
 40
0.3571428571428572
 40
0.3571428571428572
 40
0.3928571428571428
 40
0.3928571428571428
 40
0.3928571428571428
 40
0.3928571428571428
 40
0.4285714285714285
 40
0.4285714285714285
 40
0.4285714285714285
 40
0.4285714285714285
 40
0.4642857142857143
 40
0.4642857142857143
 40
0.4642857142857143
 40
0.4642857142857143
 40
0.5
 40
0.5
 40
0.5
 40
0.5
 40
0.5357142857142857
 40
0.5357142857142857
 40
0.5357142857142857
 40
0.5357142857142857
 40
0.5714285714285714
 40
0.5714285714285714
 40
0.5714285714285714
 40
0.5714285714285714
 40
0.6071428571428571
 40
0.6071428571428571
 40
0.6071428571428571
 40
0.6071428571428571
 40
0.6428571428571429
 40
0.6428571428571429
 40
0.6428571428571429
 40
0.6428571428571429
 40
0.6785714285714286
 40
0.6785714285714286
 40
0.6785714285714286
 40
0.6785714285714286
 40
0.7142857142857143
 40
0.7142857142857143
 40
0.7142857142857143
 40
0.7142857142857143
 40
0.75
 40
0.75
 40
0.75
 40
0.75
 40
0.7857142857142857
 40
0.7857142857142857
 40
0.7857142857142857
 40
0.7857142857142857
 40
0.8214285714285714
 40
0.8214285714285714
 40
0.8214285714285714
 40
0.8214285714285714
 40
0.8571428571428571
 40
0.8571428571428571
 40
0.8571428571428571
 40
0.8571428571428571
 40
0.8928571428571429
 40
0.8928571428571429
 40
0.8928571428571429
 40
0.8928571428571429
 40
0.9285714285714286
 40
0.9285714285714286
 40
0.9285714285714286
 40
0.9285714285714286
 40
1.0
 40
1.0
 40
1.0
 40
1.0
 10
-13.00221
 20
4.80794
 30
0.0
 10
-13.02432
 20
5.2294
 30
0.0
 10
-12.60642
 20
5.8409
 30
0.0
 10
-12.23079
 20
6.09411
 30
0.0
 10
-12.23079
 20
6.09411
 30
0.0
 10
-12.23079
 20
6.09411
 30
0.0
 10
-12.10642
 20
5.77315
 30
0.0
 10
-12.10642
 20
5.77315
 30
0.0
 10
-12.10642
 20
5.77315
 30
0.0
 10
-12.10642
 20
5.77315
 30
0.0
 10
-11.82108
 20
5.88371
 30
0.0
 10
-11.82108
 20
5.88371
 30
0.0
 10
-11.82108
 20
5.88371
 30
0.0
 10
-11.82108
 20
5.88371
 30
0.0
 10
-11.69265
 20
5.5504
 30
0.0
 10
-11.69265
 20
5.5504
 30
0.0
 10
-11.69265
 20
5.5504
 30
0.0
 10
-11.56124
 20
5.6013
 30
0.0
 10
-11.42983
 20
5.65225
 30
0.0
 10
-11.29842
 20
5.70317
 30
0.0
 10
-11.29842
 20
5.70317
 30
0.0
 10
-11.29842
 20
5.70317
 30
0.0
 10
-11.85977
 20
7.1518
 30
0.0
 10
-11.85977
 20
7.1518
 30
0.0
 10
-11.85977
 20
7.1518
 30
0.0
 10
-11.85977
 20
7.1518
 30
0.0
 10
-11.8685
 20
7.14842
 30
0.0
 10
-11.8685
 20
7.14842
 30
0.0
 10
-11.8685
 20
7.14842
 30
0.0
 10
-11.8685
 20
7.14842
 30
0.0
 10
-12.11326
 20
7.83479
 30
0.0
 10
-12.11326
 20
7.83479
 30
0.0
 10
-12.11326
 20
7.83479
 30
0.0
 10
-11.95779
 20
8.14854
 30
0.0
 10
-11.74574
 20
8.39329
 30
0.0
 10
-11.47799
 20
8.64522
 30
0.0
 10
-11.47799
 20
8.64522
 30
0.0
 10
-9.78896
 20
10.08069
 30
0.0
 10
-7.89405
 20
8.62779
 30
0.0
 10
-6.82787
 20
6.69348
 30
0.0
 10
-6.82787
 20
6.69348
 30
0.0
 10
-6.82787
 20
6.69348
 30
0.0
 10
-7.93127
 20
5.90837
 30
0.0
 10
-7.93127
 20
5.90837
 30
0.0
 10
-7.93127
 20
5.90837
 30
0.0
 10
-7.93127
 20
5.90837
 30
0.0
 10
-7.68615
 20
5.56389
 30
0.0
 10
-7.68615
 20
5.56389
 30
0.0
 10
-7.68615
 20
5.56389
 30
0.0
 10
-7.68615
 20
5.56389
 30
0.0
 10
-6.65368
 20
6.29854
 30
0.0
 10
-6.65368
 20
6.29854
 30
0.0
 10
-6.65368
 20
6.29854
 30
0.0
 10
-6.64704
 20
6.30136
 30
0.0
 10
-6.64043
 20
6.30406
 30
0.0
 10
-6.63387
 20
6.30654
 30
0.0
 10
-6.63387
 20
6.30654
 30
0.0
 10
-6.18575
 20
5.38781
 30
0.0
 10
-4.98833
 20
4.09748
 30
0.0
 10
-4.83139
 20
3.1041
 30
0.0
 10
-4.83139
 20
3.1041
 30
0.0
 10
-4.83892
 20
2.02541
 30
0.0
 10
-6.2005
 20
2.44769
 30
0.0
 10
-6.80927
 20
2.82516
 30
0.0
 10
-6.80927
 20
2.82516
 30
0.0
 10
-7.52219
 20
3.26725
 30
0.0
 10
-8.15341
 20
4.04817
 30
0.0
 10
-8.74974
 20
4.5444
 30
0.0
 10
-8.74974
 20
4.5444
 30
0.0
 10
-8.88562
 20
4.64722
 30
0.0
 10
-9.05616
 20
4.76703
 30
0.0
 10
-9.22334
 20
4.69499
 30
0.0
 10
-9.22334
 20
4.69499
 30
0.0
 10
-9.50456
 20
4.54118
 30
0.0
 10
-9.60108
 20
4.05468
 30
0.0
 10
-10.1013
 20
3.78965
 30
0.0
 10
-10.1013
 20
3.78965
 30
0.0
 10
-10.17839
 20
3.74887
 30
0.0
 10
-10.38727
 20
3.75657
 30
0.0
 10
-10.47871
 20
3.72087
 30
0.0
 10
-10.47871
 20
3.72087
 30
0.0
 10
-10.95242
 20
3.45523
 30
0.0
 10
-11.32442
 20
2.98414
 30
0.0
 10
-11.78808
 20
3.5485
 30
0.0
 10
-11.78808
 20
3.5485
 30
0.0
 10
-11.768
 20
3.58421
 30
0.0
 10
-11.74346
 20
3.61695
 30
0.0
 10
-11.71599
 20
3.64767
 30
0.0
 10
-11.71599
 20
3.64767
 30
0.0
 10
-11.71599
 20
3.64767
 30
0.0
 10
-11.00741
 20
4.15185
 30
0.0
 10
-11.00741
 20
4.15185
 30
0.0
 10
-11.00741
 20
4.15185
 30
0.0
 10
-11.00741
 20
4.15185
 30
0.0
 10
-11.25253
 20
4.49634
 30
0.0
 10
-11.25253
 20
4.49634
 30
0.0
 10
-11.25253
 20
4.49634
 30
0.0
 10
-11.25253
 20
4.49634
 30
0.0
 10
-12.24433
 20
3.79064
 30
0.0
 10
-12.24433
 20
3.79064
 30
0.0
 10
-12.24433
 20
3.79064
 30
0.0
 10
-12.27047
 20
3.78551
 30
0.0
 10
-12.29687
 20
3.78283
 30
0.0
 10
-12.32362
 20
3.7832
 30
0.0
 10
-12.32362
 20
3.7832
 30
0.0
 10
-12.52066
 20
4.12118
 30
0.0
 10
-12.17693
 20
4.89709
 30
0.0
 10
-13.00221
 20
4.80794
 30
0.0
  0
SPLINE
  5
47
330
1F
100
AcDbEntity
  8
Livello 1
 62
   250
370
     5
100
AcDbSpline
210
0.0
220
0.0
230
1.0
 70
    11
 71
     3
 72
    20
 73
    16
 74
     0
 42
0.0000000001
 43
0.0000000001
 40
0.0
 40
0.0
 40
0.0
 40
0.0
 40
0.2
 40
0.2
 40
0.2
 40
0.2
 40
0.4
 40
0.4
 40
0.4
 40
0.4
 40
0.6
 40
0.6
 40
0.6
 40
0.6
 40
1.0
 40
1.0
 40
1.0
 40
1.0
 10
-10.13859
 20
8.55819
 30
0.0
 10
-10.13859
 20
8.55819
 30
0.0
 10
-9.71581
 20
8.55636
 30
0.0
 10
-9.71581
 20
8.55636
 30
0.0
 10
-9.71581
 20
8.55636
 30
0.0
 10
-9.71581
 20
8.55636
 30
0.0
 10
-9.72823
 20
5.87204
 30
0.0
 10
-9.72823
 20
5.87204
 30
0.0
 10
-9.72823
 20
5.87204
 30
0.0
 10
-9.72823
 20
5.87204
 30
0.0
 10
-10.151
 20
5.87387
 30
0.0
 10
-10.151
 20
5.87387
 30
0.0
 10
-10.151
 20
5.87387
 30
0.0
 10
-10.151
 20
5.87387
 30
0.0
 10
-10.13859
 20
8.55819
 30
0.0
 10
-10.13859
 20
8.55819
 30
0.0
  0
SPLINE
  5
48
330
1F
100
AcDbEntity
  8
Livello 1
 62
   250
370
     9
100
AcDbSpline
210
0.0
220
0.0
230
1.0
 70
    11
 71
     3
 72
    64
 73
    60
 74
     0
 42
0.0000000001
 43
0.0000000001
 40
0.0
 40
0.0
 40
0.0
 40
0.0
 40
0.0625
 40
0.0625
 40
0.0625
 40
0.0625
 40
0.125
 40
0.125
 40
0.125
 40
0.125
 40
0.1875
 40
0.1875
 40
0.1875
 40
0.1875
 40
0.25
 40
0.25
 40
0.25
 40
0.25
 40
0.3125
 40
0.3125
 40
0.3125
 40
0.3125
 40
0.375
 40
0.375
 40
0.375
 40
0.375
 40
0.4375
 40
0.4375
 40
0.4375
 40
0.4375
 40
0.5
 40
0.5
 40
0.5
 40
0.5
 40
0.5625
 40
0.5625
 40
0.5625
 40
0.5625
 40
0.625
 40
0.625
 40
0.625
 40
0.625
 40
0.6875
 40
0.6875
 40
0.6875
 40
0.6875
 40
0.75
 40
0.75
 40
0.75
 40
0.75
 40
0.8125
 40
0.8125
 40
0.8125
 40
0.8125
 40
0.875
 40
0.875
 40
0.875
 40
0.875
 40
1.0
 40
1.0
 40
1.0
 40
1.0
 10
-9.23363
 20
6.72024
 30
0.0
 10
-9.23363
 20
6.72024
 30
0.0
 10
-9.07319
 20
6.94842
 30
0.0
 10
-9.07319
 20
6.94842
 30
0.0
 10
-9.07319
 20
6.94842
 30
0.0
 10
-9.07319
 20
6.94842
 30
0.0
 10
-9.22164
 20
7.15924
 30
0.0
 10
-9.22164
 20
7.15924
 30
0.0
 10
-9.22164
 20
7.15924
 30
0.0
 10
-9.22164
 20
7.15924
 30
0.0
 10
-9.12864
 20
7.15924
 30
0.0
 10
-9.12864
 20
7.15924
 30
0.0
 10
-9.12864
 20
7.15924
 30
0.0
 10
-9.12864
 20
7.15924
 30
0.0
 10
-9.06119
 20
7.05637
 30
0.0
 10
-9.06119
 20
7.05637
 30
0.0
 10
-9.06119
 20
7.05637
 30
0.0
 10
-9.04863
 20
7.03675
 30
0.0
 10
-9.03833
 20
7.02038
 30
0.0
 10
-9.03071
 20
7.00712
 30
0.0
 10
-9.03071
 20
7.00712
 30
0.0
 10
-9.01858
 20
7.02532
 30
0.0
 10
-9.00743
 20
7.04141
 30
0.0
 10
-8.99713
 20
7.05552
 30
0.0
 10
-8.99713
 20
7.05552
 30
0.0
 10
-8.99713
 20
7.05552
 30
0.0
 10
-8.92319
 20
7.15924
 30
0.0
 10
-8.92319
 20
7.15924
 30
0.0
 10
-8.92319
 20
7.15924
 30
0.0
 10
-8.92319
 20
7.15924
 30
0.0
 10
-8.83429
 20
7.15924
 30
0.0
 10
-8.83429
 20
7.15924
 30
0.0
 10
-8.83429
 20
7.15924
 30
0.0
 10
-8.83429
 20
7.15924
 30
0.0
 10
-8.98598
 20
6.95251
 30
0.0
 10
-8.98598
 20
6.95251
 30
0.0
 10
-8.98598
 20
6.95251
 30
0.0
 10
-8.98598
 20
6.95251
 30
0.0
 10
-8.82271
 20
6.72024
 30
0.0
 10
-8.82271
 20
6.72024
 30
0.0
 10
-8.82271
 20
6.72024
 30
0.0
 10
-8.82271
 20
6.72024
 30
0.0
 10
-8.91401
 20
6.72024
 30
0.0
 10
-8.91401
 20
6.72024
 30
0.0
 10
-8.91401
 20
6.72024
 30
0.0
 10
-8.91401
 20
6.72024
 30
0.0
 10
-9.00418
 20
6.85669
 30
0.0
 10
-9.00418
 20
6.85669
 30
0.0
 10
-9.00418
 20
6.85669
 30
0.0
 10
-9.00418
 20
6.85669
 30
0.0
 10
-9.02817
 20
6.89353
 30
0.0
 10
-9.02817
 20
6.89353
 30
0.0
 10
-9.02817
 20
6.89353
 30
0.0
 10
-9.02817
 20
6.89353
 30
0.0
 10
-9.14346
 20
6.72024
 30
0.0
 10
-9.14346
 20
6.72024
 30
0.0
 10
-9.14346
 20
6.72024
 30
0.0
 10
-9.14346
 20
6.72024
 30
0.0
 10
-9.23363
 20
6.72024
 30
0.0
 10
-9.23363
 20
6.72024
 30
0.0
  0
SPLINE
  5
49
330
1F
100
AcDbEntity
  8
Livello 1
 62
   250
370
     9
100
AcDbSpline
210
0.0
220
0.0
230
1.0
 70
    11
 71
     3
 72
    92
 73
    88
 74
     0
 42
0.0000000001
 43
0.0000000001
 40
0.0
 40
0.0
 40
0.0
 40
0.0
 40
0.0434782608695652
 40
0.0434782608695652
 40
0.0434782608695652
 40
0.0434782608695652
 40
0.0869565217391304
 40
0.0869565217391304
 40
0.0869565217391304
 40
0.0869565217391304
 40
0.1304347826086956
 40
0.1304347826086956
 40
0.1304347826086956
 40
0.1304347826086956
 40
0.1739130434782609
 40
0.1739130434782609
 40
0.1739130434782609
 40
0.1739130434782609
 40
0.2173913043478261
 40
0.2173913043478261
 40
0.2173913043478261
 40
0.2173913043478261
 40
0.2608695652173913
 40
0.2608695652173913
 40
0.2608695652173913
 40
0.2608695652173913
 40
0.3043478260869565
 40
0.3043478260869565
 40
0.3043478260869565
 40
0.3043478260869565
 40
0.3478260869565217
 40
0.3478260869565217
 40
0.3478260869565217
 40
0.3478260869565217
 40
0.391304347826087
 40
0.391304347826087
 40
0.391304347826087
 40
0.391304347826087
 40
0.4347826086956522
 40
0.4347826086956522
 40
0.4347826086956522
 40
0.4347826086956522
 40
0.4782608695652174
 40
0.4782608695652174
 40
0.4782608695652174
 40
0.4782608695652174
 40
0.5217391304347826
 40
0.5217391304347826
 40
0.5217391304347826
 40
0.5217391304347826
 40
0.5652173913043478
 40
0.5652173913043478
 40
0.5652173913043478
 40
0.5652173913043478
 40
0.6086956521739131
 40
0.6086956521739131
 40
0.6086956521739131
 40
0.6086956521739131
 40
0.6521739130434783
 40
0.6521739130434783
 40
0.6521739130434783
 40
0.6521739130434783
 40
0.6956521739130435
 40
0.6956521739130435
 40
0.6956521739130435
 40
0.6956521739130435
 40
0.7391304347826086
 40
0.7391304347826086
 40
0.7391304347826086
 40
0.7391304347826086
 40
0.782608695652174
 40
0.782608695652174
 40
0.782608695652174
 40
0.782608695652174
 40
0.8260869565217391
 40
0.8260869565217391
 40
0.8260869565217391
 40
0.8260869565217391
 40
0.8695652173913043
 40
0.8695652173913043
 40
0.8695652173913043
 40
0.8695652173913043
 40
0.9130434782608695
 40
0.9130434782608695
 40
0.9130434782608695
 40
0.9130434782608695
 40
1.0
 40
1.0
 40
1.0
 40
1.0
 10
-8.3902
 20
6.79178
 30
0.0
 10
-8.3902
 20
6.79178
 30
0.0
 10
-8.3902
 20
6.72024
 30
0.0
 10
-8.3902
 20
6.72024
 30
0.0
 10
-8.3902
 20
6.72024
 30
0.0
 10
-8.3902
 20
6.72024
 30
0.0
 10
-8.79082
 20
6.72024
 30
0.0
 10
-8.79082
 20
6.72024
 30
0.0
 10
-8.79082
 20
6.72024
 30
0.0
 10
-8.79138
 20
6.73816
 30
0.0
 10
-8.78856
 20
6.75538
 30
0.0
 10
-8.78221
 20
6.77189
 30
0.0
 10
-8.78221
 20
6.77189
 30
0.0
 10
-8.77205
 20
6.79926
 30
0.0
 10
-8.75568
 20
6.82607
 30
0.0
 10
-8.73324
 20
6.8526
 30
0.0
 10
-8.73324
 20
6.8526
 30
0.0
 10
-8.71067
 20
6.87899
 30
0.0
 10
-8.67821
 20
6.90961
 30
0.0
 10
-8.63588
 20
6.94433
 30
0.0
 10
-8.63588
 20
6.94433
 30
0.0
 10
-8.56998
 20
6.99837
 30
0.0
 10
-8.52539
 20
7.04113
 30
0.0
 10
-8.50224
 20
7.07274
 30
0.0
 10
-8.50224
 20
7.07274
 30
0.0
 10
-8.4791
 20
7.1042
 30
0.0
 10
-8.46753
 20
7.13412
 30
0.0
 10
-8.46753
 20
7.1622
 30
0.0
 10
-8.46753
 20
7.1622
 30
0.0
 10
-8.46753
 20
7.19169
 30
0.0
 10
-8.47811
 20
7.21653
 30
0.0
 10
-8.49914
 20
7.23685
 30
0.0
 10
-8.49914
 20
7.23685
 30
0.0
 10
-8.52031
 20
7.25703
 30
0.0
 10
-8.54782
 20
7.26719
 30
0.0
 10
-8.58169
 20
7.26719
 30
0.0
 10
-8.58169
 20
7.26719
 30
0.0
 10
-8.61753
 20
7.26719
 30
0.0
 10
-8.64618
 20
7.25646
 30
0.0
 10
-8.66763
 20
7.23487
 30
0.0
 10
-8.66763
 20
7.23487
 30
0.0
 10
-8.68922
 20
7.21343
 30
0.0
 10
-8.70008
 20
7.18365
 30
0.0
 10
-8.70037
 20
7.14569
 30
0.0
 10
-8.70037
 20
7.14569
 30
0.0
 10
-8.70037
 20
7.14569
 30
0.0
 10
-8.77685
 20
7.15345
 30
0.0
 10
-8.77685
 20
7.15345
 30
0.0
 10
-8.77685
 20
7.15345
 30
0.0
 10
-8.77163
 20
7.2106
 30
0.0
 10
-8.75187
 20
7.25407
 30
0.0
 10
-8.71772
 20
7.28398
 30
0.0
 10
-8.71772
 20
7.28398
 30
0.0
 10
-8.68357
 20
7.3139
 30
0.0
 10
-8.63757
 20
7.32885
 30
0.0
 10
-8.58
 20
7.32885
 30
0.0
 10
-8.58
 20
7.32885
 30
0.0
 10
-8.52186
 20
7.32885
 30
0.0
 10
-8.47586
 20
7.31263
 30
0.0
 10
-8.44199
 20
7.28045
 30
0.0
 10
-8.44199
 20
7.28045
 30
0.0
 10
-8.40798
 20
7.24814
 30
0.0
 10
-8.39105
 20
7.2082
 30
0.0
 10
-8.39105
 20
7.16051
 30
0.0
 10
-8.39105
 20
7.16051
 30
0.0
 10
-8.39105
 20
7.13624
 30
0.0
 10
-8.39599
 20
7.11239
 30
0.0
 10
-8.40601
 20
7.08896
 30
0.0
 10
-8.40601
 20
7.08896
 30
0.0
 10
-8.41588
 20
7.06554
 30
0.0
 10
-8.43239
 20
7.04085
 30
0.0
 10
-8.4554
 20
7.01502
 30
0.0
 10
-8.4554
 20
7.01502
 30
0.0
 10
-8.4784
 20
6.98906
 30
0.0
 10
-8.51664
 20
6.9535
 30
0.0
 10
-8.57012
 20
6.90834
 30
0.0
 10
-8.57012
 20
6.90834
 30
0.0
 10
-8.61471
 20
6.87081
 30
0.0
 10
-8.64336
 20
6.84541
 30
0.0
 10
-8.65606
 20
6.832
 30
0.0
 10
-8.65606
 20
6.832
 30
0.0
 10
-8.66876
 20
6.81874
 30
0.0
 10
-8.6792
 20
6.80533
 30
0.0
 10
-8.68752
 20
6.79178
 30
0.0
 10
-8.68752
 20
6.79178
 30
0.0
 10
-8.68752
 20
6.79178
 30
0.0
 10
-8.3902
 20
6.79178
 30
0.0
 10
-8.3902
 20
6.79178
 30
0.0
  0
SPLINE
  5
4A
330
1F
100
AcDbEntity
  8
Livello 1
 62
   250
370
     5
100
AcDbSpline
210
0.0
220
0.0
230
1.0
 70
    11
 71
     3
 72
   144
 73
   140
 74
     0
 42
0.0000000001
 43
0.0000000001
 40
0.0
 40
0.0
 40
0.0
 40
0.0
 40
0.0277777777777778
 40
0.0277777777777778
 40
0.0277777777777778
 40
0.0277777777777778
 40
0.0555555555555556
 40
0.0555555555555556
 40
0.0555555555555556
 40
0.0555555555555556
 40
0.0833333333333333
 40
0.0833333333333333
 40
0.0833333333333333
 40
0.0833333333333333
 40
0.1111111111111111
 40
0.1111111111111111
 40
0.1111111111111111
 40
0.1111111111111111
 40
0.1388888888888889
 40
0.1388888888888889
 40
0.1388888888888889
 40
0.1388888888888889
 40
0.1666666666666667
 40
0.1666666666666667
 40
0.1666666666666667
 40
0.1666666666666667
 40
0.1944444444444444
 40
0.1944444444444444
 40
0.1944444444444444
 40
0.1944444444444444
 40
0.2222222222222222
 40
0.2222222222222222
 40
0.2222222222222222
 40
0.2222222222222222
 40
0.25
 40
0.25
 40
0.25
 40
0.25
 40
0.2777777777777778
 40
0.2777777777777778
 40
0.2777777777777778
 40
0.2777777777777778
 40
0.3055555555555556
 40
0.3055555555555556
 40
0.3055555555555556
 40
0.3055555555555556
 40
0.3333333333333333
 40
0.3333333333333333
 40
0.3333333333333333
 40
0.3333333333333333
 40
0.3611111111111111
 40
0.3611111111111111
 40
0.3611111111111111
 40
0.3611111111111111
 40
0.3888888888888889
 40
0.3888888888888889
 40
0.3888888888888889
 40
0.3888888888888889
 40
0.4166666666666667
 40
0.4166666666666667
 40
0.4166666666666667
 40
0.4166666666666667
 40
0.4444444444444444
 40
0.4444444444444444
 40
0.4444444444444444
 40
0.4444444444444444
 40
0.4722222222222222
 40
0.4722222222222222
 40
0.4722222222222222
 40
0.4722222222222222
 40
0.5
 40
0.5
 40
0.5
 40
0.5
 40
0.5277777777777778
 40
0.5277777777777778
 40
0.5277777777777778
 40
0.5277777777777778
 40
0.5555555555555556
 40
0.5555555555555556
 40
0.5555555555555556
 40
0.5555555555555556
 40
0.5833333333333334
 40
0.5833333333333334
 40
0.5833333333333334
 40
0.5833333333333334
 40
0.6111111111111112
 40
0.6111111111111112
 40
0.6111111111111112
 40
0.6111111111111112
 40
0.6388888888888888
 40
0.6388888888888888
 40
0.6388888888888888
 40
0.6388888888888888
 40
0.6666666666666666
 40
0.6666666666666666
 40
0.6666666666666666
 40
0.6666666666666666
 40
0.6944444444444444
 40
0.6944444444444444
 40
0.6944444444444444
 40
0.6944444444444444
 40
0.7222222222222222
 40
0.7222222222222222
 40
0.7222222222222222
 40
0.7222222222222222
 40
0.75
 40
0.75
 40
0.75
 40
0.75
 40
0.7777777777777778
 40
0.7777777777777778
 40
0.7777777777777778
 40
0.7777777777777778
 40
0.8055555555555556
 40
0.8055555555555556
 40
0.8055555555555556
 40
0.8055555555555556
 40
0.8333333333333334
 40
0.8333333333333334
 40
0.8333333333333334
 40
0.8333333333333334
 40
0.8611111111111112
 40
0.8611111111111112
 40
0.8611111111111112
 40
0.8611111111111112
 40
0.8888888888888888
 40
0.8888888888888888
 40
0.8888888888888888
 40
0.8888888888888888
 40
0.9166666666666666
 40
0.9166666666666666
 40
0.9166666666666666
 40
0.9166666666666666
 40
0.9444444444444444
 40
0.9444444444444444
 40
0.9444444444444444
 40
0.9444444444444444
 40
1.0
 40
1.0
 40
1.0
 40
1.0
 10
-8.9074
 20
-0.52898
 30
0.0
 10
-8.9074
 20
-0.52898
 30
0.0
 10
-9.34988
 20
-0.47113
 30
0.0
 10
-9.34988
 20
-0.47113
 30
0.0
 10
-9.34988
 20
-0.47113
 30
0.0
 10
-9.34988
 20
-0.47113
 30
0.0
 10
-9.49993
 20
-1.65254
 30
0.0
 10
-9.49993
 20
-1.65254
 30
0.0
 10
-9.49993
 20
-1.65254
 30
0.0
 10
-9.50507
 20
-1.65673
 30
0.0
 10
-9.51089
 20
-1.65998
 30
0.0
 10
-9.5181
 20
-1.6619
 30
0.0
 10
-9.5181
 20
-1.6619
 30
0.0
 10
-10.04289
 20
-1.57971
 30
0.0
 10
-10.43242
 20
-1.14556
 30
0.0
 10
-10.38371
 20
-0.57847
 30
0.0
 10
-10.38371
 20
-0.57847
 30
0.0
 10
-10.38371
 20
-0.57847
 30
0.0
 10
-11.6863
 20
-0.40845
 30
0.0
 10
-11.6863
 20
-0.40845
 30
0.0
 10
-11.6863
 20
-0.40845
 30
0.0
 10
-11.6863
 20
-0.40845
 30
0.0
 10
-11.67568
 20
-0.1021
 30
0.0
 10
-11.67568
 20
-0.1021
 30
0.0
 10
-11.67568
 20
-0.1021
 30
0.0
 10
-11.91605
 20
-0.06106
 30
0.0
 10
-12.27698
 20
-0.02439
 30
0.0
 10
-12.56252
 20
0.02683
 30
0.0
 10
-12.56252
 20
0.02683
 30
0.0
 10
-12.78566
 20
0.06954
 30
0.0
 10
-13.01131
 20
0.32514
 30
0.0
 10
-12.95497
 20
0.62471
 30
0.0
 10
-12.95497
 20
0.62471
 30
0.0
 10
-12.79841
 20
1.07774
 30
0.0
 10
-12.59572
 20
1.88824
 30
0.0
 10
-12.38493
 20
2.00448
 30
0.0
 10
-12.38493
 20
2.00448
 30
0.0
 10
-12.26355
 20
2.08718
 30
0.0
 10
-12.07305
 20
2.13021
 30
0.0
 10
-12.00594
 20
1.99632
 30
0.0
 10
-12.00594
 20
1.99632
 30
0.0
 10
-12.00594
 20
1.99632
 30
0.0
 10
-12.28437
 20
0.81862
 30
0.0
 10
-12.28437
 20
0.81862
 30
0.0
 10
-12.28437
 20
0.81862
 30
0.0
 10
-12.14642
 20
0.78602
 30
0.0
 10
-12.01107
 20
0.754
 30
0.0
 10
-11.87293
 20
0.72137
 30
0.0
 10
-11.87293
 20
0.72137
 30
0.0
 10
-11.87293
 20
0.72137
 30
0.0
 10
-11.57357
 20
1.98755
 30
0.0
 10
-11.57357
 20
1.98755
 30
0.0
 10
-11.57357
 20
1.98755
 30
0.0
 10
-11.57357
 20
1.98755
 30
0.0
 10
-11.25043
 20
1.94528
 30
0.0
 10
-11.25043
 20
1.94528
 30
0.0
 10
-11.25043
 20
1.94528
 30
0.0
 10
-11.25043
 20
1.94528
 30
0.0
 10
-11.17284
 20
2.47516
 30
0.0
 10
-11.17284
 20
2.47516
 30
0.0
 10
-11.17284
 20
2.47516
 30
0.0
 10
-11.17284
 20
2.47516
 30
0.0
 10
-10.02657
 20
2.32531
 30
0.0
 10
-10.02657
 20
2.32531
 30
0.0
 10
-10.02657
 20
2.32531
 30
0.0
 10
-10.02657
 20
2.32531
 30
0.0
 10
-10.096
 20
1.79435
 30
0.0
 10
-10.096
 20
1.79435
 30
0.0
 10
-10.096
 20
1.79435
 30
0.0
 10
-10.096
 20
1.79435
 30
0.0
 10
-8.83707
 20
1.63956
 30
0.0
 10
-8.83707
 20
1.63956
 30
0.0
 10
-8.83707
 20
1.63956
 30
0.0
 10
-8.83707
 20
1.63956
 30
0.0
 10
-7.58067
 20
1.46549
 30
0.0
 10
-7.58067
 20
1.46549
 30
0.0
 10
-7.58067
 20
1.46549
 30
0.0
 10
-7.58067
 20
1.46549
 30
0.0
 10
-7.51126
 20
1.99645
 30
0.0
 10
-7.51126
 20
1.99645
 30
0.0
 10
-7.51126
 20
1.99645
 30
0.0
 10
-7.51126
 20
1.99645
 30
0.0
 10
-6.365
 20
1.84657
 30
0.0
 10
-6.365
 20
1.84657
 30
0.0
 10
-6.365
 20
1.84657
 30
0.0
 10
-6.365
 20
1.84657
 30
0.0
 10
-6.42624
 20
1.31456
 30
0.0
 10
-6.42624
 20
1.31456
 30
0.0
 10
-6.42624
 20
1.31456
 30
0.0
 10
-6.42624
 20
1.31456
 30
0.0
 10
-6.1031
 20
1.27233
 30
0.0
 10
-6.1031
 20
1.27233
 30
0.0
 10
-6.1031
 20
1.27233
 30
0.0
 10
-6.1031
 20
1.27233
 30
0.0
 10
-6.13931
 20
-0.02825
 30
0.0
 10
-6.13931
 20
-0.02825
 30
0.0
 10
-6.13931
 20
-0.02825
 30
0.0
 10
-5.99743
 20
-0.03223
 30
0.0
 10
-5.8584
 20
-0.03609
 30
0.0
 10
-5.7167
 20
-0.04005
 30
0.0
 10
-5.7167
 20
-0.04005
 30
0.0
 10
-5.7167
 20
-0.04005
 30
0.0
 10
-5.683
 20
1.16965
 30
0.0
 10
-5.683
 20
1.16965
 30
0.0
 10
-5.683
 20
1.16965
 30
0.0
 10
-5.58373
 20
1.28179
 30
0.0
 10
-5.41069
 20
1.19123
 30
0.0
 10
-5.31465
 20
1.0801
 30
0.0
 10
-5.31465
 20
1.0801
 30
0.0
 10
-5.14084
 20
0.91357
 30
0.0
 10
-5.15333
 20
0.07821
 30
0.0
 10
-5.1185
 20
-0.39985
 30
0.0
 10
-5.1185
 20
-0.39985
 30
0.0
 10
-5.14107
 20
-0.70383
 30
0.0
 10
-5.42485
 20
-0.89283
 30
0.0
 10
-5.65147
 20
-0.87674
 30
0.0
 10
-5.65147
 20
-0.87674
 30
0.0
 10
-5.94058
 20
-0.85282
 30
0.0
 10
-6.2988
 20
-0.79546
 30
0.0
 10
-6.54164
 20
-0.77333
 30
0.0
 10
-6.54164
 20
-0.77333
 30
0.0
 10
-6.54164
 20
-0.77333
 30
0.0
 10
-6.61014
 20
-1.07212
 30
0.0
 10
-6.61014
 20
-1.07212
 30
0.0
 10
-6.61014
 20
-1.07212
 30
0.0
 10
-6.61014
 20
-1.07212
 30
0.0
 10
-7.91266
 20
-0.90154
 30
0.0
 10
-7.91266
 20
-0.90154
 30
0.0
 10
-7.91266
 20
-0.90154
 30
0.0
 10
-8.01138
 20
-1.46209
 30
0.0
 10
-8.49943
 20
-1.7815
 30
0.0
 10
-9.02771
 20
-1.72602
 30
0.0
 10
-9.02771
 20
-1.72602
 30
0.0
 10
-9.03418
 20
-1.72231
 30
0.0
 10
-9.03897
 20
-1.71767
 30
0.0
 10
-9.04286
 20
-1.7123
 30
0.0
 10
-9.04286
 20
-1.7123
 30
0.0
 10
-9.04286
 20
-1.7123
 30
0.0
 10
-8.9074
 20
-0.52898
 30
0.0
 10
-8.9074
 20
-0.52898
 30
0.0
  0
SPLINE
  5
4B
330
1F
100
AcDbEntity
  8
Livello 1
 62
   250
370
     5
100
AcDbSpline
210
0.0
220
0.0
230
1.0
 70
     8
 71
     3
 72
    96
 73
    92
 74
     0
 42
0.0000000001
 43
0.0000000001
 40
0.0
 40
0.0
 40
0.0
 40
0.0
 40
0.0416666666666667
 40
0.0416666666666667
 40
0.0416666666666667
 40
0.0416666666666667
 40
0.0833333333333333
 40
0.0833333333333333
 40
0.0833333333333333
 40
0.0833333333333333
 40
0.125
 40
0.125
 40
0.125
 40
0.125
 40
0.1666666666666667
 40
0.1666666666666667
 40
0.1666666666666667
 40
0.1666666666666667
 40
0.2083333333333333
 40
0.2083333333333333
 40
0.2083333333333333
 40
0.2083333333333333
 40
0.25
 40
0.25
 40
0.25
 40
0.25
 40
0.2916666666666667
 40
0.2916666666666667
 40
0.2916666666666667
 40
0.2916666666666667
 40
0.3333333333333333
 40
0.3333333333333333
 40
0.3333333333333333
 40
0.3333333333333333
 40
0.375
 40
0.375
 40
0.375
 40
0.375
 40
0.4166666666666667
 40
0.4166666666666667
 40
0.4166666666666667
 40
0.4166666666666667
 40
0.4583333333333333
 40
0.4583333333333333
 40
0.4583333333333333
 40
0.4583333333333333
 40
0.5
 40
0.5
 40
0.5
 40
0.5
 40
0.5416666666666666
 40
0.5416666666666666
 40
0.5416666666666666
 40
0.5416666666666666
 40
0.5833333333333334
 40
0.5833333333333334
 40
0.5833333333333334
 40
0.5833333333333334
 40
0.625
 40
0.625
 40
0.625
 40
0.625
 40
0.6666666666666666
 40
0.6666666666666666
 40
0.6666666666666666
 40
0.6666666666666666
 40
0.7083333333333334
 40
0.7083333333333334
 40
0.7083333333333334
 40
0.7083333333333334
 40
0.75
 40
0.75
 40
0.75
 40
0.75
 40
0.7916666666666666
 40
0.7916666666666666
 40
0.7916666666666666
 40
0.7916666666666666
 40
0.8333333333333334
 40
0.8333333333333334
 40
0.8333333333333334
 40
0.8333333333333334
 40
0.875
 40
0.875
 40
0.875
 40
0.875
 40
0.9166666666666666
 40
0.9166666666666666
 40
0.9166666666666666
 40
0.9166666666666666
 40
1.0
 40
1.0
 40
1.0
 40
1.0
 10
-4.10223
 20
3.19307
 30
0.0
 10
-3.37821
 20
2.09545
 30
0.0
 10
-2.11071
 20
1.50179
 30
0.0
 10
-1.26082
 20
0.51989
 30
0.0
 10
-1.26082
 20
0.51989
 30
0.0
 10
-1.26082
 20
0.51989
 30
0.0
 10
-0.31856
 20
1.47177
 30
0.0
 10
-0.31856
 20
1.47177
 30
0.0
 10
-0.31856
 20
1.47177
 30
0.0
 10
-0.31856
 20
1.47177
 30
0.0
 10
-0.01468
 20
1.17778
 30
0.0
 10
-0.01468
 20
1.17778
 30
0.0
 10
-0.01468
 20
1.17778
 30
0.0
 10
-0.01468
 20
1.17778
 30
0.0
 10
-1.0057
 20
0.15354
 30
0.0
 10
-1.0057
 20
0.15354
 30
0.0
 10
-1.0057
 20
0.15354
 30
0.0
 10
-0.31316
 20
-0.70529
 30
0.0
 10
0.9211
 20
-1.89377
 30
0.0
 10
2.26832
 20
-1.83793
 30
0.0
 10
2.26832
 20
-1.83793
 30
0.0
 10
3.25388
 20
-1.79709
 30
0.0
 10
4.29533
 20
-1.0992
 30
0.0
 10
4.47654
 20
-0.14475
 30
0.0
 10
4.47654
 20
-0.14475
 30
0.0
 10
4.62802
 20
0.65315
 30
0.0
 10
3.61341
 20
1.3394
 30
0.0
 10
3.46642
 20
1.9423
 30
0.0
 10
3.46642
 20
1.9423
 30
0.0
 10
3.63348
 20
2.06489
 30
0.0
 10
3.82211
 20
2.18557
 30
0.0
 10
4.01745
 20
2.26137
 30
0.0
 10
4.01745
 20
2.26137
 30
0.0
 10
4.14901
 20
2.20936
 30
0.0
 10
4.15572
 20
2.0264
 30
0.0
 10
4.26613
 20
1.95318
 30
0.0
 10
4.26613
 20
1.95318
 30
0.0
 10
4.64107
 20
2.26306
 30
0.0
 10
4.80271
 20
2.85092
 30
0.0
 10
4.77662
 20
3.32369
 30
0.0
 10
4.77662
 20
3.32369
 30
0.0
 10
4.70845
 20
3.50535
 30
0.0
 10
4.48606
 20
3.4943
 30
0.0
 10
4.36055
 20
3.61695
 30
0.0
 10
4.36055
 20
3.61695
 30
0.0
 10
4.20724
 20
3.89101
 30
0.0
 10
4.15129
 20
4.29095
 30
0.0
 10
3.80675
 20
4.39359
 30
0.0
 10
3.80675
 20
4.39359
 30
0.0
 10
3.80675
 20
4.39359
 30
0.0
 10
2.83669
 20
3.39098
 30
0.0
 10
2.83669
 20
3.39098
 30
0.0
 10
2.83669
 20
3.39098
 30
0.0
 10
2.83669
 20
3.39098
 30
0.0
 10
2.53282
 20
3.68496
 30
0.0
 10
2.53282
 20
3.68496
 30
0.0
 10
2.53282
 20
3.68496
 30
0.0
 10
2.53282
 20
3.68496
 30
0.0
 10
3.30937
 20
4.48758
 30
0.0
 10
3.30937
 20
4.48758
 30
0.0
 10
3.30937
 20
4.48758
 30
0.0
 10
2.65233
 20
5.12978
 30
0.0
 10
1.68794
 20
4.05236
 30
0.0
 10
1.32289
 20
3.30816
 30
0.0
 10
1.32289
 20
3.30816
 30
0.0
 10
1.22087
 20
3.10006
 30
0.0
 10
1.28128
 20
2.96964
 30
0.0
 10
1.04019
 20
2.86291
 30
0.0
 10
1.04019
 20
2.86291
 30
0.0
 10
0.8644
 20
2.7851
 30
0.0
 10
0.66328
 20
2.86689
 30
0.0
 10
0.45505
 20
2.94104
 30
0.0
 10
0.45505
 20
2.94104
 30
0.0
 10
-0.38373
 20
3.23987
 30
0.0
 10
-1.26798
 20
4.18879
 30
0.0
 10
-2.10874
 20
4.58452
 30
0.0
 10
-2.10874
 20
4.58452
 30
0.0
 10
-2.28602
 20
4.56315
 30
0.0
 10
-2.32715
 20
4.34884
 30
0.0
 10
-2.49169
 20
4.31713
 30
0.0
 10
-2.49169
 20
4.31713
 30
0.0
 10
-2.79487
 20
4.38177
 30
0.0
 10
-3.06457
 20
4.70542
 30
0.0
 10
-3.3885
 20
4.6118
 30
0.0
 10
-3.3885
 20
4.6118
 30
0.0
 10
-3.51207
 20
4.48517
 30
0.0
 10
-3.37925
 20
4.31106
 30
0.0
 10
-3.44918
 20
4.18005
 30
0.0
 10
-3.44918
 20
4.18005
 30
0.0
 10
-3.83058
 20
4.03159
 30
0.0
 10
-4.33753
 20
3.65965
 30
0.0
 10
-4.10224
 20
3.19306
 30
0.0
  0
SPLINE
  5
4C
330
1F
100
AcDbEntity
  8
Livello 1
 62
   250
370
     5
100
AcDbSpline
210
0.0
220
0.0
230
1.0
 70
    11
 71
     3
 72
    20
 73
    16
 74
     0
 42
0.0000000001
 43
0.0000000001
 40
0.0
 40
0.0
 40
0.0
 40
0.0
 40
0.2
 40
0.2
 40
0.2
 40
0.2
 40
0.4
 40
0.4
 40
0.4
 40
0.4
 40
0.6
 40
0.6
 40
0.6
 40
0.6
 40
1.0
 40
1.0
 40
1.0
 40
1.0
 10
1.73475
 20
1.70887
 30
0.0
 10
1.73475
 20
1.70887
 30
0.0
 10
2.14934
 20
1.79175
 30
0.0
 10
2.14934
 20
1.79175
 30
0.0
 10
2.14934
 20
1.79175
 30
0.0
 10
2.14934
 20
1.79175
 30
0.0
 10
2.69308
 20
-0.90671
 30
0.0
 10
2.69308
 20
-0.90671
 30
0.0
 10
2.69308
 20
-0.90671
 30
0.0
 10
2.69308
 20
-0.90671
 30
0.0
 10
2.27849
 20
-0.98959
 30
0.0
 10
2.27849
 20
-0.98959
 30
0.0
 10
2.27849
 20
-0.98959
 30
0.0
 10
2.27849
 20
-0.98959
 30
0.0
 10
1.73475
 20
1.70887
 30
0.0
 10
1.73475
 20
1.70887
 30
0.0
  0
SPLINE
  5
4D
330
1F
100
AcDbEntity
  8
Livello 1
 62
   250
370
     5
100
AcDbSpline
210
0.0
220
0.0
230
1.0
 70
    11
 71
     3
 72
    20
 73
    16
 74
     0
 42
0.0000000001
 43
0.0000000001
 40
0.0
 40
0.0
 40
0.0
 40
0.0
 40
0.2
 40
0.2
 40
0.2
 40
0.2
 40
0.4
 40
0.4
 40
0.4
 40
0.4
 40
0.6
 40
0.6
 40
0.6
 40
0.6
 40
1.0
 40
1.0
 40
1.0
 40
1.0
 10
10.50203
 20
-6.81327
 30
0.0
 10
10.50203
 20
-6.81327
 30
0.0
 10
13.08864
 20
-6.81327
 30
0.0
 10
13.08864
 20
-6.81327
 30
0.0
 10
13.08864
 20
-6.81327
 30
0.0
 10
13.08864
 20
-6.81327
 30
0.0
 10
13.10206
 20
-1.6779
 30
0.0
 10
13.10206
 20
-1.6779
 30
0.0
 10
13.10206
 20
-1.6779
 30
0.0
 10
13.10206
 20
-1.6779
 30
0.0
 10
10.50203
 20
-1.6779
 30
0.0
 10
10.50203
 20
-1.6779
 30
0.0
 10
10.50203
 20
-1.6779
 30
0.0
 10
10.50203
 20
-1.6779
 30
0.0
 10
10.50203
 20
-6.81327
 30
0.0
 10
10.50203
 20
-6.81327
 30
0.0
  0
SPLINE
  5
4E
330
1F
100
AcDbEntity
  8
Livello 1
 62
   250
370
     5
100
AcDbSpline
210
0.0
220
0.0
230
1.0
 70
    11
 71
     3
 72
    20
 73
    16
 74
     0
 42
0.0000000001
 43
0.0000000001
 40
0.0
 40
0.0
 40
0.0
 40
0.0
 40
0.2
 40
0.2
 40
0.2
 40
0.2
 40
0.4
 40
0.4
 40
0.4
 40
0.4
 40
0.6
 40
0.6
 40
0.6
 40
0.6
 40
1.0
 40
1.0
 40
1.0
 40
1.0
 10
11.59066
 20
-3.52907
 30
0.0
 10
11.59066
 20
-3.52907
 30
0.0
 10
12.01345
 20
-3.52907
 30
0.0
 10
12.01345
 20
-3.52907
 30
0.0
 10
12.01345
 20
-3.52907
 30
0.0
 10
12.01345
 20
-3.52907
 30
0.0
 10
12.01345
 20
-4.954
 30
0.0
 10
12.01345
 20
-4.954
 30
0.0
 10
12.01345
 20
-4.954
 30
0.0
 10
12.01345
 20
-4.954
 30
0.0
 10
11.59066
 20
-4.954
 30
0.0
 10
11.59066
 20
-4.954
 30
0.0
 10
11.59066
 20
-4.954
 30
0.0
 10
11.59066
 20
-4.954
 30
0.0
 10
11.59066
 20
-3.52907
 30
0.0
 10
11.59066
 20
-3.52907
 30
0.0
  0
SPLINE
  5
4F
330
1F
100
AcDbEntity
  8
Livello 1
 62
   250
370
     5
100
AcDbSpline
210
0.0
220
0.0
230
1.0
 70
    11
 71
     3
 72
    44
 73
    40
 74
     0
 42
0.0000000001
 43
0.0000000001
 40
0.0
 40
0.0
 40
0.0
 40
0.0
 40
0.0909090909090909
 40
0.0909090909090909
 40
0.0909090909090909
 40
0.0909090909090909
 40
0.1818181818181818
 40
0.1818181818181818
 40
0.1818181818181818
 40
0.1818181818181818
 40
0.2727272727272727
 40
0.2727272727272727
 40
0.2727272727272727
 40
0.2727272727272727
 40
0.3636363636363636
 40
0.3636363636363636
 40
0.3636363636363636
 40
0.3636363636363636
 40
0.4545454545454545
 40
0.4545454545454545
 40
0.4545454545454545
 40
0.4545454545454545
 40
0.5454545454545454
 40
0.5454545454545454
 40
0.5454545454545454
 40
0.5454545454545454
 40
0.6363636363636364
 40
0.6363636363636364
 40
0.6363636363636364
 40
0.6363636363636364
 40
0.7272727272727273
 40
0.7272727272727273
 40
0.7272727272727273
 40
0.7272727272727273
 40
0.8181818181818182
 40
0.8181818181818182
 40
0.8181818181818182
 40
0.8181818181818182
 40
1.0
 40
1.0
 40
1.0
 40
1.0
 10
0.2256
 20
6.69072
 30
0.0
 10
0.2256
 20
6.69072
 30
0.0
 10
-0.96871
 20
6.68508
 30
0.0
 10
-0.96871
 20
6.68508
 30
0.0
 10
-0.96871
 20
6.68508
 30
0.0
 10
-0.93182
 20
6.22899
 30
0.0
 10
-1.07217
 20
5.85975
 30
0.0
 10
-1.34703
 20
5.76016
 30
0.0
 10
-1.34703
 20
5.76016
 30
0.0
 10
-1.63065
 20
5.75773
 30
0.0
 10
-1.88443
 20
5.75164
 30
0.0
 10
-2.18502
 20
5.76422
 30
0.0
 10
-2.18502
 20
5.76422
 30
0.0
 10
-2.21142
 20
5.79547
 30
0.0
 10
-2.23826
 20
5.8424
 30
0.0
 10
-2.23541
 20
5.88326
 30
0.0
 10
-2.23541
 20
5.88326
 30
0.0
 10
-2.23541
 20
5.88326
 30
0.0
 10
-2.23541
 20
9.31901
 30
0.0
 10
-2.23541
 20
9.31901
 30
0.0
 10
-2.23541
 20
9.31901
 30
0.0
 10
-2.23826
 20
9.35987
 30
0.0
 10
-2.21142
 20
9.4068
 30
0.0
 10
-2.18502
 20
9.43805
 30
0.0
 10
-2.18502
 20
9.43805
 30
0.0
 10
-1.88443
 20
9.45063
 30
0.0
 10
-1.63065
 20
9.44454
 30
0.0
 10
-1.34703
 20
9.44211
 30
0.0
 10
-1.34703
 20
9.44211
 30
0.0
 10
-1.07217
 20
9.34252
 30
0.0
 10
-0.93182
 20
8.97328
 30
0.0
 10
-0.96871
 20
8.51719
 30
0.0
 10
-0.96871
 20
8.51719
 30
0.0
 10
-0.96871
 20
8.51719
 30
0.0
 10
0.2256
 20
8.51155
 30
0.0
 10
0.2256
 20
8.51155
 30
0.0
 10
0.2256
 20
8.51155
 30
0.0
 10
0.2256
 20
8.51155
 30
0.0
 10
0.2256
 20
6.69072
 30
0.0
 10
0.2256
 20
6.69072
 30
0.0
  0
ENDSEC
  0
SECTION
  2
OBJECTS
  0
DICTIONARY
  5
C
330
0
100
AcDbDictionary
281
     1
  3
ACAD_GROUP
350
D
  3
ACAD_LAYOUT
350
1A
  3
ACAD_MATERIAL
350
3B
  3
ACAD_MLEADERSTYLE
350
71
  3
ACAD_MLINESTYLE
350
17
  3
ACAD_PLOTSETTINGS
350
19
  3
ACAD_PLOTSTYLENAME
350
E
  3
ACAD_TABLESTYLE
350
70
  3
ACAD_VISUALSTYLE
350
2A
  0
DICTIONARY
  5
D
102
{ACAD_REACTORS
330
C
102
}
330
C
100
AcDbDictionary
281
     1
  0
DICTIONARY
  5
1A
102
{ACAD_REACTORS
330
C
102
}
330
C
100
AcDbDictionary
281
     1
  3
Layout1
350
1E
  3
Layout2
350
26
  3
Model
350
22
  0
DICTIONARY
  5
3B
102
{ACAD_REACTORS
330
C
102
}
330
C
100
AcDbDictionary
281
     1
  3
ByBlock
350
3D
  3
ByLayer
350
3C
  3
Global
350
3E
  0
DICTIONARY
  5
71
102
{ACAD_REACTORS
330
C
102
}
330
C
100
AcDbDictionary
281
     1
  0
DICTIONARY
  5
17
102
{ACAD_REACTORS
330
C
102
}
330
C
100
AcDbDictionary
281
     1
  3
Standard
350
18
  0
DICTIONARY
  5
19
102
{ACAD_REACTORS
330
C
102
}
330
C
100
AcDbDictionary
281
     1
  0
ACDBDICTIONARYWDFLT
  5
E
102
{ACAD_REACTORS
330
C
102
}
330
C
100
AcDbDictionary
281
     1
  3
Normal
350
F
100
AcDbDictionaryWithDefault
340
F
  0
DICTIONARY
  5
70
102
{ACAD_REACTORS
330
C
102
}
330
C
100
AcDbDictionary
281
     1
  0
DICTIONARY
  5
2A
102
{ACAD_REACTORS
330
C
102
}
330
C
100
AcDbDictionary
281
     1
  3
2dWireframe
350
2F
  3
3D Hidden
350
31
  3
3dWireframe
350
30
  3
Basic
350
32
  3
Brighten
350
36
  3
ColorChange
350
3A
  3
Conceptual
350
34
  3
Dim
350
35
  3
Facepattern
350
39
  3
Flat
350
2B
  3
FlatWithEdges
350
2C
  3
Gouraud
350
2D
  3
GouraudWithEdges
350
2E
  3
Linepattern
350
38
  3
Realistic
350
33
  3
Thicken
350
37
  0
LAYOUT
  5
1E
102
{ACAD_REACTORS
330
1A
102
}
330
1A
100
AcDbPlotSettings
  1

  2
none_device
  4

  6

 40
0.0
 41
0.0
 42
0.0
 43
0.0
 44
0.0
 45
0.0
 46
0.0
 47
0.0
 48
0.0
 49
0.0
140
0.0
141
0.0
142
1.0
143
1.0
 70
   688
 72
     0
 73
     0
 74
     5
  7

 75
    16
 76
     0
 77
     2
 78
   300
147
1.0
148
0.0
149
0.0
100
AcDbLayout
  1
Layout1
 70
     1
 71
     1
 10
0.0
 20
0.0
 11
12.0
 21
9.0
 12
0.0
 22
0.0
 32
0.0
 14
1.000000000000000E+20
 24
1.000000000000000E+20
 34
1.000000000000000E+20
 15
-1.000000000000000E+20
 25
-1.000000000000000E+20
 35
-1.000000000000000E+20
146
0.0
 13
0.0
 23
0.0
 33
0.0
 16
1.0
 26
0.0
 36
0.0
 17
0.0
 27
1.0
 37
0.0
 76
     0
330
1B
  0
LAYOUT
  5
26
102
{ACAD_REACTORS
330
1A
102
}
330
1A
100
AcDbPlotSettings
  1

  2
none_device
  4

  6

 40
0.0
 41
0.0
 42
0.0
 43
0.0
 44
0.0
 45
0.0
 46
0.0
 47
0.0
 48
0.0
 49
0.0
140
0.0
141
0.0
142
1.0
143
1.0
 70
   688
 72
     0
 73
     0
 74
     5
  7

 75
    16
 76
     0
 77
     2
 78
   300
147
1.0
148
0.0
149
0.0
100
AcDbLayout
  1
Layout2
 70
     1
 71
     2
 10
0.0
 20
0.0
 11
0.0
 21
0.0
 12
0.0
 22
0.0
 32
0.0
 14
0.0
 24
0.0
 34
0.0
 15
0.0
 25
0.0
 35
0.0
146
0.0
 13
0.0
 23
0.0
 33
0.0
 16
1.0
 26
0.0
 36
0.0
 17
0.0
 27
1.0
 37
0.0
 76
     0
330
23
  0
LAYOUT
  5
22
102
{ACAD_REACTORS
330
1A
102
}
330
1A
100
AcDbPlotSettings
  1

  2
none_device
  4

  6

 40
0.0
 41
0.0
 42
0.0
 43
0.0
 44
0.0
 45
0.0
 46
0.0
 47
0.0
 48
0.0
 49
0.0
140
0.0
141
0.0
142
1.0
143
1.0
 70
  1712
 72
     0
 73
     0
 74
     0
  7

 75
     0
 76
     0
 77
     2
 78
   300
147
1.0
148
0.0
149
0.0
100
AcDbLayout
  1
Model
 70
     1
 71
     0
 10
0.0
 20
0.0
 11
12.0
 21
9.0
 12
0.0
 22
0.0
 32
0.0
 14
-13.00681
 24
-8.78176
 34
0.0
 15
13.46004
 25
9.44954
 35
0.0
146
0.0
 13
0.0
 23
0.0
 33
0.0
 16
1.0
 26
0.0
 36
0.0
 17
0.0
 27
1.0
 37
0.0
 76
     0
330
1F
331
29
  0
MATERIAL
  5
3D
102
{ACAD_REACTORS
330
3B
102
}
330
3B
100
AcDbMaterial
  1
ByBlock
 72
     1
 94
      127
  0
MATERIAL
  5
3C
102
{ACAD_REACTORS
330
3B
102
}
330
3B
100
AcDbMaterial
  1
ByLayer
 72
     1
 94
      127
  0
MATERIAL
  5
3E
102
{ACAD_REACTORS
330
3B
102
}
330
3B
100
AcDbMaterial
  1
Global
 72
     1
 94
      127
  0
MLINESTYLE
  5
18
102
{ACAD_REACTORS
330
17
102
}
330
17
100
AcDbMlineStyle
  2
Standard
 70
     0
  3

 62
   256
 51
90.0
 52
90.0
 71
     2
 49
0.5
 62
   256
  6
BYLAYER
 49
-0.5
 62
   256
  6
BYLAYER
  0
ACDBPLACEHOLDER
  5
F
102
{ACAD_REACTORS
330
E
102
}
330
E
  0
VISUALSTYLE
  5
2F
102
{ACAD_REACTORS
330
2A
102
}
102
{ACAD_XDICTIONARY
360
58
102
}
330
2A
100
AcDbVisualStyle
  2
2dWireframe
 70
     4
 71
     0
 72
     2
 73
     0
 90
        0
 40
-0.6
 41
-30.0
 62
     5
 63
     7
421
 16777215
 74
     1
 91
        4
 64
     7
 65
   257
 75
     1
175
     1
 42
1.0
 92
        0
 66
   257
 43
1.0
 76
     1
 77
     6
 78
     2
 67
     7
 79
     5
170
     0
171
     0
290
     0
174
     0
 93
        1
 44
0.0
173
     0
291
     0
 45
0.0
  0
VISUALSTYLE
  5
31
102
{ACAD_REACTORS
330
2A
102
}
102
{ACAD_XDICTIONARY
360
5C
102
}
330
2A
100
AcDbVisualStyle
  2
3D Hidden
 70
     6
 71
     1
 72
     2
 73
     2
 90
        0
 40
-0.6
 41
-30.0
 62
     5
 63
     7
421
 16777215
 74
     2
 91
        2
 64
     7
 65
   257
 75
     2
175
     1
 42
40.0
 92
        0
 66
   257
 43
1.0
 76
     1
 77
     6
 78
     2
 67
     7
 79
     3
170
     0
171
     0
290
     0
174
     0
 93
        1
 44
0.0
173
     0
291
     0
 45
0.0
  0
VISUALSTYLE
  5
30
102
{ACAD_REACTORS
330
2A
102
}
102
{ACAD_XDICTIONARY
360
5A
102
}
330
2A
100
AcDbVisualStyle
  2
3dWireframe
 70
     5
 71
     0
 72
     2
 73
     0
 90
        0
 40
-0.6
 41
-30.0
 62
     5
 63
     7
421
 16777215
 74
     1
 91
        4
 64
     7
 65
   257
 75
     1
175
     1
 42
1.0
 92
        0
 66
   257
 43
1.0
 76
     1
 77
     6
 78
     2
 67
     7
 79
     5
170
     0
171
     0
290
     0
174
     0
 93
        1
 44
0.0
173
     0
291
     0
 45
0.0
  0
VISUALSTYLE
  5
32
102
{ACAD_REACTORS
330
2A
102
}
102
{ACAD_XDICTIONARY
360
5E
102
}
330
2A
100
AcDbVisualStyle
  2
Basic
 70
     7
 71
     1
 72
     0
 73
     1
 90
        0
 40
-0.6
 41
-30.0
 62
     5
 63
     7
421
 16777215
 74
     0
 91
        4
 64
     7
 65
   257
 75
     1
175
     1
 42
1.0
 92
        8
 66
     7
 43
1.0
 76
     1
 77
     6
 78
     2
 67
     7
 79
     5
170
     0
171
     0
290
     0
174
     0
 93
        1
 44
0.0
173
     0
291
     1
 45
0.0
  0
VISUALSTYLE
  5
36
102
{ACAD_REACTORS
330
2A
102
}
102
{ACAD_XDICTIONARY
360
66
102
}
330
2A
100
AcDbVisualStyle
  2
Brighten
 70
    12
 71
     2
 72
     2
 73
     0
 90
        0
 40
-0.6
 41
-30.0
 62
     5
 63
     7
421
 16777215
 74
     1
 91
        4
 64
     7
 65
   257
 75
     1
175
     1
 42
1.0
 92
        8
 66
     7
 43
1.0
 76
     1
 77
     6
 78
     2
 67
     7
 79
     5
170
     0
171
     0
290
     0
174
     0
 93
        1
 44
50.0
173
     0
291
     1
 45
0.0
  0
VISUALSTYLE
  5
3A
102
{ACAD_REACTORS
330
2A
102
}
102
{ACAD_XDICTIONARY
360
6E
102
}
330
2A
100
AcDbVisualStyle
  2
ColorChange
 70
    16
 71
     2
 72
     2
 73
     3
 90
        0
 40
-0.6
 41
-30.0
 62
     5
 63
     8
421
  8421504
 74
     1
 91
        4
 64
     7
 65
   257
 75
     1
175
     1
 42
1.0
 92
        8
 66
     8
424
  8421504
 43
1.0
 76
     1
 77
     6
 78
     2
 67
     7
 79
     5
170
     0
171
     0
290
     0
174
     0
 93
        1
 44
0.0
173
     0
291
     1
 45
0.0
  0
VISUALSTYLE
  5
34
102
{ACAD_REACTORS
330
2A
102
}
102
{ACAD_XDICTIONARY
360
62
102
}
330
2A
100
AcDbVisualStyle
  2
Conceptual
 70
     9
 71
     3
 72
     2
 73
     0
 90
        0
 40
-0.6
 41
-30.0
 62
     5
 63
     7
421
 16777215
 74
     2
 91
        2
 64
     7
 65
   257
 75
     1
175
     1
 42
40.0
 92
        8
 66
     7
 43
1.0
 76
     1
 77
     6
 78
     2
 67
     7
 79
     3
170
     0
171
     0
290
     0
174
     0
 93
        1
 44
0.0
173
     0
291
     0
 45
0.0
  0
VISUALSTYLE
  5
35
102
{ACAD_REACTORS
330
2A
102
}
102
{ACAD_XDICTIONARY
360
64
102
}
330
2A
100
AcDbVisualStyle
  2
Dim
 70
    11
 71
     2
 72
     2
 73
     0
 90
        0
 40
-0.6
 41
-30.0
 62
     5
 63
     7
421
 16777215
 74
     1
 91
        4
 64
     7
 65
   257
 75
     1
175
     1
 42
1.0
 92
        8
 66
     7
 43
1.0
 76
     1
 77
     6
 78
     2
 67
     7
 79
     5
170
     0
171
     0
290
     0
174
     0
 93
        1
 44
-50.0
173
     0
291
     1
 45
0.0
  0
VISUALSTYLE
  5
39
102
{ACAD_REACTORS
330
2A
102
}
102
{ACAD_XDICTIONARY
360
6C
102
}
330
2A
100
AcDbVisualStyle
  2
Facepattern
 70
    15
 71
     2
 72
     2
 73
     0
 90
        0
 40
-0.6
 41
-30.0
 62
     5
 63
     7
421
 16777215
 74
     1
 91
        4
 64
     7
 65
   257
 75
     1
175
     1
 42
1.0
 92
        8
 66
     7
 43
1.0
 76
     1
 77
     6
 78
     2
 67
     7
 79
     5
170
     0
171
     0
290
     0
174
     0
 93
        1
 44
0.0
173
     0
291
     1
 45
0.0
  0
VISUALSTYLE
  5
2B
102
{ACAD_REACTORS
330
2A
102
}
102
{ACAD_XDICTIONARY
360
50
102
}
330
2A
100
AcDbVisualStyle
  2
Flat
 70
     0
 71
     2
 72
     1
 73
     1
 90
        2
 40
-0.6
 41
30.0
 62
     5
 63
     7
421
 16777215
 74
     0
 91
        4
 64
     7
 65
   257
 75
     1
175
     1
 42
1.0
 92
        8
 66
     7
 43
1.0
 76
     1
 77
     6
 78
     2
 67
     7
 79
     5
170
     0
171
     0
290
     0
174
     0
 93
       13
 44
0.0
173
     0
291
     1
 45
0.0
  0
VISUALSTYLE
  5
2C
102
{ACAD_REACTORS
330
2A
102
}
102
{ACAD_XDICTIONARY
360
52
102
}
330
2A
100
AcDbVisualStyle
  2
FlatWithEdges
 70
     1
 71
     2
 72
     1
 73
     1
 90
        2
 40
-0.6
 41
30.0
 62
     5
 63
     7
421
 16777215
 74
     1
 91
        4
 64
     7
 65
   257
 75
     1
175
     1
 42
1.0
 92
        0
 66
   257
 43
1.0
 76
     1
 77
     6
 78
     2
 67
     7
 79
     5
170
     0
171
     0
290
     0
174
     0
 93
       13
 44
0.0
173
     0
291
     1
 45
0.0
  0
VISUALSTYLE
  5
2D
102
{ACAD_REACTORS
330
2A
102
}
102
{ACAD_XDICTIONARY
360
54
102
}
330
2A
100
AcDbVisualStyle
  2
Gouraud
 70
     2
 71
     2
 72
     2
 73
     1
 90
        2
 40
-0.6
 41
30.0
 62
     5
 63
     7
421
 16777215
 74
     0
 91
        4
 64
     7
 65
   257
 75
     1
175
     1
 42
1.0
 92
        0
 66
     7
 43
1.0
 76
     1
 77
     6
 78
     2
 67
     7
 79
     5
170
     0
171
     0
290
     0
174
     0
 93
       13
 44
0.0
173
     0
291
     1
 45
0.0
  0
VISUALSTYLE
  5
2E
102
{ACAD_REACTORS
330
2A
102
}
102
{ACAD_XDICTIONARY
360
56
102
}
330
2A
100
AcDbVisualStyle
  2
GouraudWithEdges
 70
     3
 71
     2
 72
     2
 73
     1
 90
        2
 40
-0.6
 41
30.0
 62
     5
 63
     7
421
 16777215
 74
     1
 91
        4
 64
     7
 65
   257
 75
     1
175
     1
 42
1.0
 92
        0
 66
   257
 43
1.0
 76
     1
 77
     6
 78
     2
 67
     7
 79
     5
170
     0
171
     0
290
     0
174
     0
 93
       13
 44
0.0
173
     0
291
     1
 45
0.0
  0
VISUALSTYLE
  5
38
102
{ACAD_REACTORS
330
2A
102
}
102
{ACAD_XDICTIONARY
360
6A
102
}
330
2A
100
AcDbVisualStyle
  2
Linepattern
 70
    14
 71
     2
 72
     2
 73
     0
 90
        0
 40
-0.6
 41
-30.0
 62
     5
 63
     7
421
 16777215
 74
     1
 91
        4
 64
     7
 65
   257
 75
     7
175
     7
 42
1.0
 92
        8
 66
     7
 43
1.0
 76
     1
 77
     6
 78
     2
 67
     7
 79
     5
170
     0
171
     0
290
     0
174
     0
 93
        1
 44
0.0
173
     0
291
     1
 45
0.0
  0
VISUALSTYLE
  5
33
102
{ACAD_REACTORS
330
2A
102
}
102
{ACAD_XDICTIONARY
360
60
102
}
330
2A
100
AcDbVisualStyle
  2
Realistic
 70
     8
 71
     2
 72
     2
 73
     0
 90
        0
 40
-0.6
 41
-30.0
 62
     5
 63
     7
421
 16777215
 74
     1
 91
        0
 64
     7
 65
   257
 75
     1
175
     1
 42
1.0
 92
        8
 66
     8
424
  7895160
 43
1.0
 76
     1
 77
     6
 78
     2
 67
     7
 79
     5
170
     0
171
     0
290
     0
174
     0
 93
       13
 44
0.0
173
     0
291
     0
 45
0.0
  0
VISUALSTYLE
  5
37
102
{ACAD_REACTORS
330
2A
102
}
102
{ACAD_XDICTIONARY
360
68
102
}
330
2A
100
AcDbVisualStyle
  2
Thicken
 70
    13
 71
     2
 72
     2
 73
     0
 90
        0
 40
-0.6
 41
-30.0
 62
     5
 63
     7
421
 16777215
 74
     1
 91
        4
 64
     7
 65
   257
 75
     1
175
     1
 42
1.0
 92
       12
 66
     7
 43
1.0
 76
     1
 77
     6
 78
     2
 67
     7
 79
     5
170
     0
171
     0
290
     0
174
     0
 93
        1
 44
0.0
173
     0
291
     1
 45
0.0
  0
DICTIONARY
  5
58
330
2F
100
AcDbDictionary
280
     1
281
     1
  3
ACAD_XREC_ROUNDTRIP
360
59
  0
DICTIONARY
  5
5C
330
31
100
AcDbDictionary
280
     1
281
     1
  3
ACAD_XREC_ROUNDTRIP
360
5D
  0
DICTIONARY
  5
5A
330
30
100
AcDbDictionary
280
     1
281
     1
  3
ACAD_XREC_ROUNDTRIP
360
5B
  0
DICTIONARY
  5
5E
330
32
100
AcDbDictionary
280
     1
281
     1
  3
ACAD_XREC_ROUNDTRIP
360
5F
  0
DICTIONARY
  5
66
330
36
100
AcDbDictionary
280
     1
281
     1
  3
ACAD_XREC_ROUNDTRIP
360
67
  0
DICTIONARY
  5
6E
330
3A
100
AcDbDictionary
280
     1
281
     1
  3
ACAD_XREC_ROUNDTRIP
360
6F
  0
DICTIONARY
  5
62
330
34
100
AcDbDictionary
280
     1
281
     1
  3
ACAD_XREC_ROUNDTRIP
360
63
  0
DICTIONARY
  5
64
330
35
100
AcDbDictionary
280
     1
281
     1
  3
ACAD_XREC_ROUNDTRIP
360
65
  0
DICTIONARY
  5
6C
330
39
100
AcDbDictionary
280
     1
281
     1
  3
ACAD_XREC_ROUNDTRIP
360
6D
  0
DICTIONARY
  5
50
330
2B
100
AcDbDictionary
280
     1
281
     1
  3
ACAD_XREC_ROUNDTRIP
360
51
  0
DICTIONARY
  5
52
330
2C
100
AcDbDictionary
280
     1
281
     1
  3
ACAD_XREC_ROUNDTRIP
360
53
  0
DICTIONARY
  5
54
330
2D
100
AcDbDictionary
280
     1
281
     1
  3
ACAD_XREC_ROUNDTRIP
360
55
  0
DICTIONARY
  5
56
330
2E
100
AcDbDictionary
280
     1
281
     1
  3
ACAD_XREC_ROUNDTRIP
360
57
  0
DICTIONARY
  5
6A
330
38
100
AcDbDictionary
280
     1
281
     1
  3
ACAD_XREC_ROUNDTRIP
360
6B
  0
DICTIONARY
  5
60
330
33
100
AcDbDictionary
280
     1
281
     1
  3
ACAD_XREC_ROUNDTRIP
360
61
  0
DICTIONARY
  5
68
330
37
100
AcDbDictionary
280
     1
281
     1
  3
ACAD_XREC_ROUNDTRIP
360
69
  0
XRECORD
  5
59
102
{ACAD_REACTORS
330
58
102
}
330
58
100
AcDbXrecord
280
     1
102
RTVSPropertyOp0
 70
     1
102
RTVSPropertyOp1
 70
     1
102
RTVSPropertyOp2
 70
     1
102
RTVSPropertyOp3
 70
     1
102
RTVSPropertyOp4
 70
     1
102
RTVSPropertyOp5
 70
     1
102
RTVSPropertyOp6
 70
     1
102
RTVSPropertyOp7
 70
     1
102
RTVSPropertyOp8
 70
     1
102
RTVSPropertyOp9
 70
     1
102
RTVSPropertyOp10
 70
     1
102
RTVSPropertyOp11
 70
     1
102
RTVSPropertyOp12
 70
     1
102
RTVSPropertyOp13
 70
     1
102
RTVSPropertyOp14
 70
     1
102
RTVSPropertyOp15
 70
     1
102
RTVSPropertyOp16
 70
     1
102
RTVSPropertyOp17
 70
     1
102
RTVSPropertyOp18
 70
     1
102
RTVSPropertyOp19
 70
     1
102
RTVSPropertyOp20
 70
     1
102
RTVSPropertyOp21
 70
     1
102
RTVSPropertyOp22
 70
     1
102
RTVSPropertyOp23
 70
     1
102
RTVSPropertyOp24
 70
     1
102
RTVSPropertyOp25
 70
     1
102
RTVSPropertyOp26
 70
     1
102
RTVSPropertyOp27
 70
     1
  0
XRECORD
  5
5D
102
{ACAD_REACTORS
330
5C
102
}
330
5C
100
AcDbXrecord
280
     1
102
RTVSPropertyOp0
 70
     1
102
RTVSPropertyOp1
 70
     1
102
RTVSPropertyOp2
 70
     1
102
RTVSPropertyOp3
 70
     1
102
RTVSPropertyOp4
 70
     1
102
RTVSPropertyOp5
 70
     1
102
RTVSPropertyOp6
 70
     1
102
RTVSPropertyOp7
 70
     1
102
RTVSPropertyOp8
 70
     1
102
RTVSPropertyOp9
 70
     1
102
RTVSPropertyOp10
 70
     1
102
RTVSPropertyOp11
 70
     1
102
RTVSPropertyOp12
 70
     1
102
RTVSPropertyOp13
 70
     1
102
RTVSPropertyOp14
 70
     1
102
RTVSPropertyOp15
 70
     1
102
RTVSPropertyOp16
 70
     1
102
RTVSPropertyOp17
 70
     1
102
RTVSPropertyOp18
 70
     1
102
RTVSPropertyOp19
 70
     1
102
RTVSPropertyOp20
 70
     1
102
RTVSPropertyOp21
 70
     1
102
RTVSPropertyOp22
 70
     1
102
RTVSPropertyOp23
 70
     1
102
RTVSPropertyOp24
 70
     1
102
RTVSPropertyOp25
 70
     1
102
RTVSPropertyOp26
 70
     1
102
RTVSPropertyOp27
 70
     1
  0
XRECORD
  5
5B
102
{ACAD_REACTORS
330
5A
102
}
330
5A
100
AcDbXrecord
280
     1
102
RTVSPropertyOp0
 70
     1
102
RTVSPropertyOp1
 70
     1
102
RTVSPropertyOp2
 70
     1
102
RTVSPropertyOp3
 70
     1
102
RTVSPropertyOp4
 70
     1
102
RTVSPropertyOp5
 70
     1
102
RTVSPropertyOp6
 70
     1
102
RTVSPropertyOp7
 70
     1
102
RTVSPropertyOp8
 70
     1
102
RTVSPropertyOp9
 70
     1
102
RTVSPropertyOp10
 70
     1
102
RTVSPropertyOp11
 70
     1
102
RTVSPropertyOp12
 70
     1
102
RTVSPropertyOp13
 70
     1
102
RTVSPropertyOp14
 70
     1
102
RTVSPropertyOp15
 70
     1
102
RTVSPropertyOp16
 70
     1
102
RTVSPropertyOp17
 70
     1
102
RTVSPropertyOp18
 70
     1
102
RTVSPropertyOp19
 70
     1
102
RTVSPropertyOp20
 70
     1
102
RTVSPropertyOp21
 70
     1
102
RTVSPropertyOp22
 70
     1
102
RTVSPropertyOp23
 70
     1
102
RTVSPropertyOp24
 70
     1
102
RTVSPropertyOp25
 70
     1
102
RTVSPropertyOp26
 70
     1
102
RTVSPropertyOp27
 70
     1
  0
XRECORD
  5
5F
102
{ACAD_REACTORS
330
5E
102
}
330
5E
100
AcDbXrecord
280
     1
102
RTVSPropertyOp0
 70
     1
102
RTVSPropertyOp1
 70
     1
102
RTVSPropertyOp2
 70
     1
102
RTVSPropertyOp3
 70
     1
102
RTVSPropertyOp4
 70
     1
102
RTVSPropertyOp5
 70
     1
102
RTVSPropertyOp6
 70
     1
102
RTVSPropertyOp7
 70
     1
102
RTVSPropertyOp8
 70
     1
102
RTVSPropertyOp9
 70
     1
102
RTVSPropertyOp10
 70
     1
102
RTVSPropertyOp11
 70
     1
102
RTVSPropertyOp12
 70
     1
102
RTVSPropertyOp13
 70
     1
102
RTVSPropertyOp14
 70
     1
102
RTVSPropertyOp15
 70
     1
102
RTVSPropertyOp16
 70
     1
102
RTVSPropertyOp17
 70
     1
102
RTVSPropertyOp18
 70
     1
102
RTVSPropertyOp19
 70
     1
102
RTVSPropertyOp20
 70
     1
102
RTVSPropertyOp21
 70
     1
102
RTVSPropertyOp22
 70
     1
102
RTVSPropertyOp23
 70
     1
102
RTVSPropertyOp24
 70
     1
102
RTVSPropertyOp25
 70
     1
102
RTVSPropertyOp26
 70
     1
102
RTVSPropertyOp27
 70
     1
  0
XRECORD
  5
67
102
{ACAD_REACTORS
330
66
102
}
330
66
100
AcDbXrecord
280
     1
102
RTVSPropertyOp0
 70
     1
102
RTVSPropertyOp1
 70
     1
102
RTVSPropertyOp2
 70
     1
102
RTVSPropertyOp3
 70
     1
102
RTVSPropertyOp4
 70
     1
102
RTVSPropertyOp5
 70
     1
102
RTVSPropertyOp6
 70
     1
102
RTVSPropertyOp7
 70
     1
102
RTVSPropertyOp8
 70
     1
102
RTVSPropertyOp9
 70
     1
102
RTVSPropertyOp10
 70
     1
102
RTVSPropertyOp11
 70
     1
102
RTVSPropertyOp12
 70
     1
102
RTVSPropertyOp13
 70
     1
102
RTVSPropertyOp14
 70
     1
102
RTVSPropertyOp15
 70
     1
102
RTVSPropertyOp16
 70
     1
102
RTVSPropertyOp17
 70
     1
102
RTVSPropertyOp18
 70
     1
102
RTVSPropertyOp19
 70
     1
102
RTVSPropertyOp20
 70
     1
102
RTVSPropertyOp21
 70
     1
102
RTVSPropertyOp22
 70
     1
102
RTVSPropertyOp23
 70
     1
102
RTVSPropertyOp24
 70
     1
102
RTVSPropertyOp25
 70
     1
102
RTVSPropertyOp26
 70
     1
102
RTVSPropertyOp27
 70
     1
  0
XRECORD
  5
6F
102
{ACAD_REACTORS
330
6E
102
}
330
6E
100
AcDbXrecord
280
     1
102
RTVSPropertyOp0
 70
     1
102
RTVSPropertyOp1
 70
     1
102
RTVSPropertyOp2
 70
     1
102
RTVSPropertyOp3
 70
     1
102
RTVSPropertyOp4
 70
     1
102
RTVSPropertyOp5
 70
     1
102
RTVSPropertyOp6
 70
     1
102
RTVSPropertyOp7
 70
     1
102
RTVSPropertyOp8
 70
     1
102
RTVSPropertyOp9
 70
     1
102
RTVSPropertyOp10
 70
     1
102
RTVSPropertyOp11
 70
     1
102
RTVSPropertyOp12
 70
     1
102
RTVSPropertyOp13
 70
     1
102
RTVSPropertyOp14
 70
     1
102
RTVSPropertyOp15
 70
     1
102
RTVSPropertyOp16
 70
     1
102
RTVSPropertyOp17
 70
     1
102
RTVSPropertyOp18
 70
     1
102
RTVSPropertyOp19
 70
     1
102
RTVSPropertyOp20
 70
     1
102
RTVSPropertyOp21
 70
     1
102
RTVSPropertyOp22
 70
     1
102
RTVSPropertyOp23
 70
     1
102
RTVSPropertyOp24
 70
     1
102
RTVSPropertyOp25
 70
     1
102
RTVSPropertyOp26
 70
     1
102
RTVSPropertyOp27
 70
     1
  0
XRECORD
  5
63
102
{ACAD_REACTORS
330
62
102
}
330
62
100
AcDbXrecord
280
     1
102
RTVSPropertyOp0
 70
     1
102
RTVSPropertyOp1
 70
     1
102
RTVSPropertyOp2
 70
     1
102
RTVSPropertyOp3
 70
     1
102
RTVSPropertyOp4
 70
     1
102
RTVSPropertyOp5
 70
     1
102
RTVSPropertyOp6
 70
     1
102
RTVSPropertyOp7
 70
     1
102
RTVSPropertyOp8
 70
     1
102
RTVSPropertyOp9
 70
     1
102
RTVSPropertyOp10
 70
     1
102
RTVSPropertyOp11
 70
     1
102
RTVSPropertyOp12
 70
     1
102
RTVSPropertyOp13
 70
     1
102
RTVSPropertyOp14
 70
     1
102
RTVSPropertyOp15
 70
     1
102
RTVSPropertyOp16
 70
     1
102
RTVSPropertyOp17
 70
     1
102
RTVSPropertyOp18
 70
     1
102
RTVSPropertyOp19
 70
     1
102
RTVSPropertyOp20
 70
     1
102
RTVSPropertyOp21
 70
     1
102
RTVSPropertyOp22
 70
     1
102
RTVSPropertyOp23
 70
     1
102
RTVSPropertyOp24
 70
     1
102
RTVSPropertyOp25
 70
     1
102
RTVSPropertyOp26
 70
     1
102
RTVSPropertyOp27
 70
     1
  0
XRECORD
  5
65
102
{ACAD_REACTORS
330
64
102
}
330
64
100
AcDbXrecord
280
     1
102
RTVSPropertyOp0
 70
     1
102
RTVSPropertyOp1
 70
     1
102
RTVSPropertyOp2
 70
     1
102
RTVSPropertyOp3
 70
     1
102
RTVSPropertyOp4
 70
     1
102
RTVSPropertyOp5
 70
     1
102
RTVSPropertyOp6
 70
     1
102
RTVSPropertyOp7
 70
     1
102
RTVSPropertyOp8
 70
     1
102
RTVSPropertyOp9
 70
     1
102
RTVSPropertyOp10
 70
     1
102
RTVSPropertyOp11
 70
     1
102
RTVSPropertyOp12
 70
     1
102
RTVSPropertyOp13
 70
     1
102
RTVSPropertyOp14
 70
     1
102
RTVSPropertyOp15
 70
     1
102
RTVSPropertyOp16
 70
     1
102
RTVSPropertyOp17
 70
     1
102
RTVSPropertyOp18
 70
     1
102
RTVSPropertyOp19
 70
     1
102
RTVSPropertyOp20
 70
     1
102
RTVSPropertyOp21
 70
     1
102
RTVSPropertyOp22
 70
     1
102
RTVSPropertyOp23
 70
     1
102
RTVSPropertyOp24
 70
     1
102
RTVSPropertyOp25
 70
     1
102
RTVSPropertyOp26
 70
     1
102
RTVSPropertyOp27
 70
     1
  0
XRECORD
  5
6D
102
{ACAD_REACTORS
330
6C
102
}
330
6C
100
AcDbXrecord
280
     1
102
RTVSPropertyOp0
 70
     1
102
RTVSPropertyOp1
 70
     1
102
RTVSPropertyOp2
 70
     1
102
RTVSPropertyOp3
 70
     1
102
RTVSPropertyOp4
 70
     1
102
RTVSPropertyOp5
 70
     1
102
RTVSPropertyOp6
 70
     1
102
RTVSPropertyOp7
 70
     1
102
RTVSPropertyOp8
 70
     1
102
RTVSPropertyOp9
 70
     1
102
RTVSPropertyOp10
 70
     1
102
RTVSPropertyOp11
 70
     1
102
RTVSPropertyOp12
 70
     1
102
RTVSPropertyOp13
 70
     1
102
RTVSPropertyOp14
 70
     1
102
RTVSPropertyOp15
 70
     1
102
RTVSPropertyOp16
 70
     1
102
RTVSPropertyOp17
 70
     1
102
RTVSPropertyOp18
 70
     1
102
RTVSPropertyOp19
 70
     1
102
RTVSPropertyOp20
 70
     1
102
RTVSPropertyOp21
 70
     1
102
RTVSPropertyOp22
 70
     1
102
RTVSPropertyOp23
 70
     1
102
RTVSPropertyOp24
 70
     1
102
RTVSPropertyOp25
 70
     1
102
RTVSPropertyOp26
 70
     1
102
RTVSPropertyOp27
 70
     1
  0
XRECORD
  5
51
102
{ACAD_REACTORS
330
50
102
}
330
50
100
AcDbXrecord
280
     1
102
RTVSPropertyOp0
 70
     1
102
RTVSPropertyOp1
 70
     1
102
RTVSPropertyOp2
 70
     1
102
RTVSPropertyOp3
 70
     1
102
RTVSPropertyOp4
 70
     1
102
RTVSPropertyOp5
 70
     1
102
RTVSPropertyOp6
 70
     1
102
RTVSPropertyOp7
 70
     1
102
RTVSPropertyOp8
 70
     1
102
RTVSPropertyOp9
 70
     1
102
RTVSPropertyOp10
 70
     1
102
RTVSPropertyOp11
 70
     1
102
RTVSPropertyOp12
 70
     1
102
RTVSPropertyOp13
 70
     1
102
RTVSPropertyOp14
 70
     1
102
RTVSPropertyOp15
 70
     1
102
RTVSPropertyOp16
 70
     1
102
RTVSPropertyOp17
 70
     1
102
RTVSPropertyOp18
 70
     1
102
RTVSPropertyOp19
 70
     1
102
RTVSPropertyOp20
 70
     1
102
RTVSPropertyOp21
 70
     1
102
RTVSPropertyOp22
 70
     1
102
RTVSPropertyOp23
 70
     1
102
RTVSPropertyOp24
 70
     1
102
RTVSPropertyOp25
 70
     1
102
RTVSPropertyOp26
 70
     1
102
RTVSPropertyOp27
 70
     1
  0
XRECORD
  5
53
102
{ACAD_REACTORS
330
52
102
}
330
52
100
AcDbXrecord
280
     1
102
RTVSPropertyOp0
 70
     1
102
RTVSPropertyOp1
 70
     1
102
RTVSPropertyOp2
 70
     1
102
RTVSPropertyOp3
 70
     1
102
RTVSPropertyOp4
 70
     1
102
RTVSPropertyOp5
 70
     1
102
RTVSPropertyOp6
 70
     1
102
RTVSPropertyOp7
 70
     1
102
RTVSPropertyOp8
 70
     1
102
RTVSPropertyOp9
 70
     1
102
RTVSPropertyOp10
 70
     1
102
RTVSPropertyOp11
 70
     1
102
RTVSPropertyOp12
 70
     1
102
RTVSPropertyOp13
 70
     1
102
RTVSPropertyOp14
 70
     1
102
RTVSPropertyOp15
 70
     1
102
RTVSPropertyOp16
 70
     1
102
RTVSPropertyOp17
 70
     1
102
RTVSPropertyOp18
 70
     1
102
RTVSPropertyOp19
 70
     1
102
RTVSPropertyOp20
 70
     1
102
RTVSPropertyOp21
 70
     1
102
RTVSPropertyOp22
 70
     1
102
RTVSPropertyOp23
 70
     1
102
RTVSPropertyOp24
 70
     1
102
RTVSPropertyOp25
 70
     1
102
RTVSPropertyOp26
 70
     1
102
RTVSPropertyOp27
 70
     1
  0
XRECORD
  5
55
102
{ACAD_REACTORS
330
54
102
}
330
54
100
AcDbXrecord
280
     1
102
RTVSPropertyOp0
 70
     1
102
RTVSPropertyOp1
 70
     1
102
RTVSPropertyOp2
 70
     1
102
RTVSPropertyOp3
 70
     1
102
RTVSPropertyOp4
 70
     1
102
RTVSPropertyOp5
 70
     1
102
RTVSPropertyOp6
 70
     1
102
RTVSPropertyOp7
 70
     1
102
RTVSPropertyOp8
 70
     1
102
RTVSPropertyOp9
 70
     1
102
RTVSPropertyOp10
 70
     1
102
RTVSPropertyOp11
 70
     1
102
RTVSPropertyOp12
 70
     1
102
RTVSPropertyOp13
 70
     1
102
RTVSPropertyOp14
 70
     1
102
RTVSPropertyOp15
 70
     1
102
RTVSPropertyOp16
 70
     1
102
RTVSPropertyOp17
 70
     1
102
RTVSPropertyOp18
 70
     1
102
RTVSPropertyOp19
 70
     1
102
RTVSPropertyOp20
 70
     1
102
RTVSPropertyOp21
 70
     1
102
RTVSPropertyOp22
 70
     1
102
RTVSPropertyOp23
 70
     1
102
RTVSPropertyOp24
 70
     1
102
RTVSPropertyOp25
 70
     1
102
RTVSPropertyOp26
 70
     1
102
RTVSPropertyOp27
 70
     1
  0
XRECORD
  5
57
102
{ACAD_REACTORS
330
56
102
}
330
56
100
AcDbXrecord
280
     1
102
RTVSPropertyOp0
 70
     1
102
RTVSPropertyOp1
 70
     1
102
RTVSPropertyOp2
 70
     1
102
RTVSPropertyOp3
 70
     1
102
RTVSPropertyOp4
 70
     1
102
RTVSPropertyOp5
 70
     1
102
RTVSPropertyOp6
 70
     1
102
RTVSPropertyOp7
 70
     1
102
RTVSPropertyOp8
 70
     1
102
RTVSPropertyOp9
 70
     1
102
RTVSPropertyOp10
 70
     1
102
RTVSPropertyOp11
 70
     1
102
RTVSPropertyOp12
 70
     1
102
RTVSPropertyOp13
 70
     1
102
RTVSPropertyOp14
 70
     1
102
RTVSPropertyOp15
 70
     1
102
RTVSPropertyOp16
 70
     1
102
RTVSPropertyOp17
 70
     1
102
RTVSPropertyOp18
 70
     1
102
RTVSPropertyOp19
 70
     1
102
RTVSPropertyOp20
 70
     1
102
RTVSPropertyOp21
 70
     1
102
RTVSPropertyOp22
 70
     1
102
RTVSPropertyOp23
 70
     1
102
RTVSPropertyOp24
 70
     1
102
RTVSPropertyOp25
 70
     1
102
RTVSPropertyOp26
 70
     1
102
RTVSPropertyOp27
 70
     1
  0
XRECORD
  5
6B
102
{ACAD_REACTORS
330
6A
102
}
330
6A
100
AcDbXrecord
280
     1
102
RTVSPropertyOp0
 70
     1
102
RTVSPropertyOp1
 70
     1
102
RTVSPropertyOp2
 70
     1
102
RTVSPropertyOp3
 70
     1
102
RTVSPropertyOp4
 70
     1
102
RTVSPropertyOp5
 70
     1
102
RTVSPropertyOp6
 70
     1
102
RTVSPropertyOp7
 70
     1
102
RTVSPropertyOp8
 70
     1
102
RTVSPropertyOp9
 70
     1
102
RTVSPropertyOp10
 70
     1
102
RTVSPropertyOp11
 70
     1
102
RTVSPropertyOp12
 70
     1
102
RTVSPropertyOp13
 70
     1
102
RTVSPropertyOp14
 70
     1
102
RTVSPropertyOp15
 70
     1
102
RTVSPropertyOp16
 70
     1
102
RTVSPropertyOp17
 70
     1
102
RTVSPropertyOp18
 70
     1
102
RTVSPropertyOp19
 70
     1
102
RTVSPropertyOp20
 70
     1
102
RTVSPropertyOp21
 70
     1
102
RTVSPropertyOp22
 70
     1
102
RTVSPropertyOp23
 70
     1
102
RTVSPropertyOp24
 70
     1
102
RTVSPropertyOp25
 70
     1
102
RTVSPropertyOp26
 70
     1
102
RTVSPropertyOp27
 70
     1
  0
XRECORD
  5
61
102
{ACAD_REACTORS
330
60
102
}
330
60
100
AcDbXrecord
280
     1
102
RTVSPropertyOp0
 70
     1
102
RTVSPropertyOp1
 70
     1
102
RTVSPropertyOp2
 70
     1
102
RTVSPropertyOp3
 70
     1
102
RTVSPropertyOp4
 70
     1
102
RTVSPropertyOp5
 70
     1
102
RTVSPropertyOp6
 70
     1
102
RTVSPropertyOp7
 70
     1
102
RTVSPropertyOp8
 70
     1
102
RTVSPropertyOp9
 70
     1
102
RTVSPropertyOp10
 70
     1
102
RTVSPropertyOp11
 70
     1
102
RTVSPropertyOp12
 70
     1
102
RTVSPropertyOp13
 70
     1
102
RTVSPropertyOp14
 70
     1
102
RTVSPropertyOp15
 70
     1
102
RTVSPropertyOp16
 70
     1
102
RTVSPropertyOp17
 70
     1
102
RTVSPropertyOp18
 70
     1
102
RTVSPropertyOp19
 70
     1
102
RTVSPropertyOp20
 70
     1
102
RTVSPropertyOp21
 70
     1
102
RTVSPropertyOp22
 70
     1
102
RTVSPropertyOp23
 70
     1
102
RTVSPropertyOp24
 70
     1
102
RTVSPropertyOp25
 70
     1
102
RTVSPropertyOp26
 70
     1
102
RTVSPropertyOp27
 70
     1
  0
XRECORD
  5
69
102
{ACAD_REACTORS
330
68
102
}
330
68
100
AcDbXrecord
280
     1
102
RTVSPropertyOp0
 70
     1
102
RTVSPropertyOp1
 70
     1
102
RTVSPropertyOp2
 70
     1
102
RTVSPropertyOp3
 70
     1
102
RTVSPropertyOp4
 70
     1
102
RTVSPropertyOp5
 70
     1
102
RTVSPropertyOp6
 70
     1
102
RTVSPropertyOp7
 70
     1
102
RTVSPropertyOp8
 70
     1
102
RTVSPropertyOp9
 70
     1
102
RTVSPropertyOp10
 70
     1
102
RTVSPropertyOp11
 70
     1
102
RTVSPropertyOp12
 70
     1
102
RTVSPropertyOp13
 70
     1
102
RTVSPropertyOp14
 70
     1
102
RTVSPropertyOp15
 70
     1
102
RTVSPropertyOp16
 70
     1
102
RTVSPropertyOp17
 70
     1
102
RTVSPropertyOp18
 70
     1
102
RTVSPropertyOp19
 70
     1
102
RTVSPropertyOp20
 70
     1
102
RTVSPropertyOp21
 70
     1
102
RTVSPropertyOp22
 70
     1
102
RTVSPropertyOp23
 70
     1
102
RTVSPropertyOp24
 70
     1
102
RTVSPropertyOp25
 70
     1
102
RTVSPropertyOp26
 70
     1
102
RTVSPropertyOp27
 70
     1
  0
ENDSEC
  0
EOF
