  0
SECTION
  2
HEADER
  9
$ACADVER
  1
AC1018
  9
$ACADMAINTVER
 70
    76
  9
$DWGCODEPAGE
  3
ANSI_1252
  9
$INSBASE
 10
0.0
 20
0.0
 30
0.0
  9
$EXTMIN
 10
-0.56259387451124
 20
1.267272971648807
 30
-0.0015258207003583
  9
$EXTMAX
 10
6.454538706388888
 20
5.750381486898266
 30
0.0000000349246037
  9
$LIMMIN
 10
0.0
 20
0.0
  9
$LIMMAX
 10
12.0
 20
9.0
  9
$ORTHOMODE
 70
     0
  9
$REGENMODE
 70
     1
  9
$FILLMODE
 70
     1
  9
$QTEXTMODE
 70
     0
  9
$MIRRTEXT
 70
     0
  9
$LTSCALE
 40
0.000394
  9
$ATTMODE
 70
     1
  9
$TEXTSIZE
 40
0.2
  9
$TRACEWID
 40
0.05
  9
$TEXTSTYLE
  7
Standard
  9
$CLAYER
  8
0
  9
$CELTYPE
  6
CONTINUOUS
  9
$CECOLOR
 62
   256
  9
$CELTSCALE
 40
1.0
  9
$DISPSILH
 70
     0
  9
$DIMSCALE
 40
1.0
  9
$DIMASZ
 40
0.18
  9
$DIMEXO
 40
0.0625
  9
$DIMDLI
 40
0.38
  9
$DIMRND
 40
0.0
  9
$DIMDLE
 40
0.0
  9
$DIMEXE
 40
0.18
  9
$DIMTP
 40
0.0
  9
$DIMTM
 40
0.0
  9
$DIMTXT
 40
0.18
  9
$DIMCEN
 40
0.09
  9
$DIMTSZ
 40
0.0
  9
$DIMTOL
 70
     0
  9
$DIMLIM
 70
     0
  9
$DIMTIH
 70
     1
  9
$DIMTOH
 70
     1
  9
$DIMSE1
 70
     0
  9
$DIMSE2
 70
     0
  9
$DIMTAD
 70
     0
  9
$DIMZIN
 70
     0
  9
$DIMBLK
  1

  9
$DIMASO
 70
     1
  9
$DIMSHO
 70
     1
  9
$DIMPOST
  1

  9
$DIMAPOST
  1

  9
$DIMALT
 70
     0
  9
$DIMALTD
 70
     2
  9
$DIMALTF
 40
25.4
  9
$DIMLFAC
 40
1.0
  9
$DIMTOFL
 70
     0
  9
$DIMTVP
 40
0.0
  9
$DIMTIX
 70
     0
  9
$DIMSOXD
 70
     0
  9
$DIMSAH
 70
     0
  9
$DIMBLK1
  1

  9
$DIMBLK2
  1

  9
$DIMSTYLE
  2
Standard
  9
$DIMCLRD
 70
     0
  9
$DIMCLRE
 70
     0
  9
$DIMCLRT
 70
     0
  9
$DIMTFAC
 40
1.0
  9
$DIMGAP
 40
0.09
  9
$DIMJUST
 70
     0
  9
$DIMSD1
 70
     0
  9
$DIMSD2
 70
     0
  9
$DIMTOLJ
 70
     1
  9
$DIMTZIN
 70
     0
  9
$DIMALTZ
 70
     0
  9
$DIMALTTZ
 70
     0
  9
$DIMUPT
 70
     0
  9
$DIMDEC
 70
     4
  9
$DIMTDEC
 70
     4
  9
$DIMALTU
 70
     2
  9
$DIMALTTD
 70
     2
  9
$DIMTXSTY
  7
Standard
  9
$DIMAUNIT
 70
     0
  9
$DIMADEC
 70
     0
  9
$DIMALTRND
 40
0.0
  9
$DIMAZIN
 70
     0
  9
$DIMDSEP
 70
    46
  9
$DIMATFIT
 70
     3
  9
$DIMFRAC
 70
     0
  9
$DIMLDRBLK
  1

  9
$DIMLUNIT
 70
     2
  9
$DIMLWD
 70
    -2
  9
$DIMLWE
 70
    -2
  9
$DIMTMOVE
 70
     0
  9
$LUNITS
 70
     2
  9
$LUPREC
 70
     4
  9
$SKETCHINC
 40
0.1
  9
$FILLETRAD
 40
0.0
  9
$AUNITS
 70
     0
  9
$AUPREC
 70
     0
  9
$MENU
  1
.
  9
$ELEVATION
 40
0.0
  9
$PELEVATION
 40
0.0
  9
$THICKNESS
 40
0.0
  9
$LIMCHECK
 70
     0
  9
$CHAMFERA
 40
0.0
  9
$CHAMFERB
 40
0.0
  9
$CHAMFERC
 40
0.0
  9
$CHAMFERD
 40
0.0
  9
$SKPOLY
 70
     0
  9
$TDCREATE
 40
2455593.842191122
  9
$TDUCREATE
 40
2455594.050524456
  9
$TDUPDATE
 40
2455593.848276806
  9
$TDUUPDATE
 40
2455594.056610139
  9
$TDINDWG
 40
0.0060858449
  9
$TDUSRTIMER
 40
0.0060858449
  9
$USRTIMER
 70
     1
  9
$ANGBASE
 50
0.0
  9
$ANGDIR
 70
     0
  9
$PDMODE
 70
    35
  9
$PDSIZE
 40
0.000315
  9
$PLINEWID
 40
0.0
  9
$SPLFRAME
 70
     0
  9
$SPLINETYPE
 70
     6
  9
$SPLINESEGS
 70
     8
  9
$HANDSEED
  5
5F0
  9
$SURFTAB1
 70
     6
  9
$SURFTAB2
 70
     6
  9
$SURFTYPE
 70
     6
  9
$SURFU
 70
     6
  9
$SURFV
 70
     6
  9
$UCSBASE
  2

  9
$UCSNAME
  2

  9
$UCSORG
 10
0.0
 20
0.0
 30
0.0
  9
$UCSXDIR
 10
1.0
 20
0.0
 30
0.0
  9
$UCSYDIR
 10
0.0
 20
1.0
 30
0.0
  9
$UCSORTHOREF
  2

  9
$UCSORTHOVIEW
 70
     0
  9
$UCSORGTOP
 10
0.0
 20
0.0
 30
0.0
  9
$UCSORGBOTTOM
 10
0.0
 20
0.0
 30
0.0
  9
$UCSORGLEFT
 10
0.0
 20
0.0
 30
0.0
  9
$UCSORGRIGHT
 10
0.0
 20
0.0
 30
0.0
  9
$UCSORGFRONT
 10
0.0
 20
0.0
 30
0.0
  9
$UCSORGBACK
 10
0.0
 20
0.0
 30
0.0
  9
$PUCSBASE
  2

  9
$PUCSNAME
  2

  9
$PUCSORG
 10
0.0
 20
0.0
 30
0.0
  9
$PUCSXDIR
 10
1.0
 20
0.0
 30
0.0
  9
$PUCSYDIR
 10
0.0
 20
1.0
 30
0.0
  9
$PUCSORTHOREF
  2

  9
$PUCSORTHOVIEW
 70
     0
  9
$PUCSORGTOP
 10
0.0
 20
0.0
 30
0.0
  9
$PUCSORGBOTTOM
 10
0.0
 20
0.0
 30
0.0
  9
$PUCSORGLEFT
 10
0.0
 20
0.0
 30
0.0
  9
$PUCSORGRIGHT
 10
0.0
 20
0.0
 30
0.0
  9
$PUCSORGFRONT
 10
0.0
 20
0.0
 30
0.0
  9
$PUCSORGBACK
 10
0.0
 20
0.0
 30
0.0
  9
$USERI1
 70
     0
  9
$USERI2
 70
     0
  9
$USERI3
 70
     0
  9
$USERI4
 70
     0
  9
$USERI5
 70
     0
  9
$USERR1
 40
0.0
  9
$USERR2
 40
0.0
  9
$USERR3
 40
0.0
  9
$USERR4
 40
0.0
  9
$USERR5
 40
0.0
  9
$WORLDVIEW
 70
     1
  9
$SHADEDGE
 70
     3
  9
$SHADEDIF
 70
    70
  9
$TILEMODE
 70
     1
  9
$MAXACTVP
 70
    64
  9
$PINSBASE
 10
0.0
 20
0.0
 30
0.0
  9
$PLIMCHECK
 70
     0
  9
$PEXTMIN
 10
1.000000000000000E+20
 20
1.000000000000000E+20
 30
1.000000000000000E+20
  9
$PEXTMAX
 10
-1.000000000000000E+20
 20
-1.000000000000000E+20
 30
-1.000000000000000E+20
  9
$PLIMMIN
 10
0.0
 20
0.0
  9
$PLIMMAX
 10
12.0
 20
9.0
  9
$UNITMODE
 70
     0
  9
$VISRETAIN
 70
     1
  9
$PLINEGEN
 70
     0
  9
$PSLTSCALE
 70
     1
  9
$TREEDEPTH
 70
  3020
  9
$CMLSTYLE
  2
Standard
  9
$CMLJUST
 70
     0
  9
$CMLSCALE
 40
1.0
  9
$PROXYGRAPHICS
 70
     1
  9
$MEASUREMENT
 70
     0
  9
$CELWEIGHT
370
    -1
  9
$ENDCAPS
280
     0
  9
$JOINSTYLE
280
     0
  9
$LWDISPLAY
290
     0
  9
$INSUNITS
 70
     0
  9
$HYPERLINKBASE
  1

  9
$STYLESHEET
  1

  9
$XEDIT
290
     1
  9
$CEPSNTYPE
380
     0
  9
$PSTYLEMODE
290
     1
  9
$FINGERPRINTGUID
  2
{521A2F61-9E66-41A6-976B-52B99C625962}
  9
$VERSIONGUID
  2
{D039BF31-63FF-426D-966E-E2A4D2F9ACEB}
  9
$EXTNAMES
290
     1
  9
$PSVPSCALE
 40
0.0
  9
$OLESTARTUP
290
     0
  9
$SORTENTS
280
   127
  9
$INDEXCTL
280
     0
  9
$HIDETEXT
280
     0
  9
$XCLIPFRAME
290
     0
  9
$HALOGAP
280
     0
  9
$OBSCOLOR
 70
   257
  9
$OBSLTYPE
280
     0
  9
$INTERSECTIONDISPLAY
280
     0
  9
$INTERSECTIONCOLOR
 70
   257
  9
$DIMASSOC
280
     1
  9
$PROJECTNAME
  1

  0
ENDSEC
  0
SECTION
  2
CLASSES
  0
CLASS
  1
ACDBDICTIONARYWDFLT
  2
AcDbDictionaryWithDefault
  3
ObjectDBX Classes
 90
        0
 91
        1
280
     0
281
     0
  0
CLASS
  1
TABLESTYLE
  2
AcDbTableStyle
  3
ObjectDBX Classes
 90
     2047
 91
        1
280
     0
281
     0
  0
CLASS
  1
SORTENTSTABLE
  2
AcDbSortentsTable
  3
ObjectDBX Classes
 90
        0
 91
        2
280
     0
281
     0
  0
CLASS
  1
DICTIONARYVAR
  2
AcDbDictionaryVar
  3
ObjectDBX Classes
 90
        0
 91
        1
280
     0
281
     0
  0
ENDSEC
  0
SECTION
  2
TABLES
  0
TABLE
  2
VPORT
  5
8
330
0
100
AcDbSymbolTable
 70
     3
  0
VPORT
  5
5EF
330
8
100
AcDbSymbolTableRecord
100
AcDbViewportTableRecord
  2
*Active
 70
     0
 10
0.0
 20
0.0
 11
1.0
 21
1.0
 12
2.945972415938824
 22
3.508827229273537
 13
0.0
 23
0.0
 14
1.0
 24
1.0
 15
0.0
 25
0.0
 16
0.0
 26
0.0
 36
1.0
 17
0.0
 27
0.0
 37
0.0
 40
4.53755922596099
 41
2.046653144016226
 42
50.0
 43
0.0
 44
0.0
 50
0.0
 51
0.0
 71
     0
 72
   100
 73
     1
 74
     1
 75
     0
 76
     0
 77
     0
 78
     0
281
     0
 65
     1
110
0.0
120
0.0
130
0.0
111
1.0
121
0.0
131
0.0
112
0.0
122
1.0
132
0.0
 79
     0
146
0.0
  0
ENDTAB
  0
TABLE
  2
LTYPE
  5
5
330
0
100
AcDbSymbolTable
 70
    10
  0
LTYPE
  5
13
330
5
100
AcDbSymbolTableRecord
100
AcDbLinetypeTableRecord
  2
ByBlock
 70
     0
  3

 72
    65
 73
     0
 40
0.0
  0
LTYPE
  5
14
330
5
100
AcDbSymbolTableRecord
100
AcDbLinetypeTableRecord
  2
ByLayer
 70
     0
  3

 72
    65
 73
     0
 40
0.0
  0
LTYPE
  5
15
330
5
100
AcDbSymbolTableRecord
100
AcDbLinetypeTableRecord
  2
CONTINUOUS
 70
     0
  3
Solid line
 72
    65
 73
     0
 40
0.0
  0
LTYPE
  5
26
330
5
100
AcDbSymbolTableRecord
100
AcDbLinetypeTableRecord
  2
DASHED
 70
     0
  3
__ __ __ __ __ __ __ __ __ __ __ __ __ __ __
 72
    65
 73
     2
 40
0.000003
 49
0.000002
 74
     0
 49
-0.000001
 74
     0
  0
LTYPE
  5
27
330
5
100
AcDbSymbolTableRecord
100
AcDbLinetypeTableRecord
  2
HIDDEN
 70
     0
  3
 _ _ _ _ _ _ _ _ _ _ _ _ _ _ _ _ _ _ _ _ _ _
 72
    65
 73
     2
 40
0.000001
 49
0.000001
 74
     0
 49
0.0
 74
     0
  0
LTYPE
  5
28
330
5
100
AcDbSymbolTableRecord
100
AcDbLinetypeTableRecord
  2
CENTER
 70
     0
  3
____ _ ____ _ ____ _ ____ _ ____ _ ____ _ ____
 72
    65
 73
     4
 40
0.000008
 49
0.000005
 74
     0
 49
-0.000001
 74
     0
 49
0.000001
 74
     0
 49
-0.000001
 74
     0
  0
LTYPE
  5
29
330
5
100
AcDbSymbolTableRecord
100
AcDbLinetypeTableRecord
  2
PHANTOM
 70
     0
  3
_____ _ _ _____ _ _ _____ _ _ _____ _ _ ____
 72
    65
 73
     6
 40
0.00001
 49
0.000005
 74
     0
 49
-0.000001
 74
     0
 49
0.000001
 74
     0
 49
-0.000001
 74
     0
 49
0.000001
 74
     0
 49
-0.000001
 74
     0
  0
LTYPE
  5
2A
330
5
100
AcDbSymbolTableRecord
100
AcDbLinetypeTableRecord
  2
DOT
 70
     0
  3
...............................................
 72
    65
 73
     2
 40
0.000001
 49
0.0
 74
     0
 49
-0.000001
 74
     0
  0
LTYPE
  5
2B
330
5
100
AcDbSymbolTableRecord
100
AcDbLinetypeTableRecord
  2
DASHDOT
 70
     0
  3
__ . __ . __ . __ . __ . __ . __ . __ . __ . __
 72
    65
 73
     4
 40
0.000004
 49
0.000002
 74
     0
 49
-0.000001
 74
     0
 49
0.0
 74
     0
 49
-0.000001
 74
     0
  0
LTYPE
  5
2C
330
5
100
AcDbSymbolTableRecord
100
AcDbLinetypeTableRecord
  2
BORDER
 70
     0
  3
__ __ . __ __ . __ __ . __ __ . __ __ . __ __
 72
    65
 73
     6
 40
0.000007
 49
0.000002
 74
     0
 49
-0.000001
 74
     0
 49
0.000002
 74
     0
 49
-0.000001
 74
     0
 49
0.0
 74
     0
 49
-0.000001
 74
     0
  0
LTYPE
  5
2D
330
5
100
AcDbSymbolTableRecord
100
AcDbLinetypeTableRecord
  2
DIVIDE
 70
     0
  3
__ . . __ . . __ . . __ . . __ . . __ . . __
 72
    65
 73
     6
 40
0.000005
 49
0.000002
 74
     0
 49
-0.000001
 74
     0
 49
0.0
 74
     0
 49
-0.000001
 74
     0
 49
0.0
 74
     0
 49
-0.000001
 74
     0
  0
LTYPE
  5
2E
330
5
100
AcDbSymbolTableRecord
100
AcDbLinetypeTableRecord
  2
DOTDOT
 70
     0
  3
 . .  . .  . .  . .  . .  . . 
 72
    65
 73
     5
 40
0.000002
 49
-0.000001
 74
     0
 49
0.0
 74
     0
 49
-0.000001
 74
     0
 49
0.0
 74
     0
 49
-0.000001
 74
     0
  0
ENDTAB
  0
TABLE
  2
LAYER
  5
2
330
0
100
AcDbSymbolTable
 70
     4
  0
LAYER
  5
10
330
2
100
AcDbSymbolTableRecord
100
AcDbLayerTableRecord
  2
0
 70
     0
 62
     7
  6
CONTINUOUS
370
    -3
390
F
  0
LAYER
  5
2F
330
2
100
AcDbSymbolTableRecord
100
AcDbLayerTableRecord
  2
FOREGROUND
 70
     0
 62
     7
  6
CONTINUOUS
370
    -3
390
F
  0
LAYER
  5
30
330
2
100
AcDbSymbolTableRecord
100
AcDbLayerTableRecord
  2
BACKGROUND
 70
     1
 62
    -7
  6
CONTINUOUS
370
    -3
390
F
  0
LAYER
  5
31
330
2
100
AcDbSymbolTableRecord
100
AcDbLayerTableRecord
  2
LAYER_1
 70
     0
 62
     7
  6
CONTINUOUS
370
    -3
390
F
  0
ENDTAB
  0
TABLE
  2
STYLE
  5
3
330
0
100
AcDbSymbolTable
 70
     1
  0
STYLE
  5
11
330
3
100
AcDbSymbolTableRecord
100
AcDbTextStyleTableRecord
  2
Standard
 70
     0
 40
0.0
 41
1.0
 50
0.0
 71
     0
 42
0.2
  3
txt
  4

  0
ENDTAB
  0
TABLE
  2
VIEW
  5
6
330
0
100
AcDbSymbolTable
 70
     0
  0
ENDTAB
  0
TABLE
  2
UCS
  5
7
330
0
100
AcDbSymbolTable
 70
     0
  0
ENDTAB
  0
TABLE
  2
APPID
  5
9
330
0
100
AcDbSymbolTable
 70
     1
  0
APPID
  5
12
330
9
100
AcDbSymbolTableRecord
100
AcDbRegAppTableRecord
  2
ACAD
 70
     0
  0
ENDTAB
  0
TABLE
  2
DIMSTYLE
  5
A
330
0
100
AcDbSymbolTable
 70
     1
100
AcDbDimStyleTable
 71
     0
  0
DIMSTYLE
105
21C
330
A
100
AcDbSymbolTableRecord
100
AcDbDimStyleTableRecord
  2
Standard
 70
     0
340
11
  0
ENDTAB
  0
TABLE
  2
BLOCK_RECORD
  5
1
330
0
100
AcDbSymbolTable
 70
     0
  0
BLOCK_RECORD
  5
22
102
{ACAD_XDICTIONARY
360
5EA
102
}
330
1
100
AcDbSymbolTableRecord
100
AcDbBlockTableRecord
  2
*Model_Space
340
25
  0
BLOCK_RECORD
  5
1E
330
1
100
AcDbSymbolTableRecord
100
AcDbBlockTableRecord
  2
*Paper_Space
340
21
  0
ENDTAB
  0
ENDSEC
  0
SECTION
  2
BLOCKS
  0
BLOCK
  5
23
330
22
100
AcDbEntity
  8
0
100
AcDbBlockBegin
  2
*Model_Space
 70
     0
 10
0.0
 20
0.0
 30
0.0
  3
*Model_Space
  1

  0
ENDBLK
  5
24
330
22
100
AcDbEntity
  8
0
100
AcDbBlockEnd
  0
BLOCK
  5
1F
330
1E
100
AcDbEntity
 67
     1
  8
0
100
AcDbBlockBegin
  2
*Paper_Space
 70
     0
 10
0.0
 20
0.0
 30
0.0
  3
*Paper_Space
  1

  0
ENDBLK
  5
20
330
1E
100
AcDbEntity
 67
     1
  8
0
100
AcDbBlockEnd
  0
ENDSEC
  0
SECTION
  2
ENTITIES
  0
LINE
  5
405
330
22
100
AcDbEntity
  8
LAYER_1
  6
Continuous
 62
    39
100
AcDbLine
 10
6.453866
 20
1.598397999999999
 30
0.0
 11
6.422099
 21
1.562652
 31
0.0
  0
LINE
  5
406
330
22
100
AcDbEntity
  8
LAYER_1
  6
Continuous
 62
    39
100
AcDbLine
 10
6.422099
 20
1.562652
 30
0.0
 11
6.389643
 21
1.528948999999999
 31
0.0
  0
LINE
  5
407
330
22
100
AcDbEntity
  8
LAYER_1
  6
Continuous
 62
    39
100
AcDbLine
 10
6.389643
 20
1.528948999999999
 30
0.0
 11
6.356498
 21
1.497288999999999
 31
0.0
  0
LINE
  5
408
330
22
100
AcDbEntity
  8
LAYER_1
  6
Continuous
 62
    39
100
AcDbLine
 10
6.356498
 20
1.497288999999999
 30
0.0
 11
6.322664999999999
 21
1.467670999999999
 31
0.0
  0
LINE
  5
409
330
22
100
AcDbEntity
  8
LAYER_1
  6
Continuous
 62
    39
100
AcDbLine
 10
6.322664999999999
 20
1.467670999999999
 30
0.0
 11
6.288141999999999
 21
1.440095999999999
 31
0.0
  0
LINE
  5
40A
330
22
100
AcDbEntity
  8
LAYER_1
  6
Continuous
 62
    39
100
AcDbLine
 10
6.288141999999999
 20
1.440095999999999
 30
0.0
 11
6.252930999999999
 21
1.414563999999999
 31
0.0
  0
LINE
  5
40B
330
22
100
AcDbEntity
  8
LAYER_1
  6
Continuous
 62
    39
100
AcDbLine
 10
6.252930999999999
 20
1.414563999999999
 30
0.0
 11
6.217030999999999
 21
1.391073999999999
 31
0.0
  0
LINE
  5
40C
330
22
100
AcDbEntity
  8
LAYER_1
  6
Continuous
 62
    39
100
AcDbLine
 10
6.217030999999999
 20
1.391073999999999
 30
0.0
 11
6.180443
 21
1.369627
 31
0.0
  0
LINE
  5
40D
330
22
100
AcDbEntity
  8
LAYER_1
  6
Continuous
 62
    39
100
AcDbLine
 10
6.180443
 20
1.369627
 30
0.0
 11
6.143164999999999
 21
1.350222999999999
 31
0.0
  0
LINE
  5
40E
330
22
100
AcDbEntity
  8
LAYER_1
  6
Continuous
 62
    39
100
AcDbLine
 10
6.143164999999999
 20
1.350222999999999
 30
0.0
 11
6.105198999999999
 21
1.332861
 31
0.0
  0
LINE
  5
40F
330
22
100
AcDbEntity
  8
LAYER_1
  6
Continuous
 62
    39
100
AcDbLine
 10
6.105198999999999
 20
1.332861
 30
0.0
 11
6.066544999999999
 21
1.317541999999999
 31
0.0
  0
LINE
  5
410
330
22
100
AcDbEntity
  8
LAYER_1
  6
Continuous
 62
    39
100
AcDbLine
 10
6.066544999999999
 20
1.317541999999999
 30
0.0
 11
6.027200999999999
 21
1.304265999999999
 31
0.0
  0
LINE
  5
411
330
22
100
AcDbEntity
  8
LAYER_1
  6
Continuous
 62
    39
100
AcDbLine
 10
6.027200999999999
 20
1.304265999999999
 30
0.0
 11
5.987169
 21
1.293031999999999
 31
0.0
  0
LINE
  5
412
330
22
100
AcDbEntity
  8
LAYER_1
  6
Continuous
 62
    39
100
AcDbLine
 10
5.987169
 20
1.293031999999999
 30
0.0
 11
5.946448999999999
 21
1.283839999999999
 31
0.0
  0
LINE
  5
413
330
22
100
AcDbEntity
  8
LAYER_1
  6
Continuous
 62
    39
100
AcDbLine
 10
5.946448999999999
 20
1.283839999999999
 30
0.0
 11
5.90504
 21
1.276691
 31
0.0
  0
LINE
  5
414
330
22
100
AcDbEntity
  8
LAYER_1
  6
Continuous
 62
    39
100
AcDbLine
 10
5.90504
 20
1.276691
 30
0.0
 11
5.862941999999999
 21
1.271584999999999
 31
0.0
  0
LINE
  5
415
330
22
100
AcDbEntity
  8
LAYER_1
  6
Continuous
 62
    39
100
AcDbLine
 10
5.862941999999999
 20
1.271584999999999
 30
0.0
 11
5.820155999999999
 21
1.268521
 31
0.0
  0
LINE
  5
416
330
22
100
AcDbEntity
  8
LAYER_1
  6
Continuous
 62
    39
100
AcDbLine
 10
5.820155999999999
 20
1.268521
 30
0.0
 11
5.776680999999999
 21
1.2675
 31
0.0
  0
LINE
  5
417
330
22
100
AcDbEntity
  8
LAYER_1
  6
Continuous
 62
    39
100
AcDbLine
 10
5.776680999999999
 20
1.2675
 30
0.0
 11
5.728977999999999
 21
1.267892999999999
 31
0.0
  0
LINE
  5
418
330
22
100
AcDbEntity
  8
LAYER_1
  6
Continuous
 62
    39
100
AcDbLine
 10
5.728977999999999
 20
1.267892999999999
 30
0.0
 11
5.681764
 21
1.269071999999999
 31
0.0
  0
LINE
  5
419
330
22
100
AcDbEntity
  8
LAYER_1
  6
Continuous
 62
    39
100
AcDbLine
 10
5.681764
 20
1.269071999999999
 30
0.0
 11
5.63504
 21
1.271036999999999
 31
0.0
  0
LINE
  5
41A
330
22
100
AcDbEntity
  8
LAYER_1
  6
Continuous
 62
    39
100
AcDbLine
 10
5.63504
 20
1.271036999999999
 30
0.0
 11
5.588805999999999
 21
1.273787999999999
 31
0.0
  0
LINE
  5
41B
330
22
100
AcDbEntity
  8
LAYER_1
  6
Continuous
 62
    39
100
AcDbLine
 10
5.588805999999999
 20
1.273787999999999
 30
0.0
 11
5.543059999999999
 21
1.277328
 31
0.0
  0
LINE
  5
41C
330
22
100
AcDbEntity
  8
LAYER_1
  6
Continuous
 62
    39
100
AcDbLine
 10
5.543059999999999
 20
1.277328
 30
0.0
 11
5.497805
 21
1.281654
 31
0.0
  0
LINE
  5
41D
330
22
100
AcDbEntity
  8
LAYER_1
  6
Continuous
 62
    39
100
AcDbLine
 10
5.497805
 20
1.281654
 30
0.0
 11
5.453037999999999
 21
1.286769
 31
0.0
  0
LINE
  5
41E
330
22
100
AcDbEntity
  8
LAYER_1
  6
Continuous
 62
    39
100
AcDbLine
 10
5.453037999999999
 20
1.286769
 30
0.0
 11
5.408761
 21
1.292672
 31
0.0
  0
LINE
  5
41F
330
22
100
AcDbEntity
  8
LAYER_1
  6
Continuous
 62
    39
100
AcDbLine
 10
5.408761
 20
1.292672
 30
0.0
 11
5.364974
 21
1.299364999999999
 31
0.0
  0
LINE
  5
420
330
22
100
AcDbEntity
  8
LAYER_1
  6
Continuous
 62
    39
100
AcDbLine
 10
5.364974
 20
1.299364999999999
 30
0.0
 11
5.321676
 21
1.306846999999999
 31
0.0
  0
LINE
  5
421
330
22
100
AcDbEntity
  8
LAYER_1
  6
Continuous
 62
    39
100
AcDbLine
 10
5.321676
 20
1.306846999999999
 30
0.0
 11
5.278868
 21
1.315118
 31
0.0
  0
LINE
  5
422
330
22
100
AcDbEntity
  8
LAYER_1
  6
Continuous
 62
    39
100
AcDbLine
 10
5.278868
 20
1.315118
 30
0.0
 11
5.236549
 21
1.324179999999999
 31
0.0
  0
LINE
  5
423
330
22
100
AcDbEntity
  8
LAYER_1
  6
Continuous
 62
    39
100
AcDbLine
 10
5.236549
 20
1.324179999999999
 30
0.0
 11
5.194719999999999
 21
1.334033
 31
0.0
  0
LINE
  5
424
330
22
100
AcDbEntity
  8
LAYER_1
  6
Continuous
 62
    39
100
AcDbLine
 10
5.194719999999999
 20
1.334033
 30
0.0
 11
5.15338
 21
1.344677
 31
0.0
  0
LINE
  5
425
330
22
100
AcDbEntity
  8
LAYER_1
  6
Continuous
 62
    39
100
AcDbLine
 10
5.15338
 20
1.344677
 30
0.0
 11
5.11253
 21
1.356111999999999
 31
0.0
  0
LINE
  5
426
330
22
100
AcDbEntity
  8
LAYER_1
  6
Continuous
 62
    39
100
AcDbLine
 10
5.11253
 20
1.356111999999999
 30
0.0
 11
5.072169999999999
 21
1.368339999999999
 31
0.0
  0
LINE
  5
427
330
22
100
AcDbEntity
  8
LAYER_1
  6
Continuous
 62
    39
100
AcDbLine
 10
5.072169999999999
 20
1.368339999999999
 30
0.0
 11
5.032299
 21
1.38136
 31
0.0
  0
LINE
  5
428
330
22
100
AcDbEntity
  8
LAYER_1
  6
Continuous
 62
    39
100
AcDbLine
 10
5.032299
 20
1.38136
 30
0.0
 11
4.992916999999999
 21
1.395172999999999
 31
0.0
  0
LINE
  5
429
330
22
100
AcDbEntity
  8
LAYER_1
  6
Continuous
 62
    39
100
AcDbLine
 10
4.992916999999999
 20
1.395172999999999
 30
0.0
 11
4.954024999999999
 21
1.409779
 31
0.0
  0
LINE
  5
42A
330
22
100
AcDbEntity
  8
LAYER_1
  6
Continuous
 62
    39
100
AcDbLine
 10
4.954024999999999
 20
1.409779
 30
0.0
 11
4.915623
 21
1.425179999999999
 31
0.0
  0
LINE
  5
42B
330
22
100
AcDbEntity
  8
LAYER_1
  6
Continuous
 62
    39
100
AcDbLine
 10
4.915623
 20
1.425179999999999
 30
0.0
 11
4.877710999999999
 21
1.441373999999999
 31
0.0
  0
LINE
  5
42C
330
22
100
AcDbEntity
  8
LAYER_1
  6
Continuous
 62
    39
100
AcDbLine
 10
4.877710999999999
 20
1.441373999999999
 30
0.0
 11
4.840288
 21
1.458362999999999
 31
0.0
  0
LINE
  5
42D
330
22
100
AcDbEntity
  8
LAYER_1
  6
Continuous
 62
    39
100
AcDbLine
 10
4.840288
 20
1.458362999999999
 30
0.0
 11
4.803353999999999
 21
1.476146999999999
 31
0.0
  0
LINE
  5
42E
330
22
100
AcDbEntity
  8
LAYER_1
  6
Continuous
 62
    39
100
AcDbLine
 10
4.803353999999999
 20
1.476146999999999
 30
0.0
 11
4.766911
 21
1.494727
 31
0.0
  0
LINE
  5
42F
330
22
100
AcDbEntity
  8
LAYER_1
  6
Continuous
 62
    39
100
AcDbLine
 10
4.766911
 20
1.494727
 30
0.0
 11
4.730957
 21
1.514102999999999
 31
0.0
  0
LINE
  5
430
330
22
100
AcDbEntity
  8
LAYER_1
  6
Continuous
 62
    39
100
AcDbLine
 10
4.730957
 20
1.514102999999999
 30
0.0
 11
4.695491999999999
 21
1.534276
 31
0.0
  0
LINE
  5
431
330
22
100
AcDbEntity
  8
LAYER_1
  6
Continuous
 62
    39
100
AcDbLine
 10
4.695491999999999
 20
1.534276
 30
0.0
 11
4.695491999999999
 21
1.534276
 31
0.0
  0
LINE
  5
432
330
22
100
AcDbEntity
  8
LAYER_1
  6
Continuous
 62
    39
100
AcDbLine
 10
4.695491999999999
 20
1.534276
 30
0.0
 11
4.651595999999999
 21
1.560424
 31
0.0
  0
LINE
  5
433
330
22
100
AcDbEntity
  8
LAYER_1
  6
Continuous
 62
    39
100
AcDbLine
 10
4.651595999999999
 20
1.560424
 30
0.0
 11
4.609687
 21
1.587199
 31
0.0
  0
LINE
  5
434
330
22
100
AcDbEntity
  8
LAYER_1
  6
Continuous
 62
    39
100
AcDbLine
 10
4.609687
 20
1.587199
 30
0.0
 11
4.569761999999999
 21
1.614600999999999
 31
0.0
  0
LINE
  5
435
330
22
100
AcDbEntity
  8
LAYER_1
  6
Continuous
 62
    39
100
AcDbLine
 10
4.569761999999999
 20
1.614600999999999
 30
0.0
 11
4.531819999999999
 21
1.642629
 31
0.0
  0
LINE
  5
436
330
22
100
AcDbEntity
  8
LAYER_1
  6
Continuous
 62
    39
100
AcDbLine
 10
4.531819999999999
 20
1.642629
 30
0.0
 11
4.495855999999999
 21
1.671281
 31
0.0
  0
LINE
  5
437
330
22
100
AcDbEntity
  8
LAYER_1
  6
Continuous
 62
    39
100
AcDbLine
 10
4.495855999999999
 20
1.671281
 30
0.0
 11
4.461869999999999
 21
1.700558
 31
0.0
  0
LINE
  5
438
330
22
100
AcDbEntity
  8
LAYER_1
  6
Continuous
 62
    39
100
AcDbLine
 10
4.461869999999999
 20
1.700558
 30
0.0
 11
4.429858
 21
1.730456999999999
 31
0.0
  0
LINE
  5
439
330
22
100
AcDbEntity
  8
LAYER_1
  6
Continuous
 62
    39
100
AcDbLine
 10
4.429858
 20
1.730456999999999
 30
0.0
 11
4.399817999999999
 21
1.760979
 31
0.0
  0
LINE
  5
43A
330
22
100
AcDbEntity
  8
LAYER_1
  6
Continuous
 62
    39
100
AcDbLine
 10
4.399817999999999
 20
1.760979
 30
0.0
 11
4.371748
 21
1.792122999999999
 31
0.0
  0
LINE
  5
43B
330
22
100
AcDbEntity
  8
LAYER_1
  6
Continuous
 62
    39
100
AcDbLine
 10
4.371748
 20
1.792122999999999
 30
0.0
 11
4.345644
 21
1.823886999999999
 31
0.0
  0
LINE
  5
43C
330
22
100
AcDbEntity
  8
LAYER_1
  6
Continuous
 62
    39
100
AcDbLine
 10
4.345644
 20
1.823886999999999
 30
0.0
 11
4.321505
 21
1.856270999999999
 31
0.0
  0
LINE
  5
43D
330
22
100
AcDbEntity
  8
LAYER_1
  6
Continuous
 62
    39
100
AcDbLine
 10
4.321505
 20
1.856270999999999
 30
0.0
 11
4.299328
 21
1.889274999999999
 31
0.0
  0
LINE
  5
43E
330
22
100
AcDbEntity
  8
LAYER_1
  6
Continuous
 62
    39
100
AcDbLine
 10
4.299328
 20
1.889274999999999
 30
0.0
 11
4.27911
 21
1.922895999999999
 31
0.0
  0
LINE
  5
43F
330
22
100
AcDbEntity
  8
LAYER_1
  6
Continuous
 62
    39
100
AcDbLine
 10
4.27911
 20
1.922895999999999
 30
0.0
 11
4.260848999999999
 21
1.957133999999999
 31
0.0
  0
LINE
  5
440
330
22
100
AcDbEntity
  8
LAYER_1
  6
Continuous
 62
    39
100
AcDbLine
 10
4.260848999999999
 20
1.957133999999999
 30
0.0
 11
4.244543
 21
1.99199
 31
0.0
  0
LINE
  5
441
330
22
100
AcDbEntity
  8
LAYER_1
  6
Continuous
 62
    39
100
AcDbLine
 10
4.244543
 20
1.99199
 30
0.0
 11
4.230188
 21
2.02746
 31
0.0
  0
LINE
  5
442
330
22
100
AcDbEntity
  8
LAYER_1
  6
Continuous
 62
    39
100
AcDbLine
 10
4.230188
 20
2.02746
 30
0.0
 11
4.217782999999999
 21
2.063546
 31
0.0
  0
LINE
  5
443
330
22
100
AcDbEntity
  8
LAYER_1
  6
Continuous
 62
    39
100
AcDbLine
 10
4.217782999999999
 20
2.063546
 30
0.0
 11
4.207324999999999
 21
2.100245
 31
0.0
  0
LINE
  5
444
330
22
100
AcDbEntity
  8
LAYER_1
  6
Continuous
 62
    39
100
AcDbLine
 10
4.207324999999999
 20
2.100245
 30
0.0
 11
4.198811
 21
2.137558
 31
0.0
  0
LINE
  5
445
330
22
100
AcDbEntity
  8
LAYER_1
  6
Continuous
 62
    39
100
AcDbLine
 10
4.198811
 20
2.137558
 30
0.0
 11
4.192238999999999
 21
2.175483
 31
0.0
  0
LINE
  5
446
330
22
100
AcDbEntity
  8
LAYER_1
  6
Continuous
 62
    39
100
AcDbLine
 10
4.192238999999999
 20
2.175483
 30
0.0
 11
4.187605999999999
 21
2.21402
 31
0.0
  0
LINE
  5
447
330
22
100
AcDbEntity
  8
LAYER_1
  6
Continuous
 62
    39
100
AcDbLine
 10
4.187605999999999
 20
2.21402
 30
0.0
 11
4.145722
 21
2.204686999999999
 31
0.0
  0
LINE
  5
448
330
22
100
AcDbEntity
  8
LAYER_1
  6
Continuous
 62
    39
100
AcDbLine
 10
4.145722
 20
2.204686999999999
 30
0.0
 11
4.103691999999999
 21
2.195670999999999
 31
0.0
  0
LINE
  5
449
330
22
100
AcDbEntity
  8
LAYER_1
  6
Continuous
 62
    39
100
AcDbLine
 10
4.103691999999999
 20
2.195670999999999
 30
0.0
 11
4.061518
 21
2.186971999999999
 31
0.0
  0
LINE
  5
44A
330
22
100
AcDbEntity
  8
LAYER_1
  6
Continuous
 62
    39
100
AcDbLine
 10
4.061518
 20
2.186971999999999
 30
0.0
 11
4.019198999999999
 21
2.178587999999999
 31
0.0
  0
LINE
  5
44B
330
22
100
AcDbEntity
  8
LAYER_1
  6
Continuous
 62
    39
100
AcDbLine
 10
4.019198999999999
 20
2.178587999999999
 30
0.0
 11
3.976736
 21
2.170520999999999
 31
0.0
  0
LINE
  5
44C
330
22
100
AcDbEntity
  8
LAYER_1
  6
Continuous
 62
    39
100
AcDbLine
 10
3.976736
 20
2.170520999999999
 30
0.0
 11
3.934129
 21
2.16277
 31
0.0
  0
LINE
  5
44D
330
22
100
AcDbEntity
  8
LAYER_1
  6
Continuous
 62
    39
100
AcDbLine
 10
3.934129
 20
2.16277
 30
0.0
 11
3.891379
 21
2.155336
 31
0.0
  0
LINE
  5
44E
330
22
100
AcDbEntity
  8
LAYER_1
  6
Continuous
 62
    39
100
AcDbLine
 10
3.891379
 20
2.155336
 30
0.0
 11
3.848485999999999
 21
2.148217999999999
 31
0.0
  0
LINE
  5
44F
330
22
100
AcDbEntity
  8
LAYER_1
  6
Continuous
 62
    39
100
AcDbLine
 10
3.848485999999999
 20
2.148217999999999
 30
0.0
 11
3.805448999999999
 21
2.141415999999999
 31
0.0
  0
LINE
  5
450
330
22
100
AcDbEntity
  8
LAYER_1
  6
Continuous
 62
    39
100
AcDbLine
 10
3.805448999999999
 20
2.141415999999999
 30
0.0
 11
3.762269999999999
 21
2.134930999999999
 31
0.0
  0
LINE
  5
451
330
22
100
AcDbEntity
  8
LAYER_1
  6
Continuous
 62
    39
100
AcDbLine
 10
3.762269999999999
 20
2.134930999999999
 30
0.0
 11
3.718948999999999
 21
2.128762
 31
0.0
  0
LINE
  5
452
330
22
100
AcDbEntity
  8
LAYER_1
  6
Continuous
 62
    39
100
AcDbLine
 10
3.718948999999999
 20
2.128762
 30
0.0
 11
3.675484999999999
 21
2.122908999999999
 31
0.0
  0
LINE
  5
453
330
22
100
AcDbEntity
  8
LAYER_1
  6
Continuous
 62
    39
100
AcDbLine
 10
3.675484999999999
 20
2.122908999999999
 30
0.0
 11
3.631879
 21
2.117373
 31
0.0
  0
LINE
  5
454
330
22
100
AcDbEntity
  8
LAYER_1
  6
Continuous
 62
    39
100
AcDbLine
 10
3.631879
 20
2.117373
 30
0.0
 11
3.588131999999999
 21
2.112152999999999
 31
0.0
  0
LINE
  5
455
330
22
100
AcDbEntity
  8
LAYER_1
  6
Continuous
 62
    39
100
AcDbLine
 10
3.588131999999999
 20
2.112152999999999
 30
0.0
 11
3.544242999999999
 21
2.107249
 31
0.0
  0
LINE
  5
456
330
22
100
AcDbEntity
  8
LAYER_1
  6
Continuous
 62
    39
100
AcDbLine
 10
3.544242999999999
 20
2.107249
 30
0.0
 11
3.500212999999999
 21
2.102662
 31
0.0
  0
LINE
  5
457
330
22
100
AcDbEntity
  8
LAYER_1
  6
Continuous
 62
    39
100
AcDbLine
 10
3.500212999999999
 20
2.102662
 30
0.0
 11
3.456043
 21
2.098390999999999
 31
0.0
  0
LINE
  5
458
330
22
100
AcDbEntity
  8
LAYER_1
  6
Continuous
 62
    39
100
AcDbLine
 10
3.456043
 20
2.098390999999999
 30
0.0
 11
3.411731999999999
 21
2.094435999999999
 31
0.0
  0
LINE
  5
459
330
22
100
AcDbEntity
  8
LAYER_1
  6
Continuous
 62
    39
100
AcDbLine
 10
3.411731999999999
 20
2.094435999999999
 30
0.0
 11
3.36728
 21
2.090797999999999
 31
0.0
  0
LINE
  5
45A
330
22
100
AcDbEntity
  8
LAYER_1
  6
Continuous
 62
    39
100
AcDbLine
 10
3.36728
 20
2.090797999999999
 30
0.0
 11
3.322689
 21
2.087475999999999
 31
0.0
  0
LINE
  5
45B
330
22
100
AcDbEntity
  8
LAYER_1
  6
Continuous
 62
    39
100
AcDbLine
 10
3.322689
 20
2.087475999999999
 30
0.0
 11
3.277958
 21
2.084470999999999
 31
0.0
  0
LINE
  5
45C
330
22
100
AcDbEntity
  8
LAYER_1
  6
Continuous
 62
    39
100
AcDbLine
 10
3.277958
 20
2.084470999999999
 30
0.0
 11
3.233087999999999
 21
2.081781
 31
0.0
  0
LINE
  5
45D
330
22
100
AcDbEntity
  8
LAYER_1
  6
Continuous
 62
    39
100
AcDbLine
 10
3.233087999999999
 20
2.081781
 30
0.0
 11
3.188077999999999
 21
2.079409
 31
0.0
  0
LINE
  5
45E
330
22
100
AcDbEntity
  8
LAYER_1
  6
Continuous
 62
    39
100
AcDbLine
 10
3.188077999999999
 20
2.079409
 30
0.0
 11
3.142929999999999
 21
2.077351999999999
 31
0.0
  0
LINE
  5
45F
330
22
100
AcDbEntity
  8
LAYER_1
  6
Continuous
 62
    39
100
AcDbLine
 10
3.142929999999999
 20
2.077351999999999
 30
0.0
 11
3.097643
 21
2.075612
 31
0.0
  0
LINE
  5
460
330
22
100
AcDbEntity
  8
LAYER_1
  6
Continuous
 62
    39
100
AcDbLine
 10
3.097643
 20
2.075612
 30
0.0
 11
3.052216999999999
 21
2.074187999999999
 31
0.0
  0
LINE
  5
461
330
22
100
AcDbEntity
  8
LAYER_1
  6
Continuous
 62
    39
100
AcDbLine
 10
3.052216999999999
 20
2.074187999999999
 30
0.0
 11
3.006654
 21
2.073081
 31
0.0
  0
LINE
  5
462
330
22
100
AcDbEntity
  8
LAYER_1
  6
Continuous
 62
    39
100
AcDbLine
 10
3.006654
 20
2.073081
 30
0.0
 11
2.960952
 21
2.07229
 31
0.0
  0
LINE
  5
463
330
22
100
AcDbEntity
  8
LAYER_1
  6
Continuous
 62
    39
100
AcDbLine
 10
2.960952
 20
2.07229
 30
0.0
 11
2.915113999999999
 21
2.071816
 31
0.0
  0
LINE
  5
464
330
22
100
AcDbEntity
  8
LAYER_1
  6
Continuous
 62
    39
100
AcDbLine
 10
2.915113999999999
 20
2.071816
 30
0.0
 11
2.869137999999999
 21
2.071657
 31
0.0
  0
LINE
  5
465
330
22
100
AcDbEntity
  8
LAYER_1
  6
Continuous
 62
    39
100
AcDbLine
 10
2.869137999999999
 20
2.071657
 30
0.0
 11
2.821127999999999
 21
2.071811999999999
 31
0.0
  0
LINE
  5
466
330
22
100
AcDbEntity
  8
LAYER_1
  6
Continuous
 62
    39
100
AcDbLine
 10
2.821127999999999
 20
2.071811999999999
 30
0.0
 11
2.773355
 21
2.072276
 31
0.0
  0
LINE
  5
467
330
22
100
AcDbEntity
  8
LAYER_1
  6
Continuous
 62
    39
100
AcDbLine
 10
2.773355
 20
2.072276
 30
0.0
 11
2.725817999999999
 21
2.073049999999999
 31
0.0
  0
LINE
  5
468
330
22
100
AcDbEntity
  8
LAYER_1
  6
Continuous
 62
    39
100
AcDbLine
 10
2.725817999999999
 20
2.073049999999999
 30
0.0
 11
2.678518999999999
 21
2.074133999999999
 31
0.0
  0
LINE
  5
469
330
22
100
AcDbEntity
  8
LAYER_1
  6
Continuous
 62
    39
100
AcDbLine
 10
2.678518999999999
 20
2.074133999999999
 30
0.0
 11
2.631456
 21
2.075527
 31
0.0
  0
LINE
  5
46A
330
22
100
AcDbEntity
  8
LAYER_1
  6
Continuous
 62
    39
100
AcDbLine
 10
2.631456
 20
2.075527
 30
0.0
 11
2.584629999999999
 21
2.07723
 31
0.0
  0
LINE
  5
46B
330
22
100
AcDbEntity
  8
LAYER_1
  6
Continuous
 62
    39
100
AcDbLine
 10
2.584629999999999
 20
2.07723
 30
0.0
 11
2.538040999999999
 21
2.079241999999999
 31
0.0
  0
LINE
  5
46C
330
22
100
AcDbEntity
  8
LAYER_1
  6
Continuous
 62
    39
100
AcDbLine
 10
2.538040999999999
 20
2.079241999999999
 30
0.0
 11
2.491689
 21
2.081563999999999
 31
0.0
  0
LINE
  5
46D
330
22
100
AcDbEntity
  8
LAYER_1
  6
Continuous
 62
    39
100
AcDbLine
 10
2.491689
 20
2.081563999999999
 30
0.0
 11
2.445574
 21
2.084195999999999
 31
0.0
  0
LINE
  5
46E
330
22
100
AcDbEntity
  8
LAYER_1
  6
Continuous
 62
    39
100
AcDbLine
 10
2.445574
 20
2.084195999999999
 30
0.0
 11
2.399697
 21
2.087137999999999
 31
0.0
  0
LINE
  5
46F
330
22
100
AcDbEntity
  8
LAYER_1
  6
Continuous
 62
    39
100
AcDbLine
 10
2.399697
 20
2.087137999999999
 30
0.0
 11
2.354057
 21
2.09039
 31
0.0
  0
LINE
  5
470
330
22
100
AcDbEntity
  8
LAYER_1
  6
Continuous
 62
    39
100
AcDbLine
 10
2.354057
 20
2.09039
 30
0.0
 11
2.308654
 21
2.093950999999999
 31
0.0
  0
LINE
  5
471
330
22
100
AcDbEntity
  8
LAYER_1
  6
Continuous
 62
    39
100
AcDbLine
 10
2.308654
 20
2.093950999999999
 30
0.0
 11
2.263488999999999
 21
2.097822999999999
 31
0.0
  0
LINE
  5
472
330
22
100
AcDbEntity
  8
LAYER_1
  6
Continuous
 62
    39
100
AcDbLine
 10
2.263488999999999
 20
2.097822999999999
 30
0.0
 11
2.218561
 21
2.102003999999999
 31
0.0
  0
LINE
  5
473
330
22
100
AcDbEntity
  8
LAYER_1
  6
Continuous
 62
    39
100
AcDbLine
 10
2.218561
 20
2.102003999999999
 30
0.0
 11
2.173871
 21
2.106495999999999
 31
0.0
  0
LINE
  5
474
330
22
100
AcDbEntity
  8
LAYER_1
  6
Continuous
 62
    39
100
AcDbLine
 10
2.173871
 20
2.106495999999999
 30
0.0
 11
2.129417999999999
 21
2.111296999999999
 31
0.0
  0
LINE
  5
475
330
22
100
AcDbEntity
  8
LAYER_1
  6
Continuous
 62
    39
100
AcDbLine
 10
2.129417999999999
 20
2.111296999999999
 30
0.0
 11
2.085202999999999
 21
2.116408999999999
 31
0.0
  0
LINE
  5
476
330
22
100
AcDbEntity
  8
LAYER_1
  6
Continuous
 62
    39
100
AcDbLine
 10
2.085202999999999
 20
2.116408999999999
 30
0.0
 11
2.041225999999999
 21
2.121831
 31
0.0
  0
LINE
  5
477
330
22
100
AcDbEntity
  8
LAYER_1
  6
Continuous
 62
    39
100
AcDbLine
 10
2.041225999999999
 20
2.121831
 30
0.0
 11
1.997486999999999
 21
2.127563
 31
0.0
  0
LINE
  5
478
330
22
100
AcDbEntity
  8
LAYER_1
  6
Continuous
 62
    39
100
AcDbLine
 10
1.997486999999999
 20
2.127563
 30
0.0
 11
1.953986
 21
2.133604999999999
 31
0.0
  0
LINE
  5
479
330
22
100
AcDbEntity
  8
LAYER_1
  6
Continuous
 62
    39
100
AcDbLine
 10
1.953986
 20
2.133604999999999
 30
0.0
 11
1.910722999999999
 21
2.139956999999999
 31
0.0
  0
LINE
  5
47A
330
22
100
AcDbEntity
  8
LAYER_1
  6
Continuous
 62
    39
100
AcDbLine
 10
1.910722999999999
 20
2.139956999999999
 30
0.0
 11
1.867697999999999
 21
2.146619999999999
 31
0.0
  0
LINE
  5
47B
330
22
100
AcDbEntity
  8
LAYER_1
  6
Continuous
 62
    39
100
AcDbLine
 10
1.867697999999999
 20
2.146619999999999
 30
0.0
 11
1.824911999999999
 21
2.153592999999999
 31
0.0
  0
LINE
  5
47C
330
22
100
AcDbEntity
  8
LAYER_1
  6
Continuous
 62
    39
100
AcDbLine
 10
1.824911999999999
 20
2.153592999999999
 30
0.0
 11
1.782363
 21
2.160876
 31
0.0
  0
LINE
  5
47D
330
22
100
AcDbEntity
  8
LAYER_1
  6
Continuous
 62
    39
100
AcDbLine
 10
1.782363
 20
2.160876
 30
0.0
 11
1.740052999999999
 21
2.16847
 31
0.0
  0
LINE
  5
47E
330
22
100
AcDbEntity
  8
LAYER_1
  6
Continuous
 62
    39
100
AcDbLine
 10
1.740052999999999
 20
2.16847
 30
0.0
 11
1.697981
 21
2.176374
 31
0.0
  0
LINE
  5
47F
330
22
100
AcDbEntity
  8
LAYER_1
  6
Continuous
 62
    39
100
AcDbLine
 10
1.697981
 20
2.176374
 30
0.0
 11
1.656147999999999
 21
2.184588999999999
 31
0.0
  0
LINE
  5
480
330
22
100
AcDbEntity
  8
LAYER_1
  6
Continuous
 62
    39
100
AcDbLine
 10
1.656147999999999
 20
2.184588999999999
 30
0.0
 11
1.614553
 21
2.193114
 31
0.0
  0
LINE
  5
481
330
22
100
AcDbEntity
  8
LAYER_1
  6
Continuous
 62
    39
100
AcDbLine
 10
1.614553
 20
2.193114
 30
0.0
 11
1.573196999999999
 21
2.201949
 31
0.0
  0
LINE
  5
482
330
22
100
AcDbEntity
  8
LAYER_1
  6
Continuous
 62
    39
100
AcDbLine
 10
1.573196999999999
 20
2.201949
 30
0.0
 11
1.532079999999999
 21
2.211095999999999
 31
0.0
  0
LINE
  5
483
330
22
100
AcDbEntity
  8
LAYER_1
  6
Continuous
 62
    39
100
AcDbLine
 10
1.532079999999999
 20
2.211095999999999
 30
0.0
 11
1.491201
 21
2.220552999999999
 31
0.0
  0
LINE
  5
484
330
22
100
AcDbEntity
  8
LAYER_1
  6
Continuous
 62
    39
100
AcDbLine
 10
1.491201
 20
2.220552999999999
 30
0.0
 11
1.450562
 21
2.230319999999999
 31
0.0
  0
LINE
  5
485
330
22
100
AcDbEntity
  8
LAYER_1
  6
Continuous
 62
    39
100
AcDbLine
 10
1.450562
 20
2.230319999999999
 30
0.0
 11
1.410160999999999
 21
2.240397999999999
 31
0.0
  0
LINE
  5
486
330
22
100
AcDbEntity
  8
LAYER_1
  6
Continuous
 62
    39
100
AcDbLine
 10
1.410160999999999
 20
2.240397999999999
 30
0.0
 11
1.369998999999999
 21
2.250788
 31
0.0
  0
LINE
  5
487
330
22
100
AcDbEntity
  8
LAYER_1
  6
Continuous
 62
    39
100
AcDbLine
 10
1.369998999999999
 20
2.250788
 30
0.0
 11
1.330076999999999
 21
2.261486999999999
 31
0.0
  0
LINE
  5
488
330
22
100
AcDbEntity
  8
LAYER_1
  6
Continuous
 62
    39
100
AcDbLine
 10
1.330076999999999
 20
2.261486999999999
 30
0.0
 11
1.290393
 21
2.272498
 31
0.0
  0
LINE
  5
489
330
22
100
AcDbEntity
  8
LAYER_1
  6
Continuous
 62
    39
100
AcDbLine
 10
1.290393
 20
2.272498
 30
0.0
 11
1.250949
 21
2.283818999999999
 31
0.0
  0
LINE
  5
48A
330
22
100
AcDbEntity
  8
LAYER_1
  6
Continuous
 62
    39
100
AcDbLine
 10
1.250949
 20
2.283818999999999
 30
0.0
 11
1.211744
 21
2.295452
 31
0.0
  0
LINE
  5
48B
330
22
100
AcDbEntity
  8
LAYER_1
  6
Continuous
 62
    39
100
AcDbLine
 10
1.211744
 20
2.295452
 30
0.0
 11
1.172778
 21
2.307395
 31
0.0
  0
LINE
  5
48C
330
22
100
AcDbEntity
  8
LAYER_1
  6
Continuous
 62
    39
100
AcDbLine
 10
1.172778
 20
2.307395
 30
0.0
 11
1.134052
 21
2.319649
 31
0.0
  0
LINE
  5
48D
330
22
100
AcDbEntity
  8
LAYER_1
  6
Continuous
 62
    39
100
AcDbLine
 10
1.134052
 20
2.319649
 30
0.0
 11
1.095566
 21
2.332214
 31
0.0
  0
LINE
  5
48E
330
22
100
AcDbEntity
  8
LAYER_1
  6
Continuous
 62
    39
100
AcDbLine
 10
1.095566
 20
2.332214
 30
0.0
 11
1.057319
 21
2.345091
 31
0.0
  0
LINE
  5
48F
330
22
100
AcDbEntity
  8
LAYER_1
  6
Continuous
 62
    39
100
AcDbLine
 10
1.057319
 20
2.345091
 30
0.0
 11
1.019311
 21
2.358277999999999
 31
0.0
  0
LINE
  5
490
330
22
100
AcDbEntity
  8
LAYER_1
  6
Continuous
 62
    39
100
AcDbLine
 10
1.019311
 20
2.358277999999999
 30
0.0
 11
0.981544
 21
2.371777
 31
0.0
  0
LINE
  5
491
330
22
100
AcDbEntity
  8
LAYER_1
  6
Continuous
 62
    39
100
AcDbLine
 10
0.981544
 20
2.371777
 30
0.0
 11
0.9440159999999998
 21
2.385585999999999
 31
0.0
  0
LINE
  5
492
330
22
100
AcDbEntity
  8
LAYER_1
  6
Continuous
 62
    39
100
AcDbLine
 10
0.9440159999999998
 20
2.385585999999999
 30
0.0
 11
0.906728
 21
2.399706999999999
 31
0.0
  0
LINE
  5
493
330
22
100
AcDbEntity
  8
LAYER_1
  6
Continuous
 62
    39
100
AcDbLine
 10
0.906728
 20
2.399706999999999
 30
0.0
 11
0.8696799999999999
 21
2.414139
 31
0.0
  0
LINE
  5
494
330
22
100
AcDbEntity
  8
LAYER_1
  6
Continuous
 62
    39
100
AcDbLine
 10
0.8696799999999999
 20
2.414139
 30
0.0
 11
0.8328719999999998
 21
2.428883
 31
0.0
  0
LINE
  5
495
330
22
100
AcDbEntity
  8
LAYER_1
  6
Continuous
 62
    39
100
AcDbLine
 10
0.8328719999999998
 20
2.428883
 30
0.0
 11
0.7963050000000001
 21
2.443937
 31
0.0
  0
LINE
  5
496
330
22
100
AcDbEntity
  8
LAYER_1
  6
Continuous
 62
    39
100
AcDbLine
 10
0.7963050000000001
 20
2.443937
 30
0.0
 11
0.7599770000000001
 21
2.459302999999999
 31
0.0
  0
LINE
  5
497
330
22
100
AcDbEntity
  8
LAYER_1
  6
Continuous
 62
    39
100
AcDbLine
 10
0.7599770000000001
 20
2.459302999999999
 30
0.0
 11
0.72389
 21
2.474981
 31
0.0
  0
LINE
  5
498
330
22
100
AcDbEntity
  8
LAYER_1
  6
Continuous
 62
    39
100
AcDbLine
 10
0.72389
 20
2.474981
 30
0.0
 11
0.6880430000000001
 21
2.490968999999999
 31
0.0
  0
LINE
  5
499
330
22
100
AcDbEntity
  8
LAYER_1
  6
Continuous
 62
    39
100
AcDbLine
 10
0.6880430000000001
 20
2.490968999999999
 30
0.0
 11
0.652436
 21
2.50727
 31
0.0
  0
LINE
  5
49A
330
22
100
AcDbEntity
  8
LAYER_1
  6
Continuous
 62
    39
100
AcDbLine
 10
0.652436
 20
2.50727
 30
0.0
 11
0.61707
 21
2.523881
 31
0.0
  0
LINE
  5
49B
330
22
100
AcDbEntity
  8
LAYER_1
  6
Continuous
 62
    39
100
AcDbLine
 10
0.61707
 20
2.523881
 30
0.0
 11
0.581945
 21
2.540804999999999
 31
0.0
  0
LINE
  5
49C
330
22
100
AcDbEntity
  8
LAYER_1
  6
Continuous
 62
    39
100
AcDbLine
 10
0.581945
 20
2.540804999999999
 30
0.0
 11
0.5470600000000001
 21
2.55804
 31
0.0
  0
LINE
  5
49D
330
22
100
AcDbEntity
  8
LAYER_1
  6
Continuous
 62
    39
100
AcDbLine
 10
0.5470600000000001
 20
2.55804
 30
0.0
 11
0.512416
 21
2.575585999999999
 31
0.0
  0
LINE
  5
49E
330
22
100
AcDbEntity
  8
LAYER_1
  6
Continuous
 62
    39
100
AcDbLine
 10
0.512416
 20
2.575585999999999
 30
0.0
 11
0.478013
 21
2.593443999999999
 31
0.0
  0
LINE
  5
49F
330
22
100
AcDbEntity
  8
LAYER_1
  6
Continuous
 62
    39
100
AcDbLine
 10
0.478013
 20
2.593443999999999
 30
0.0
 11
0.4438500000000001
 21
2.611613999999999
 31
0.0
  0
LINE
  5
4A0
330
22
100
AcDbEntity
  8
LAYER_1
  6
Continuous
 62
    39
100
AcDbLine
 10
0.4438500000000001
 20
2.611613999999999
 30
0.0
 11
0.4438500000000001
 21
2.611613999999999
 31
0.0
  0
LINE
  5
4A1
330
22
100
AcDbEntity
  8
LAYER_1
  6
Continuous
 62
    39
100
AcDbLine
 10
0.4438500000000001
 20
2.611613999999999
 30
0.0
 11
0.396509
 21
2.637391
 31
0.0
  0
LINE
  5
4A2
330
22
100
AcDbEntity
  8
LAYER_1
  6
Continuous
 62
    39
100
AcDbLine
 10
0.396509
 20
2.637391
 30
0.0
 11
0.350311
 21
2.663421
 31
0.0
  0
LINE
  5
4A3
330
22
100
AcDbEntity
  8
LAYER_1
  6
Continuous
 62
    39
100
AcDbLine
 10
0.350311
 20
2.663421
 30
0.0
 11
0.305256
 21
2.689703999999999
 31
0.0
  0
LINE
  5
4A4
330
22
100
AcDbEntity
  8
LAYER_1
  6
Continuous
 62
    39
100
AcDbLine
 10
0.305256
 20
2.689703999999999
 30
0.0
 11
0.261343
 21
2.716241
 31
0.0
  0
LINE
  5
4A5
330
22
100
AcDbEntity
  8
LAYER_1
  6
Continuous
 62
    39
100
AcDbLine
 10
0.261343
 20
2.716241
 30
0.0
 11
0.218573
 21
2.743031
 31
0.0
  0
LINE
  5
4A6
330
22
100
AcDbEntity
  8
LAYER_1
  6
Continuous
 62
    39
100
AcDbLine
 10
0.218573
 20
2.743031
 30
0.0
 11
0.176945
 21
2.770074
 31
0.0
  0
LINE
  5
4A7
330
22
100
AcDbEntity
  8
LAYER_1
  6
Continuous
 62
    39
100
AcDbLine
 10
0.176945
 20
2.770074
 30
0.0
 11
0.136459
 21
2.797372
 31
0.0
  0
LINE
  5
4A8
330
22
100
AcDbEntity
  8
LAYER_1
  6
Continuous
 62
    39
100
AcDbLine
 10
0.136459
 20
2.797372
 30
0.0
 11
0.097116
 21
2.824923
 31
0.0
  0
LINE
  5
4A9
330
22
100
AcDbEntity
  8
LAYER_1
  6
Continuous
 62
    39
100
AcDbLine
 10
0.097116
 20
2.824923
 30
0.0
 11
0.058915
 21
2.852727999999999
 31
0.0
  0
LINE
  5
4AA
330
22
100
AcDbEntity
  8
LAYER_1
  6
Continuous
 62
    39
100
AcDbLine
 10
0.058915
 20
2.852727999999999
 30
0.0
 11
0.021856
 21
2.880786999999999
 31
0.0
  0
LINE
  5
4AB
330
22
100
AcDbEntity
  8
LAYER_1
  6
Continuous
 62
    39
100
AcDbLine
 10
0.021856
 20
2.880786999999999
 30
0.0
 11
-0.014061
 21
2.9091
 31
0.0
  0
LINE
  5
4AC
330
22
100
AcDbEntity
  8
LAYER_1
  6
Continuous
 62
    39
100
AcDbLine
 10
-0.014061
 20
2.9091
 30
0.0
 11
-0.048837
 21
2.937668
 31
0.0
  0
LINE
  5
4AD
330
22
100
AcDbEntity
  8
LAYER_1
  6
Continuous
 62
    39
100
AcDbLine
 10
-0.048837
 20
2.937668
 30
0.0
 11
-0.08247
 21
2.96649
 31
0.0
  0
LINE
  5
4AE
330
22
100
AcDbEntity
  8
LAYER_1
  6
Continuous
 62
    39
100
AcDbLine
 10
-0.08247
 20
2.96649
 30
0.0
 11
-0.114962
 21
2.995566
 31
0.0
  0
LINE
  5
4AF
330
22
100
AcDbEntity
  8
LAYER_1
  6
Continuous
 62
    39
100
AcDbLine
 10
-0.114962
 20
2.995566
 30
0.0
 11
-0.146313
 21
3.024896
 31
0.0
  0
LINE
  5
4B0
330
22
100
AcDbEntity
  8
LAYER_1
  6
Continuous
 62
    39
100
AcDbLine
 10
-0.146313
 20
3.024896
 30
0.0
 11
-0.176522
 21
3.054481
 31
0.0
  0
LINE
  5
4B1
330
22
100
AcDbEntity
  8
LAYER_1
  6
Continuous
 62
    39
100
AcDbLine
 10
-0.176522
 20
3.054481
 30
0.0
 11
-0.20559
 21
3.084321
 31
0.0
  0
LINE
  5
4B2
330
22
100
AcDbEntity
  8
LAYER_1
  6
Continuous
 62
    39
100
AcDbLine
 10
-0.20559
 20
3.084321
 30
0.0
 11
-0.233516
 21
3.114415999999999
 31
0.0
  0
LINE
  5
4B3
330
22
100
AcDbEntity
  8
LAYER_1
  6
Continuous
 62
    39
100
AcDbLine
 10
-0.233516
 20
3.114415999999999
 30
0.0
 11
-0.260302
 21
3.144766
 31
0.0
  0
LINE
  5
4B4
330
22
100
AcDbEntity
  8
LAYER_1
  6
Continuous
 62
    39
100
AcDbLine
 10
-0.260302
 20
3.144766
 30
0.0
 11
-0.285947
 21
3.17537
 31
0.0
  0
LINE
  5
4B5
330
22
100
AcDbEntity
  8
LAYER_1
  6
Continuous
 62
    39
100
AcDbLine
 10
-0.285947
 20
3.17537
 30
0.0
 11
-0.31045
 21
3.20623
 31
0.0
  0
LINE
  5
4B6
330
22
100
AcDbEntity
  8
LAYER_1
  6
Continuous
 62
    39
100
AcDbLine
 10
-0.31045
 20
3.20623
 30
0.0
 11
-0.333813
 21
3.237344999999999
 31
0.0
  0
LINE
  5
4B7
330
22
100
AcDbEntity
  8
LAYER_1
  6
Continuous
 62
    39
100
AcDbLine
 10
-0.333813
 20
3.237344999999999
 30
0.0
 11
-0.356035
 21
3.268715
 31
0.0
  0
LINE
  5
4B8
330
22
100
AcDbEntity
  8
LAYER_1
  6
Continuous
 62
    39
100
AcDbLine
 10
-0.356035
 20
3.268715
 30
0.0
 11
-0.377117
 21
3.300341
 31
0.0
  0
LINE
  5
4B9
330
22
100
AcDbEntity
  8
LAYER_1
  6
Continuous
 62
    39
100
AcDbLine
 10
-0.377117
 20
3.300341
 30
0.0
 11
-0.3970579999999999
 21
3.332222
 31
0.0
  0
LINE
  5
4BA
330
22
100
AcDbEntity
  8
LAYER_1
  6
Continuous
 62
    39
100
AcDbLine
 10
-0.3970579999999999
 20
3.332222
 30
0.0
 11
-0.4158590000000001
 21
3.364358
 31
0.0
  0
LINE
  5
4BB
330
22
100
AcDbEntity
  8
LAYER_1
  6
Continuous
 62
    39
100
AcDbLine
 10
-0.4158590000000001
 20
3.364358
 30
0.0
 11
-0.43352
 21
3.396751
 31
0.0
  0
LINE
  5
4BC
330
22
100
AcDbEntity
  8
LAYER_1
  6
Continuous
 62
    39
100
AcDbLine
 10
-0.43352
 20
3.396751
 30
0.0
 11
-0.4500399999999999
 21
3.429398999999999
 31
0.0
  0
LINE
  5
4BD
330
22
100
AcDbEntity
  8
LAYER_1
  6
Continuous
 62
    39
100
AcDbLine
 10
-0.4500399999999999
 20
3.429398999999999
 30
0.0
 11
-0.465421
 21
3.462302999999999
 31
0.0
  0
LINE
  5
4BE
330
22
100
AcDbEntity
  8
LAYER_1
  6
Continuous
 62
    39
100
AcDbLine
 10
-0.465421
 20
3.462302999999999
 30
0.0
 11
-0.479661
 21
3.495462999999999
 31
0.0
  0
LINE
  5
4BF
330
22
100
AcDbEntity
  8
LAYER_1
  6
Continuous
 62
    39
100
AcDbLine
 10
-0.479661
 20
3.495462999999999
 30
0.0
 11
-0.492762
 21
3.528878999999999
 31
0.0
  0
LINE
  5
4C0
330
22
100
AcDbEntity
  8
LAYER_1
  6
Continuous
 62
    39
100
AcDbLine
 10
-0.492762
 20
3.528878999999999
 30
0.0
 11
-0.5047229999999999
 21
3.562551999999999
 31
0.0
  0
LINE
  5
4C1
330
22
100
AcDbEntity
  8
LAYER_1
  6
Continuous
 62
    39
100
AcDbLine
 10
-0.5047229999999999
 20
3.562551999999999
 30
0.0
 11
-0.5155440000000001
 21
3.596480999999999
 31
0.0
  0
LINE
  5
4C2
330
22
100
AcDbEntity
  8
LAYER_1
  6
Continuous
 62
    39
100
AcDbLine
 10
-0.5155440000000001
 20
3.596480999999999
 30
0.0
 11
-0.525226
 21
3.630666
 31
0.0
  0
LINE
  5
4C3
330
22
100
AcDbEntity
  8
LAYER_1
  6
Continuous
 62
    39
100
AcDbLine
 10
-0.525226
 20
3.630666
 30
0.0
 11
-0.5337680000000001
 21
3.665106999999999
 31
0.0
  0
LINE
  5
4C4
330
22
100
AcDbEntity
  8
LAYER_1
  6
Continuous
 62
    39
100
AcDbLine
 10
-0.5337680000000001
 20
3.665106999999999
 30
0.0
 11
-0.541171
 21
3.699805999999999
 31
0.0
  0
LINE
  5
4C5
330
22
100
AcDbEntity
  8
LAYER_1
  6
Continuous
 62
    39
100
AcDbLine
 10
-0.541171
 20
3.699805999999999
 30
0.0
 11
-0.5474350000000001
 21
3.734761
 31
0.0
  0
LINE
  5
4C6
330
22
100
AcDbEntity
  8
LAYER_1
  6
Continuous
 62
    39
100
AcDbLine
 10
-0.5474350000000001
 20
3.734761
 30
0.0
 11
-0.5525590000000001
 21
3.769972
 31
0.0
  0
LINE
  5
4C7
330
22
100
AcDbEntity
  8
LAYER_1
  6
Continuous
 62
    39
100
AcDbLine
 10
-0.5525590000000001
 20
3.769972
 30
0.0
 11
-0.556545
 21
3.805441
 31
0.0
  0
LINE
  5
4C8
330
22
100
AcDbEntity
  8
LAYER_1
  6
Continuous
 62
    39
100
AcDbLine
 10
-0.556545
 20
3.805441
 30
0.0
 11
-0.559392
 21
3.841167
 31
0.0
  0
LINE
  5
4C9
330
22
100
AcDbEntity
  8
LAYER_1
  6
Continuous
 62
    39
100
AcDbLine
 10
-0.559392
 20
3.841167
 30
0.0
 11
-0.5611000000000001
 21
3.877149999999999
 31
0.0
  0
LINE
  5
4CA
330
22
100
AcDbEntity
  8
LAYER_1
  6
Continuous
 62
    39
100
AcDbLine
 10
-0.5611000000000001
 20
3.877149999999999
 30
0.0
 11
-0.5616690000000001
 21
3.91339
 31
0.0
  0
LINE
  5
4CB
330
22
100
AcDbEntity
  8
LAYER_1
  6
Continuous
 62
    39
100
AcDbLine
 10
-0.5616690000000001
 20
3.91339
 30
0.0
 11
-0.5616690000000001
 21
3.91339
 31
0.0
  0
LINE
  5
4CC
330
22
100
AcDbEntity
  8
LAYER_1
  6
Continuous
 62
    39
100
AcDbLine
 10
-0.5616690000000001
 20
3.91339
 30
0.0
 11
-0.5611000000000001
 21
3.949541
 31
0.0
  0
LINE
  5
4CD
330
22
100
AcDbEntity
  8
LAYER_1
  6
Continuous
 62
    39
100
AcDbLine
 10
-0.5611000000000001
 20
3.949541
 30
0.0
 11
-0.559392
 21
3.985438999999999
 31
0.0
  0
LINE
  5
4CE
330
22
100
AcDbEntity
  8
LAYER_1
  6
Continuous
 62
    39
100
AcDbLine
 10
-0.559392
 20
3.985438999999999
 30
0.0
 11
-0.556545
 21
4.021083999999999
 31
0.0
  0
LINE
  5
4CF
330
22
100
AcDbEntity
  8
LAYER_1
  6
Continuous
 62
    39
100
AcDbLine
 10
-0.556545
 20
4.021083999999999
 30
0.0
 11
-0.5525590000000001
 21
4.056474999999999
 31
0.0
  0
LINE
  5
4D0
330
22
100
AcDbEntity
  8
LAYER_1
  6
Continuous
 62
    39
100
AcDbLine
 10
-0.5525590000000001
 20
4.056474999999999
 30
0.0
 11
-0.5474350000000001
 21
4.091612999999999
 31
0.0
  0
LINE
  5
4D1
330
22
100
AcDbEntity
  8
LAYER_1
  6
Continuous
 62
    39
100
AcDbLine
 10
-0.5474350000000001
 20
4.091612999999999
 30
0.0
 11
-0.541171
 21
4.126498
 31
0.0
  0
LINE
  5
4D2
330
22
100
AcDbEntity
  8
LAYER_1
  6
Continuous
 62
    39
100
AcDbLine
 10
-0.541171
 20
4.126498
 30
0.0
 11
-0.5337680000000001
 21
4.161128999999999
 31
0.0
  0
LINE
  5
4D3
330
22
100
AcDbEntity
  8
LAYER_1
  6
Continuous
 62
    39
100
AcDbLine
 10
-0.5337680000000001
 20
4.161128999999999
 30
0.0
 11
-0.525226
 21
4.195505999999999
 31
0.0
  0
LINE
  5
4D4
330
22
100
AcDbEntity
  8
LAYER_1
  6
Continuous
 62
    39
100
AcDbLine
 10
-0.525226
 20
4.195505999999999
 30
0.0
 11
-0.5155440000000001
 21
4.22963
 31
0.0
  0
LINE
  5
4D5
330
22
100
AcDbEntity
  8
LAYER_1
  6
Continuous
 62
    39
100
AcDbLine
 10
-0.5155440000000001
 20
4.22963
 30
0.0
 11
-0.5047229999999999
 21
4.263498999999999
 31
0.0
  0
LINE
  5
4D6
330
22
100
AcDbEntity
  8
LAYER_1
  6
Continuous
 62
    39
100
AcDbLine
 10
-0.5047229999999999
 20
4.263498999999999
 30
0.0
 11
-0.492762
 21
4.297114999999999
 31
0.0
  0
LINE
  5
4D7
330
22
100
AcDbEntity
  8
LAYER_1
  6
Continuous
 62
    39
100
AcDbLine
 10
-0.492762
 20
4.297114999999999
 30
0.0
 11
-0.479661
 21
4.330475999999999
 31
0.0
  0
LINE
  5
4D8
330
22
100
AcDbEntity
  8
LAYER_1
  6
Continuous
 62
    39
100
AcDbLine
 10
-0.479661
 20
4.330475999999999
 30
0.0
 11
-0.465421
 21
4.363583
 31
0.0
  0
LINE
  5
4D9
330
22
100
AcDbEntity
  8
LAYER_1
  6
Continuous
 62
    39
100
AcDbLine
 10
-0.465421
 20
4.363583
 30
0.0
 11
-0.4500399999999999
 21
4.396436
 31
0.0
  0
LINE
  5
4DA
330
22
100
AcDbEntity
  8
LAYER_1
  6
Continuous
 62
    39
100
AcDbLine
 10
-0.4500399999999999
 20
4.396436
 30
0.0
 11
-0.43352
 21
4.429033999999999
 31
0.0
  0
LINE
  5
4DB
330
22
100
AcDbEntity
  8
LAYER_1
  6
Continuous
 62
    39
100
AcDbLine
 10
-0.43352
 20
4.429033999999999
 30
0.0
 11
-0.4158590000000001
 21
4.461377999999999
 31
0.0
  0
LINE
  5
4DC
330
22
100
AcDbEntity
  8
LAYER_1
  6
Continuous
 62
    39
100
AcDbLine
 10
-0.4158590000000001
 20
4.461377999999999
 30
0.0
 11
-0.3970579999999999
 21
4.493466999999999
 31
0.0
  0
LINE
  5
4DD
330
22
100
AcDbEntity
  8
LAYER_1
  6
Continuous
 62
    39
100
AcDbLine
 10
-0.3970579999999999
 20
4.493466999999999
 30
0.0
 11
-0.377117
 21
4.525300999999999
 31
0.0
  0
LINE
  5
4DE
330
22
100
AcDbEntity
  8
LAYER_1
  6
Continuous
 62
    39
100
AcDbLine
 10
-0.377117
 20
4.525300999999999
 30
0.0
 11
-0.356035
 21
4.556880999999999
 31
0.0
  0
LINE
  5
4DF
330
22
100
AcDbEntity
  8
LAYER_1
  6
Continuous
 62
    39
100
AcDbLine
 10
-0.356035
 20
4.556880999999999
 30
0.0
 11
-0.333813
 21
4.588205
 31
0.0
  0
LINE
  5
4E0
330
22
100
AcDbEntity
  8
LAYER_1
  6
Continuous
 62
    39
100
AcDbLine
 10
-0.333813
 20
4.588205
 30
0.0
 11
-0.31045
 21
4.619275
 31
0.0
  0
LINE
  5
4E1
330
22
100
AcDbEntity
  8
LAYER_1
  6
Continuous
 62
    39
100
AcDbLine
 10
-0.31045
 20
4.619275
 30
0.0
 11
-0.285947
 21
4.650089
 31
0.0
  0
LINE
  5
4E2
330
22
100
AcDbEntity
  8
LAYER_1
  6
Continuous
 62
    39
100
AcDbLine
 10
-0.285947
 20
4.650089
 30
0.0
 11
-0.260302
 21
4.680648
 31
0.0
  0
LINE
  5
4E3
330
22
100
AcDbEntity
  8
LAYER_1
  6
Continuous
 62
    39
100
AcDbLine
 10
-0.260302
 20
4.680648
 30
0.0
 11
-0.233516
 21
4.710951
 31
0.0
  0
LINE
  5
4E4
330
22
100
AcDbEntity
  8
LAYER_1
  6
Continuous
 62
    39
100
AcDbLine
 10
-0.233516
 20
4.710951
 30
0.0
 11
-0.20559
 21
4.740998999999999
 31
0.0
  0
LINE
  5
4E5
330
22
100
AcDbEntity
  8
LAYER_1
  6
Continuous
 62
    39
100
AcDbLine
 10
-0.20559
 20
4.740998999999999
 30
0.0
 11
-0.176522
 21
4.770791
 31
0.0
  0
LINE
  5
4E6
330
22
100
AcDbEntity
  8
LAYER_1
  6
Continuous
 62
    39
100
AcDbLine
 10
-0.176522
 20
4.770791
 30
0.0
 11
-0.146313
 21
4.800327999999999
 31
0.0
  0
LINE
  5
4E7
330
22
100
AcDbEntity
  8
LAYER_1
  6
Continuous
 62
    39
100
AcDbLine
 10
-0.146313
 20
4.800327999999999
 30
0.0
 11
-0.114962
 21
4.829608999999999
 31
0.0
  0
LINE
  5
4E8
330
22
100
AcDbEntity
  8
LAYER_1
  6
Continuous
 62
    39
100
AcDbLine
 10
-0.114962
 20
4.829608999999999
 30
0.0
 11
-0.08247
 21
4.858633999999999
 31
0.0
  0
LINE
  5
4E9
330
22
100
AcDbEntity
  8
LAYER_1
  6
Continuous
 62
    39
100
AcDbLine
 10
-0.08247
 20
4.858633999999999
 30
0.0
 11
-0.048837
 21
4.887401999999999
 31
0.0
  0
LINE
  5
4EA
330
22
100
AcDbEntity
  8
LAYER_1
  6
Continuous
 62
    39
100
AcDbLine
 10
-0.048837
 20
4.887401999999999
 30
0.0
 11
-0.014061
 21
4.915915
 31
0.0
  0
LINE
  5
4EB
330
22
100
AcDbEntity
  8
LAYER_1
  6
Continuous
 62
    39
100
AcDbLine
 10
-0.014061
 20
4.915915
 30
0.0
 11
0.021856
 21
4.944170999999999
 31
0.0
  0
LINE
  5
4EC
330
22
100
AcDbEntity
  8
LAYER_1
  6
Continuous
 62
    39
100
AcDbLine
 10
0.021856
 20
4.944170999999999
 30
0.0
 11
0.058915
 21
4.972171
 31
0.0
  0
LINE
  5
4ED
330
22
100
AcDbEntity
  8
LAYER_1
  6
Continuous
 62
    39
100
AcDbLine
 10
0.058915
 20
4.972171
 30
0.0
 11
0.097116
 21
4.999915
 31
0.0
  0
LINE
  5
4EE
330
22
100
AcDbEntity
  8
LAYER_1
  6
Continuous
 62
    39
100
AcDbLine
 10
0.097116
 20
4.999915
 30
0.0
 11
0.136459
 21
5.027401999999999
 31
0.0
  0
LINE
  5
4EF
330
22
100
AcDbEntity
  8
LAYER_1
  6
Continuous
 62
    39
100
AcDbLine
 10
0.136459
 20
5.027401999999999
 30
0.0
 11
0.176945
 21
5.054631999999999
 31
0.0
  0
LINE
  5
4F0
330
22
100
AcDbEntity
  8
LAYER_1
  6
Continuous
 62
    39
100
AcDbLine
 10
0.176945
 20
5.054631999999999
 30
0.0
 11
0.218573
 21
5.081605999999999
 31
0.0
  0
LINE
  5
4F1
330
22
100
AcDbEntity
  8
LAYER_1
  6
Continuous
 62
    39
100
AcDbLine
 10
0.218573
 20
5.081605999999999
 30
0.0
 11
0.261343
 21
5.108323
 31
0.0
  0
LINE
  5
4F2
330
22
100
AcDbEntity
  8
LAYER_1
  6
Continuous
 62
    39
100
AcDbLine
 10
0.261343
 20
5.108323
 30
0.0
 11
0.305256
 21
5.134782
 31
0.0
  0
LINE
  5
4F3
330
22
100
AcDbEntity
  8
LAYER_1
  6
Continuous
 62
    39
100
AcDbLine
 10
0.305256
 20
5.134782
 30
0.0
 11
0.350311
 21
5.160985
 31
0.0
  0
LINE
  5
4F4
330
22
100
AcDbEntity
  8
LAYER_1
  6
Continuous
 62
    39
100
AcDbLine
 10
0.350311
 20
5.160985
 30
0.0
 11
0.396509
 21
5.18693
 31
0.0
  0
LINE
  5
4F5
330
22
100
AcDbEntity
  8
LAYER_1
  6
Continuous
 62
    39
100
AcDbLine
 10
0.396509
 20
5.18693
 30
0.0
 11
0.4438500000000001
 21
5.212617999999999
 31
0.0
  0
LINE
  5
4F6
330
22
100
AcDbEntity
  8
LAYER_1
  6
Continuous
 62
    39
100
AcDbLine
 10
0.4438500000000001
 20
5.212617999999999
 30
0.0
 11
0.4438500000000001
 21
5.212617999999999
 31
0.0
  0
LINE
  5
4F7
330
22
100
AcDbEntity
  8
LAYER_1
  6
Continuous
 62
    39
100
AcDbLine
 10
0.4438500000000001
 20
5.212617999999999
 30
0.0
 11
0.478013
 21
5.230722
 31
0.0
  0
LINE
  5
4F8
330
22
100
AcDbEntity
  8
LAYER_1
  6
Continuous
 62
    39
100
AcDbLine
 10
0.478013
 20
5.230722
 30
0.0
 11
0.512416
 21
5.248514
 31
0.0
  0
LINE
  5
4F9
330
22
100
AcDbEntity
  8
LAYER_1
  6
Continuous
 62
    39
100
AcDbLine
 10
0.512416
 20
5.248514
 30
0.0
 11
0.5470600000000001
 21
5.265994
 31
0.0
  0
LINE
  5
4FA
330
22
100
AcDbEntity
  8
LAYER_1
  6
Continuous
 62
    39
100
AcDbLine
 10
0.5470600000000001
 20
5.265994
 30
0.0
 11
0.581945
 21
5.283163
 31
0.0
  0
LINE
  5
4FB
330
22
100
AcDbEntity
  8
LAYER_1
  6
Continuous
 62
    39
100
AcDbLine
 10
0.581945
 20
5.283163
 30
0.0
 11
0.61707
 21
5.300021
 31
0.0
  0
LINE
  5
4FC
330
22
100
AcDbEntity
  8
LAYER_1
  6
Continuous
 62
    39
100
AcDbLine
 10
0.61707
 20
5.300021
 30
0.0
 11
0.652436
 21
5.316567
 31
0.0
  0
LINE
  5
4FD
330
22
100
AcDbEntity
  8
LAYER_1
  6
Continuous
 62
    39
100
AcDbLine
 10
0.652436
 20
5.316567
 30
0.0
 11
0.6880430000000001
 21
5.332802
 31
0.0
  0
LINE
  5
4FE
330
22
100
AcDbEntity
  8
LAYER_1
  6
Continuous
 62
    39
100
AcDbLine
 10
0.6880430000000001
 20
5.332802
 30
0.0
 11
0.72389
 21
5.348726
 31
0.0
  0
LINE
  5
4FF
330
22
100
AcDbEntity
  8
LAYER_1
  6
Continuous
 62
    39
100
AcDbLine
 10
0.72389
 20
5.348726
 30
0.0
 11
0.7599770000000001
 21
5.364339
 31
0.0
  0
LINE
  5
500
330
22
100
AcDbEntity
  8
LAYER_1
  6
Continuous
 62
    39
100
AcDbLine
 10
0.7599770000000001
 20
5.364339
 30
0.0
 11
0.7963050000000001
 21
5.379641
 31
0.0
  0
LINE
  5
501
330
22
100
AcDbEntity
  8
LAYER_1
  6
Continuous
 62
    39
100
AcDbLine
 10
0.7963050000000001
 20
5.379641
 30
0.0
 11
0.8328719999999998
 21
5.394631999999999
 31
0.0
  0
LINE
  5
502
330
22
100
AcDbEntity
  8
LAYER_1
  6
Continuous
 62
    39
100
AcDbLine
 10
0.8328719999999998
 20
5.394631999999999
 30
0.0
 11
0.8696799999999999
 21
5.409311999999999
 31
0.0
  0
LINE
  5
503
330
22
100
AcDbEntity
  8
LAYER_1
  6
Continuous
 62
    39
100
AcDbLine
 10
0.8696799999999999
 20
5.409311999999999
 30
0.0
 11
0.906728
 21
5.423682
 31
0.0
  0
LINE
  5
504
330
22
100
AcDbEntity
  8
LAYER_1
  6
Continuous
 62
    39
100
AcDbLine
 10
0.906728
 20
5.423682
 30
0.0
 11
0.9440159999999998
 21
5.437739999999999
 31
0.0
  0
LINE
  5
505
330
22
100
AcDbEntity
  8
LAYER_1
  6
Continuous
 62
    39
100
AcDbLine
 10
0.9440159999999998
 20
5.437739999999999
 30
0.0
 11
0.981544
 21
5.451487999999999
 31
0.0
  0
LINE
  5
506
330
22
100
AcDbEntity
  8
LAYER_1
  6
Continuous
 62
    39
100
AcDbLine
 10
0.981544
 20
5.451487999999999
 30
0.0
 11
1.019311
 21
5.464926
 31
0.0
  0
LINE
  5
507
330
22
100
AcDbEntity
  8
LAYER_1
  6
Continuous
 62
    39
100
AcDbLine
 10
1.019311
 20
5.464926
 30
0.0
 11
1.057319
 21
5.478053
 31
0.0
  0
LINE
  5
508
330
22
100
AcDbEntity
  8
LAYER_1
  6
Continuous
 62
    39
100
AcDbLine
 10
1.057319
 20
5.478053
 30
0.0
 11
1.095566
 21
5.490868999999999
 31
0.0
  0
LINE
  5
509
330
22
100
AcDbEntity
  8
LAYER_1
  6
Continuous
 62
    39
100
AcDbLine
 10
1.095566
 20
5.490868999999999
 30
0.0
 11
1.134052
 21
5.503375
 31
0.0
  0
LINE
  5
50A
330
22
100
AcDbEntity
  8
LAYER_1
  6
Continuous
 62
    39
100
AcDbLine
 10
1.134052
 20
5.503375
 30
0.0
 11
1.172778
 21
5.515570999999999
 31
0.0
  0
LINE
  5
50B
330
22
100
AcDbEntity
  8
LAYER_1
  6
Continuous
 62
    39
100
AcDbLine
 10
1.172778
 20
5.515570999999999
 30
0.0
 11
1.211744
 21
5.527457
 31
0.0
  0
LINE
  5
50C
330
22
100
AcDbEntity
  8
LAYER_1
  6
Continuous
 62
    39
100
AcDbLine
 10
1.211744
 20
5.527457
 30
0.0
 11
1.250949
 21
5.539032999999999
 31
0.0
  0
LINE
  5
50D
330
22
100
AcDbEntity
  8
LAYER_1
  6
Continuous
 62
    39
100
AcDbLine
 10
1.250949
 20
5.539032999999999
 30
0.0
 11
1.290393
 21
5.550298
 31
0.0
  0
LINE
  5
50E
330
22
100
AcDbEntity
  8
LAYER_1
  6
Continuous
 62
    39
100
AcDbLine
 10
1.290393
 20
5.550298
 30
0.0
 11
1.330076999999999
 21
5.561253999999999
 31
0.0
  0
LINE
  5
50F
330
22
100
AcDbEntity
  8
LAYER_1
  6
Continuous
 62
    39
100
AcDbLine
 10
1.330076999999999
 20
5.561253999999999
 30
0.0
 11
1.369998999999999
 21
5.5719
 31
0.0
  0
LINE
  5
510
330
22
100
AcDbEntity
  8
LAYER_1
  6
Continuous
 62
    39
100
AcDbLine
 10
1.369998999999999
 20
5.5719
 30
0.0
 11
1.410160999999999
 21
5.582234999999999
 31
0.0
  0
LINE
  5
511
330
22
100
AcDbEntity
  8
LAYER_1
  6
Continuous
 62
    39
100
AcDbLine
 10
1.410160999999999
 20
5.582234999999999
 30
0.0
 11
1.450562
 21
5.592261999999999
 31
0.0
  0
LINE
  5
512
330
22
100
AcDbEntity
  8
LAYER_1
  6
Continuous
 62
    39
100
AcDbLine
 10
1.450562
 20
5.592261999999999
 30
0.0
 11
1.491201
 21
5.601977999999999
 31
0.0
  0
LINE
  5
513
330
22
100
AcDbEntity
  8
LAYER_1
  6
Continuous
 62
    39
100
AcDbLine
 10
1.491201
 20
5.601977999999999
 30
0.0
 11
1.532079999999999
 21
5.611385
 31
0.0
  0
LINE
  5
514
330
22
100
AcDbEntity
  8
LAYER_1
  6
Continuous
 62
    39
100
AcDbLine
 10
1.532079999999999
 20
5.611385
 30
0.0
 11
1.573196999999999
 21
5.620481999999999
 31
0.0
  0
LINE
  5
515
330
22
100
AcDbEntity
  8
LAYER_1
  6
Continuous
 62
    39
100
AcDbLine
 10
1.573196999999999
 20
5.620481999999999
 30
0.0
 11
1.614553
 21
5.629269999999999
 31
0.0
  0
LINE
  5
516
330
22
100
AcDbEntity
  8
LAYER_1
  6
Continuous
 62
    39
100
AcDbLine
 10
1.614553
 20
5.629269999999999
 30
0.0
 11
1.656147999999999
 21
5.637748999999999
 31
0.0
  0
LINE
  5
517
330
22
100
AcDbEntity
  8
LAYER_1
  6
Continuous
 62
    39
100
AcDbLine
 10
1.656147999999999
 20
5.637748999999999
 30
0.0
 11
1.697981
 21
5.645917999999999
 31
0.0
  0
LINE
  5
518
330
22
100
AcDbEntity
  8
LAYER_1
  6
Continuous
 62
    39
100
AcDbLine
 10
1.697981
 20
5.645917999999999
 30
0.0
 11
1.740052999999999
 21
5.653777999999999
 31
0.0
  0
LINE
  5
519
330
22
100
AcDbEntity
  8
LAYER_1
  6
Continuous
 62
    39
100
AcDbLine
 10
1.740052999999999
 20
5.653777999999999
 30
0.0
 11
1.782363
 21
5.661329
 31
0.0
  0
LINE
  5
51A
330
22
100
AcDbEntity
  8
LAYER_1
  6
Continuous
 62
    39
100
AcDbLine
 10
1.782363
 20
5.661329
 30
0.0
 11
1.824911999999999
 21
5.668571
 31
0.0
  0
LINE
  5
51B
330
22
100
AcDbEntity
  8
LAYER_1
  6
Continuous
 62
    39
100
AcDbLine
 10
1.824911999999999
 20
5.668571
 30
0.0
 11
1.867697999999999
 21
5.675504
 31
0.0
  0
LINE
  5
51C
330
22
100
AcDbEntity
  8
LAYER_1
  6
Continuous
 62
    39
100
AcDbLine
 10
1.867697999999999
 20
5.675504
 30
0.0
 11
1.910722999999999
 21
5.682127999999999
 31
0.0
  0
LINE
  5
51D
330
22
100
AcDbEntity
  8
LAYER_1
  6
Continuous
 62
    39
100
AcDbLine
 10
1.910722999999999
 20
5.682127999999999
 30
0.0
 11
1.953986
 21
5.688443
 31
0.0
  0
LINE
  5
51E
330
22
100
AcDbEntity
  8
LAYER_1
  6
Continuous
 62
    39
100
AcDbLine
 10
1.953986
 20
5.688443
 30
0.0
 11
1.997486999999999
 21
5.694448999999999
 31
0.0
  0
LINE
  5
51F
330
22
100
AcDbEntity
  8
LAYER_1
  6
Continuous
 62
    39
100
AcDbLine
 10
1.997486999999999
 20
5.694448999999999
 30
0.0
 11
2.041225999999999
 21
5.700147
 31
0.0
  0
LINE
  5
520
330
22
100
AcDbEntity
  8
LAYER_1
  6
Continuous
 62
    39
100
AcDbLine
 10
2.041225999999999
 20
5.700147
 30
0.0
 11
2.085202999999999
 21
5.705536
 31
0.0
  0
LINE
  5
521
330
22
100
AcDbEntity
  8
LAYER_1
  6
Continuous
 62
    39
100
AcDbLine
 10
2.085202999999999
 20
5.705536
 30
0.0
 11
2.129417999999999
 21
5.710615999999999
 31
0.0
  0
LINE
  5
522
330
22
100
AcDbEntity
  8
LAYER_1
  6
Continuous
 62
    39
100
AcDbLine
 10
2.129417999999999
 20
5.710615999999999
 30
0.0
 11
2.173871
 21
5.715387999999999
 31
0.0
  0
LINE
  5
523
330
22
100
AcDbEntity
  8
LAYER_1
  6
Continuous
 62
    39
100
AcDbLine
 10
2.173871
 20
5.715387999999999
 30
0.0
 11
2.218561
 21
5.719851999999999
 31
0.0
  0
LINE
  5
524
330
22
100
AcDbEntity
  8
LAYER_1
  6
Continuous
 62
    39
100
AcDbLine
 10
2.218561
 20
5.719851999999999
 30
0.0
 11
2.263488999999999
 21
5.724007
 31
0.0
  0
LINE
  5
525
330
22
100
AcDbEntity
  8
LAYER_1
  6
Continuous
 62
    39
100
AcDbLine
 10
2.263488999999999
 20
5.724007
 30
0.0
 11
2.308654
 21
5.727853999999999
 31
0.0
  0
LINE
  5
526
330
22
100
AcDbEntity
  8
LAYER_1
  6
Continuous
 62
    39
100
AcDbLine
 10
2.308654
 20
5.727853999999999
 30
0.0
 11
2.354057
 21
5.731391999999999
 31
0.0
  0
LINE
  5
527
330
22
100
AcDbEntity
  8
LAYER_1
  6
Continuous
 62
    39
100
AcDbLine
 10
2.354057
 20
5.731391999999999
 30
0.0
 11
2.399697
 21
5.734623
 31
0.0
  0
LINE
  5
528
330
22
100
AcDbEntity
  8
LAYER_1
  6
Continuous
 62
    39
100
AcDbLine
 10
2.399697
 20
5.734623
 30
0.0
 11
2.445574
 21
5.737546
 31
0.0
  0
LINE
  5
529
330
22
100
AcDbEntity
  8
LAYER_1
  6
Continuous
 62
    39
100
AcDbLine
 10
2.445574
 20
5.737546
 30
0.0
 11
2.491689
 21
5.740159999999999
 31
0.0
  0
LINE
  5
52A
330
22
100
AcDbEntity
  8
LAYER_1
  6
Continuous
 62
    39
100
AcDbLine
 10
2.491689
 20
5.740159999999999
 30
0.0
 11
2.538040999999999
 21
5.742466999999999
 31
0.0
  0
LINE
  5
52B
330
22
100
AcDbEntity
  8
LAYER_1
  6
Continuous
 62
    39
100
AcDbLine
 10
2.538040999999999
 20
5.742466999999999
 30
0.0
 11
2.584629999999999
 21
5.744466
 31
0.0
  0
LINE
  5
52C
330
22
100
AcDbEntity
  8
LAYER_1
  6
Continuous
 62
    39
100
AcDbLine
 10
2.584629999999999
 20
5.744466
 30
0.0
 11
2.631456
 21
5.746157
 31
0.0
  0
LINE
  5
52D
330
22
100
AcDbEntity
  8
LAYER_1
  6
Continuous
 62
    39
100
AcDbLine
 10
2.631456
 20
5.746157
 30
0.0
 11
2.678518999999999
 21
5.747541
 31
0.0
  0
LINE
  5
52E
330
22
100
AcDbEntity
  8
LAYER_1
  6
Continuous
 62
    39
100
AcDbLine
 10
2.678518999999999
 20
5.747541
 30
0.0
 11
2.725817999999999
 21
5.748616999999999
 31
0.0
  0
LINE
  5
52F
330
22
100
AcDbEntity
  8
LAYER_1
  6
Continuous
 62
    39
100
AcDbLine
 10
2.725817999999999
 20
5.748616999999999
 30
0.0
 11
2.773355
 21
5.749385
 31
0.0
  0
LINE
  5
530
330
22
100
AcDbEntity
  8
LAYER_1
  6
Continuous
 62
    39
100
AcDbLine
 10
2.773355
 20
5.749385
 30
0.0
 11
2.821127999999999
 21
5.749845999999999
 31
0.0
  0
LINE
  5
531
330
22
100
AcDbEntity
  8
LAYER_1
  6
Continuous
 62
    39
100
AcDbLine
 10
2.821127999999999
 20
5.749845999999999
 30
0.0
 11
2.869137999999999
 21
5.75
 31
0.0
  0
LINE
  5
532
330
22
100
AcDbEntity
  8
LAYER_1
  6
Continuous
 62
    39
100
AcDbLine
 10
2.869137999999999
 20
5.75
 30
0.0
 11
2.869137999999999
 21
5.75
 31
0.0
  0
LINE
  5
533
330
22
100
AcDbEntity
  8
LAYER_1
  6
Continuous
 62
    39
100
AcDbLine
 10
2.869137999999999
 20
5.75
 30
0.0
 11
2.917275999999999
 21
5.749845999999999
 31
0.0
  0
LINE
  5
534
330
22
100
AcDbEntity
  8
LAYER_1
  6
Continuous
 62
    39
100
AcDbLine
 10
2.917275999999999
 20
5.749845999999999
 30
0.0
 11
2.965174
 21
5.749385
 31
0.0
  0
LINE
  5
535
330
22
100
AcDbEntity
  8
LAYER_1
  6
Continuous
 62
    39
100
AcDbLine
 10
2.965174
 20
5.749385
 30
0.0
 11
3.012831
 21
5.748616999999999
 31
0.0
  0
LINE
  5
536
330
22
100
AcDbEntity
  8
LAYER_1
  6
Continuous
 62
    39
100
AcDbLine
 10
3.012831
 20
5.748616999999999
 30
0.0
 11
3.060245999999999
 21
5.747541
 31
0.0
  0
LINE
  5
537
330
22
100
AcDbEntity
  8
LAYER_1
  6
Continuous
 62
    39
100
AcDbLine
 10
3.060245999999999
 20
5.747541
 30
0.0
 11
3.107420999999999
 21
5.746157
 31
0.0
  0
LINE
  5
538
330
22
100
AcDbEntity
  8
LAYER_1
  6
Continuous
 62
    39
100
AcDbLine
 10
3.107420999999999
 20
5.746157
 30
0.0
 11
3.154354999999999
 21
5.744466
 31
0.0
  0
LINE
  5
539
330
22
100
AcDbEntity
  8
LAYER_1
  6
Continuous
 62
    39
100
AcDbLine
 10
3.154354999999999
 20
5.744466
 30
0.0
 11
3.201049
 21
5.742466999999999
 31
0.0
  0
LINE
  5
53A
330
22
100
AcDbEntity
  8
LAYER_1
  6
Continuous
 62
    39
100
AcDbLine
 10
3.201049
 20
5.742466999999999
 30
0.0
 11
3.247500999999999
 21
5.740159999999999
 31
0.0
  0
LINE
  5
53B
330
22
100
AcDbEntity
  8
LAYER_1
  6
Continuous
 62
    39
100
AcDbLine
 10
3.247500999999999
 20
5.740159999999999
 30
0.0
 11
3.293712999999999
 21
5.737546
 31
0.0
  0
LINE
  5
53C
330
22
100
AcDbEntity
  8
LAYER_1
  6
Continuous
 62
    39
100
AcDbLine
 10
3.293712999999999
 20
5.737546
 30
0.0
 11
3.339684999999999
 21
5.734623
 31
0.0
  0
LINE
  5
53D
330
22
100
AcDbEntity
  8
LAYER_1
  6
Continuous
 62
    39
100
AcDbLine
 10
3.339684999999999
 20
5.734623
 30
0.0
 11
3.385415
 21
5.731391999999999
 31
0.0
  0
LINE
  5
53E
330
22
100
AcDbEntity
  8
LAYER_1
  6
Continuous
 62
    39
100
AcDbLine
 10
3.385415
 20
5.731391999999999
 30
0.0
 11
3.430905999999999
 21
5.727853999999999
 31
0.0
  0
LINE
  5
53F
330
22
100
AcDbEntity
  8
LAYER_1
  6
Continuous
 62
    39
100
AcDbLine
 10
3.430905999999999
 20
5.727853999999999
 30
0.0
 11
3.476155
 21
5.724007
 31
0.0
  0
LINE
  5
540
330
22
100
AcDbEntity
  8
LAYER_1
  6
Continuous
 62
    39
100
AcDbLine
 10
3.476155
 20
5.724007
 30
0.0
 11
3.521163999999999
 21
5.719851999999999
 31
0.0
  0
LINE
  5
541
330
22
100
AcDbEntity
  8
LAYER_1
  6
Continuous
 62
    39
100
AcDbLine
 10
3.521163999999999
 20
5.719851999999999
 30
0.0
 11
3.565933
 21
5.715387999999999
 31
0.0
  0
LINE
  5
542
330
22
100
AcDbEntity
  8
LAYER_1
  6
Continuous
 62
    39
100
AcDbLine
 10
3.565933
 20
5.715387999999999
 30
0.0
 11
3.610460999999999
 21
5.710615999999999
 31
0.0
  0
LINE
  5
543
330
22
100
AcDbEntity
  8
LAYER_1
  6
Continuous
 62
    39
100
AcDbLine
 10
3.610460999999999
 20
5.710615999999999
 30
0.0
 11
3.654748999999999
 21
5.705536
 31
0.0
  0
LINE
  5
544
330
22
100
AcDbEntity
  8
LAYER_1
  6
Continuous
 62
    39
100
AcDbLine
 10
3.654748999999999
 20
5.705536
 30
0.0
 11
3.698795999999999
 21
5.700147
 31
0.0
  0
LINE
  5
545
330
22
100
AcDbEntity
  8
LAYER_1
  6
Continuous
 62
    39
100
AcDbLine
 10
3.698795999999999
 20
5.700147
 30
0.0
 11
3.742604
 21
5.694448999999999
 31
0.0
  0
LINE
  5
546
330
22
100
AcDbEntity
  8
LAYER_1
  6
Continuous
 62
    39
100
AcDbLine
 10
3.742604
 20
5.694448999999999
 30
0.0
 11
3.786170999999999
 21
5.688443
 31
0.0
  0
LINE
  5
547
330
22
100
AcDbEntity
  8
LAYER_1
  6
Continuous
 62
    39
100
AcDbLine
 10
3.786170999999999
 20
5.688443
 30
0.0
 11
3.829496999999999
 21
5.682127999999999
 31
0.0
  0
LINE
  5
548
330
22
100
AcDbEntity
  8
LAYER_1
  6
Continuous
 62
    39
100
AcDbLine
 10
3.829496999999999
 20
5.682127999999999
 30
0.0
 11
3.872583999999999
 21
5.675504
 31
0.0
  0
LINE
  5
549
330
22
100
AcDbEntity
  8
LAYER_1
  6
Continuous
 62
    39
100
AcDbLine
 10
3.872583999999999
 20
5.675504
 30
0.0
 11
3.91543
 21
5.668571
 31
0.0
  0
LINE
  5
54A
330
22
100
AcDbEntity
  8
LAYER_1
  6
Continuous
 62
    39
100
AcDbLine
 10
3.91543
 20
5.668571
 30
0.0
 11
3.958035999999999
 21
5.661329
 31
0.0
  0
LINE
  5
54B
330
22
100
AcDbEntity
  8
LAYER_1
  6
Continuous
 62
    39
100
AcDbLine
 10
3.958035999999999
 20
5.661329
 30
0.0
 11
4.000402999999999
 21
5.653777999999999
 31
0.0
  0
LINE
  5
54C
330
22
100
AcDbEntity
  8
LAYER_1
  6
Continuous
 62
    39
100
AcDbLine
 10
4.000402999999999
 20
5.653777999999999
 30
0.0
 11
4.042529
 21
5.645917999999999
 31
0.0
  0
LINE
  5
54D
330
22
100
AcDbEntity
  8
LAYER_1
  6
Continuous
 62
    39
100
AcDbLine
 10
4.042529
 20
5.645917999999999
 30
0.0
 11
4.084414999999999
 21
5.637748999999999
 31
0.0
  0
LINE
  5
54E
330
22
100
AcDbEntity
  8
LAYER_1
  6
Continuous
 62
    39
100
AcDbLine
 10
4.084414999999999
 20
5.637748999999999
 30
0.0
 11
4.126060999999999
 21
5.629269999999999
 31
0.0
  0
LINE
  5
54F
330
22
100
AcDbEntity
  8
LAYER_1
  6
Continuous
 62
    39
100
AcDbLine
 10
4.126060999999999
 20
5.629269999999999
 30
0.0
 11
4.167468
 21
5.620481999999999
 31
0.0
  0
LINE
  5
550
330
22
100
AcDbEntity
  8
LAYER_1
  6
Continuous
 62
    39
100
AcDbLine
 10
4.167468
 20
5.620481999999999
 30
0.0
 11
4.208633999999999
 21
5.611385
 31
0.0
  0
LINE
  5
551
330
22
100
AcDbEntity
  8
LAYER_1
  6
Continuous
 62
    39
100
AcDbLine
 10
4.208633999999999
 20
5.611385
 30
0.0
 11
4.249560999999999
 21
5.601977999999999
 31
0.0
  0
LINE
  5
552
330
22
100
AcDbEntity
  8
LAYER_1
  6
Continuous
 62
    39
100
AcDbLine
 10
4.249560999999999
 20
5.601977999999999
 30
0.0
 11
4.290246999999999
 21
5.592261999999999
 31
0.0
  0
LINE
  5
553
330
22
100
AcDbEntity
  8
LAYER_1
  6
Continuous
 62
    39
100
AcDbLine
 10
4.290246999999999
 20
5.592261999999999
 30
0.0
 11
4.330694
 21
5.582234999999999
 31
0.0
  0
LINE
  5
554
330
22
100
AcDbEntity
  8
LAYER_1
  6
Continuous
 62
    39
100
AcDbLine
 10
4.330694
 20
5.582234999999999
 30
0.0
 11
4.370902
 21
5.5719
 31
0.0
  0
LINE
  5
555
330
22
100
AcDbEntity
  8
LAYER_1
  6
Continuous
 62
    39
100
AcDbLine
 10
4.370902
 20
5.5719
 30
0.0
 11
4.410868999999999
 21
5.561253999999999
 31
0.0
  0
LINE
  5
556
330
22
100
AcDbEntity
  8
LAYER_1
  6
Continuous
 62
    39
100
AcDbLine
 10
4.410868999999999
 20
5.561253999999999
 30
0.0
 11
4.450597
 21
5.550298
 31
0.0
  0
LINE
  5
557
330
22
100
AcDbEntity
  8
LAYER_1
  6
Continuous
 62
    39
100
AcDbLine
 10
4.450597
 20
5.550298
 30
0.0
 11
4.490085999999999
 21
5.539032999999999
 31
0.0
  0
LINE
  5
558
330
22
100
AcDbEntity
  8
LAYER_1
  6
Continuous
 62
    39
100
AcDbLine
 10
4.490085999999999
 20
5.539032999999999
 30
0.0
 11
4.529333999999999
 21
5.527457
 31
0.0
  0
LINE
  5
559
330
22
100
AcDbEntity
  8
LAYER_1
  6
Continuous
 62
    39
100
AcDbLine
 10
4.529333999999999
 20
5.527457
 30
0.0
 11
4.568344
 21
5.515570999999999
 31
0.0
  0
LINE
  5
55A
330
22
100
AcDbEntity
  8
LAYER_1
  6
Continuous
 62
    39
100
AcDbLine
 10
4.568344
 20
5.515570999999999
 30
0.0
 11
4.607113
 21
5.503375
 31
0.0
  0
LINE
  5
55B
330
22
100
AcDbEntity
  8
LAYER_1
  6
Continuous
 62
    39
100
AcDbLine
 10
4.607113
 20
5.503375
 30
0.0
 11
4.645643999999999
 21
5.490868999999999
 31
0.0
  0
LINE
  5
55C
330
22
100
AcDbEntity
  8
LAYER_1
  6
Continuous
 62
    39
100
AcDbLine
 10
4.645643999999999
 20
5.490868999999999
 30
0.0
 11
4.683934999999999
 21
5.478053
 31
0.0
  0
LINE
  5
55D
330
22
100
AcDbEntity
  8
LAYER_1
  6
Continuous
 62
    39
100
AcDbLine
 10
4.683934999999999
 20
5.478053
 30
0.0
 11
4.721986
 21
5.464926
 31
0.0
  0
LINE
  5
55E
330
22
100
AcDbEntity
  8
LAYER_1
  6
Continuous
 62
    39
100
AcDbLine
 10
4.721986
 20
5.464926
 30
0.0
 11
4.759797999999999
 21
5.451487999999999
 31
0.0
  0
LINE
  5
55F
330
22
100
AcDbEntity
  8
LAYER_1
  6
Continuous
 62
    39
100
AcDbLine
 10
4.759797999999999
 20
5.451487999999999
 30
0.0
 11
4.797371
 21
5.437739999999999
 31
0.0
  0
LINE
  5
560
330
22
100
AcDbEntity
  8
LAYER_1
  6
Continuous
 62
    39
100
AcDbLine
 10
4.797371
 20
5.437739999999999
 30
0.0
 11
4.834705
 21
5.423682
 31
0.0
  0
LINE
  5
561
330
22
100
AcDbEntity
  8
LAYER_1
  6
Continuous
 62
    39
100
AcDbLine
 10
4.834705
 20
5.423682
 30
0.0
 11
4.871799
 21
5.409311999999999
 31
0.0
  0
LINE
  5
562
330
22
100
AcDbEntity
  8
LAYER_1
  6
Continuous
 62
    39
100
AcDbLine
 10
4.871799
 20
5.409311999999999
 30
0.0
 11
4.908655
 21
5.394631999999999
 31
0.0
  0
LINE
  5
563
330
22
100
AcDbEntity
  8
LAYER_1
  6
Continuous
 62
    39
100
AcDbLine
 10
4.908655
 20
5.394631999999999
 30
0.0
 11
4.945270999999999
 21
5.379641
 31
0.0
  0
LINE
  5
564
330
22
100
AcDbEntity
  8
LAYER_1
  6
Continuous
 62
    39
100
AcDbLine
 10
4.945270999999999
 20
5.379641
 30
0.0
 11
4.981648
 21
5.364339
 31
0.0
  0
LINE
  5
565
330
22
100
AcDbEntity
  8
LAYER_1
  6
Continuous
 62
    39
100
AcDbLine
 10
4.981648
 20
5.364339
 30
0.0
 11
5.017786
 21
5.348726
 31
0.0
  0
LINE
  5
566
330
22
100
AcDbEntity
  8
LAYER_1
  6
Continuous
 62
    39
100
AcDbLine
 10
5.017786
 20
5.348726
 30
0.0
 11
5.053684999999999
 21
5.332802
 31
0.0
  0
LINE
  5
567
330
22
100
AcDbEntity
  8
LAYER_1
  6
Continuous
 62
    39
100
AcDbLine
 10
5.053684999999999
 20
5.332802
 30
0.0
 11
5.089344
 21
5.316567
 31
0.0
  0
LINE
  5
568
330
22
100
AcDbEntity
  8
LAYER_1
  6
Continuous
 62
    39
100
AcDbLine
 10
5.089344
 20
5.316567
 30
0.0
 11
5.124765
 21
5.300021
 31
0.0
  0
LINE
  5
569
330
22
100
AcDbEntity
  8
LAYER_1
  6
Continuous
 62
    39
100
AcDbLine
 10
5.124765
 20
5.300021
 30
0.0
 11
5.159947999999999
 21
5.283163
 31
0.0
  0
LINE
  5
56A
330
22
100
AcDbEntity
  8
LAYER_1
  6
Continuous
 62
    39
100
AcDbLine
 10
5.159947999999999
 20
5.283163
 30
0.0
 11
5.194891
 21
5.265994
 31
0.0
  0
LINE
  5
56B
330
22
100
AcDbEntity
  8
LAYER_1
  6
Continuous
 62
    39
100
AcDbLine
 10
5.194891
 20
5.265994
 30
0.0
 11
5.229594999999999
 21
5.248514
 31
0.0
  0
LINE
  5
56C
330
22
100
AcDbEntity
  8
LAYER_1
  6
Continuous
 62
    39
100
AcDbLine
 10
5.229594999999999
 20
5.248514
 30
0.0
 11
5.264060999999999
 21
5.230722
 31
0.0
  0
LINE
  5
56D
330
22
100
AcDbEntity
  8
LAYER_1
  6
Continuous
 62
    39
100
AcDbLine
 10
5.264060999999999
 20
5.230722
 30
0.0
 11
5.298287
 21
5.212617999999999
 31
0.0
  0
LINE
  5
56E
330
22
100
AcDbEntity
  8
LAYER_1
  6
Continuous
 62
    39
100
AcDbLine
 10
5.298287
 20
5.212617999999999
 30
0.0
 11
5.298287
 21
5.212617999999999
 31
0.0
  0
LINE
  5
56F
330
22
100
AcDbEntity
  8
LAYER_1
  6
Continuous
 62
    39
100
AcDbLine
 10
5.298287
 20
5.212617999999999
 30
0.0
 11
5.345541
 21
5.18693
 31
0.0
  0
LINE
  5
570
330
22
100
AcDbEntity
  8
LAYER_1
  6
Continuous
 62
    39
100
AcDbLine
 10
5.345541
 20
5.18693
 30
0.0
 11
5.391659999999999
 21
5.160985
 31
0.0
  0
LINE
  5
571
330
22
100
AcDbEntity
  8
LAYER_1
  6
Continuous
 62
    39
100
AcDbLine
 10
5.391659999999999
 20
5.160985
 30
0.0
 11
5.436644
 21
5.134782
 31
0.0
  0
LINE
  5
572
330
22
100
AcDbEntity
  8
LAYER_1
  6
Continuous
 62
    39
100
AcDbLine
 10
5.436644
 20
5.134782
 30
0.0
 11
5.480494
 21
5.108323
 31
0.0
  0
LINE
  5
573
330
22
100
AcDbEntity
  8
LAYER_1
  6
Continuous
 62
    39
100
AcDbLine
 10
5.480494
 20
5.108323
 30
0.0
 11
5.523208
 21
5.081605999999999
 31
0.0
  0
LINE
  5
574
330
22
100
AcDbEntity
  8
LAYER_1
  6
Continuous
 62
    39
100
AcDbLine
 10
5.523208
 20
5.081605999999999
 30
0.0
 11
5.564788
 21
5.054631999999999
 31
0.0
  0
LINE
  5
575
330
22
100
AcDbEntity
  8
LAYER_1
  6
Continuous
 62
    39
100
AcDbLine
 10
5.564788
 20
5.054631999999999
 30
0.0
 11
5.605231999999999
 21
5.027401999999999
 31
0.0
  0
LINE
  5
576
330
22
100
AcDbEntity
  8
LAYER_1
  6
Continuous
 62
    39
100
AcDbLine
 10
5.605231999999999
 20
5.027401999999999
 30
0.0
 11
5.64454
 21
4.999915
 31
0.0
  0
LINE
  5
577
330
22
100
AcDbEntity
  8
LAYER_1
  6
Continuous
 62
    39
100
AcDbLine
 10
5.64454
 20
4.999915
 30
0.0
 11
5.682712
 21
4.972171
 31
0.0
  0
LINE
  5
578
330
22
100
AcDbEntity
  8
LAYER_1
  6
Continuous
 62
    39
100
AcDbLine
 10
5.682712
 20
4.972171
 30
0.0
 11
5.719748
 21
4.944170999999999
 31
0.0
  0
LINE
  5
579
330
22
100
AcDbEntity
  8
LAYER_1
  6
Continuous
 62
    39
100
AcDbLine
 10
5.719748
 20
4.944170999999999
 30
0.0
 11
5.755648
 21
4.915915
 31
0.0
  0
LINE
  5
57A
330
22
100
AcDbEntity
  8
LAYER_1
  6
Continuous
 62
    39
100
AcDbLine
 10
5.755648
 20
4.915915
 30
0.0
 11
5.790411999999999
 21
4.887401999999999
 31
0.0
  0
LINE
  5
57B
330
22
100
AcDbEntity
  8
LAYER_1
  6
Continuous
 62
    39
100
AcDbLine
 10
5.790411999999999
 20
4.887401999999999
 30
0.0
 11
5.824037999999999
 21
4.858633999999999
 31
0.0
  0
LINE
  5
57C
330
22
100
AcDbEntity
  8
LAYER_1
  6
Continuous
 62
    39
100
AcDbLine
 10
5.824037999999999
 20
4.858633999999999
 30
0.0
 11
5.856527999999999
 21
4.829608999999999
 31
0.0
  0
LINE
  5
57D
330
22
100
AcDbEntity
  8
LAYER_1
  6
Continuous
 62
    39
100
AcDbLine
 10
5.856527999999999
 20
4.829608999999999
 30
0.0
 11
5.887881
 21
4.800327999999999
 31
0.0
  0
LINE
  5
57E
330
22
100
AcDbEntity
  8
LAYER_1
  6
Continuous
 62
    39
100
AcDbLine
 10
5.887881
 20
4.800327999999999
 30
0.0
 11
5.918096
 21
4.770791
 31
0.0
  0
LINE
  5
57F
330
22
100
AcDbEntity
  8
LAYER_1
  6
Continuous
 62
    39
100
AcDbLine
 10
5.918096
 20
4.770791
 30
0.0
 11
5.947173999999999
 21
4.740998999999999
 31
0.0
  0
LINE
  5
580
330
22
100
AcDbEntity
  8
LAYER_1
  6
Continuous
 62
    39
100
AcDbLine
 10
5.947173999999999
 20
4.740998999999999
 30
0.0
 11
5.975113999999999
 21
4.710951
 31
0.0
  0
LINE
  5
581
330
22
100
AcDbEntity
  8
LAYER_1
  6
Continuous
 62
    39
100
AcDbLine
 10
5.975113999999999
 20
4.710951
 30
0.0
 11
6.001916
 21
4.680648
 31
0.0
  0
LINE
  5
582
330
22
100
AcDbEntity
  8
LAYER_1
  6
Continuous
 62
    39
100
AcDbLine
 10
6.001916
 20
4.680648
 30
0.0
 11
6.02758
 21
4.650089
 31
0.0
  0
LINE
  5
583
330
22
100
AcDbEntity
  8
LAYER_1
  6
Continuous
 62
    39
100
AcDbLine
 10
6.02758
 20
4.650089
 30
0.0
 11
6.052105
 21
4.619275
 31
0.0
  0
LINE
  5
584
330
22
100
AcDbEntity
  8
LAYER_1
  6
Continuous
 62
    39
100
AcDbLine
 10
6.052105
 20
4.619275
 30
0.0
 11
6.075491999999999
 21
4.588205
 31
0.0
  0
LINE
  5
585
330
22
100
AcDbEntity
  8
LAYER_1
  6
Continuous
 62
    39
100
AcDbLine
 10
6.075491999999999
 20
4.588205
 30
0.0
 11
6.097739999999999
 21
4.556880999999999
 31
0.0
  0
LINE
  5
586
330
22
100
AcDbEntity
  8
LAYER_1
  6
Continuous
 62
    39
100
AcDbLine
 10
6.097739999999999
 20
4.556880999999999
 30
0.0
 11
6.11885
 21
4.525300999999999
 31
0.0
  0
LINE
  5
587
330
22
100
AcDbEntity
  8
LAYER_1
  6
Continuous
 62
    39
100
AcDbLine
 10
6.11885
 20
4.525300999999999
 30
0.0
 11
6.138818999999999
 21
4.493466999999999
 31
0.0
  0
LINE
  5
588
330
22
100
AcDbEntity
  8
LAYER_1
  6
Continuous
 62
    39
100
AcDbLine
 10
6.138818999999999
 20
4.493466999999999
 30
0.0
 11
6.15765
 21
4.461377999999999
 31
0.0
  0
LINE
  5
589
330
22
100
AcDbEntity
  8
LAYER_1
  6
Continuous
 62
    39
100
AcDbLine
 10
6.15765
 20
4.461377999999999
 30
0.0
 11
6.175341
 21
4.429033999999999
 31
0.0
  0
LINE
  5
58A
330
22
100
AcDbEntity
  8
LAYER_1
  6
Continuous
 62
    39
100
AcDbLine
 10
6.175341
 20
4.429033999999999
 30
0.0
 11
6.191892
 21
4.396436
 31
0.0
  0
LINE
  5
58B
330
22
100
AcDbEntity
  8
LAYER_1
  6
Continuous
 62
    39
100
AcDbLine
 10
6.191892
 20
4.396436
 30
0.0
 11
6.207302999999999
 21
4.363583
 31
0.0
  0
LINE
  5
58C
330
22
100
AcDbEntity
  8
LAYER_1
  6
Continuous
 62
    39
100
AcDbLine
 10
6.207302999999999
 20
4.363583
 30
0.0
 11
6.221573999999999
 21
4.330475999999999
 31
0.0
  0
LINE
  5
58D
330
22
100
AcDbEntity
  8
LAYER_1
  6
Continuous
 62
    39
100
AcDbLine
 10
6.221573999999999
 20
4.330475999999999
 30
0.0
 11
6.234703999999999
 21
4.297114999999999
 31
0.0
  0
LINE
  5
58E
330
22
100
AcDbEntity
  8
LAYER_1
  6
Continuous
 62
    39
100
AcDbLine
 10
6.234703999999999
 20
4.297114999999999
 30
0.0
 11
6.246694
 21
4.263498999999999
 31
0.0
  0
LINE
  5
58F
330
22
100
AcDbEntity
  8
LAYER_1
  6
Continuous
 62
    39
100
AcDbLine
 10
6.246694
 20
4.263498999999999
 30
0.0
 11
6.257541999999999
 21
4.22963
 31
0.0
  0
LINE
  5
590
330
22
100
AcDbEntity
  8
LAYER_1
  6
Continuous
 62
    39
100
AcDbLine
 10
6.257541999999999
 20
4.22963
 30
0.0
 11
6.267249999999999
 21
4.195505999999999
 31
0.0
  0
LINE
  5
591
330
22
100
AcDbEntity
  8
LAYER_1
  6
Continuous
 62
    39
100
AcDbLine
 10
6.267249999999999
 20
4.195505999999999
 30
0.0
 11
6.275816
 21
4.161128999999999
 31
0.0
  0
LINE
  5
592
330
22
100
AcDbEntity
  8
LAYER_1
  6
Continuous
 62
    39
100
AcDbLine
 10
6.275816
 20
4.161128999999999
 30
0.0
 11
6.283241
 21
4.126498
 31
0.0
  0
LINE
  5
593
330
22
100
AcDbEntity
  8
LAYER_1
  6
Continuous
 62
    39
100
AcDbLine
 10
6.283241
 20
4.126498
 30
0.0
 11
6.289524
 21
4.091612999999999
 31
0.0
  0
LINE
  5
594
330
22
100
AcDbEntity
  8
LAYER_1
  6
Continuous
 62
    39
100
AcDbLine
 10
6.289524
 20
4.091612999999999
 30
0.0
 11
6.294666
 21
4.056474999999999
 31
0.0
  0
LINE
  5
595
330
22
100
AcDbEntity
  8
LAYER_1
  6
Continuous
 62
    39
100
AcDbLine
 10
6.294666
 20
4.056474999999999
 30
0.0
 11
6.298664999999999
 21
4.021083999999999
 31
0.0
  0
LINE
  5
596
330
22
100
AcDbEntity
  8
LAYER_1
  6
Continuous
 62
    39
100
AcDbLine
 10
6.298664999999999
 20
4.021083999999999
 30
0.0
 11
6.301521
 21
3.985438999999999
 31
0.0
  0
LINE
  5
597
330
22
100
AcDbEntity
  8
LAYER_1
  6
Continuous
 62
    39
100
AcDbLine
 10
6.301521
 20
3.985438999999999
 30
0.0
 11
6.303236
 21
3.949541
 31
0.0
  0
LINE
  5
598
330
22
100
AcDbEntity
  8
LAYER_1
  6
Continuous
 62
    39
100
AcDbLine
 10
6.303236
 20
3.949541
 30
0.0
 11
6.303806999999999
 21
3.91339
 31
0.0
  0
LINE
  5
599
330
22
100
AcDbEntity
  8
LAYER_1
  6
Continuous
 62
    39
100
AcDbLine
 10
6.303806999999999
 20
3.91339
 30
0.0
 11
6.303806999999999
 21
3.91339
 31
0.0
  0
LINE
  5
59A
330
22
100
AcDbEntity
  8
LAYER_1
  6
Continuous
 62
    39
100
AcDbLine
 10
6.303806999999999
 20
3.91339
 30
0.0
 11
6.303223
 21
3.877058999999999
 31
0.0
  0
LINE
  5
59B
330
22
100
AcDbEntity
  8
LAYER_1
  6
Continuous
 62
    39
100
AcDbLine
 10
6.303223
 20
3.877058999999999
 30
0.0
 11
6.30147
 21
3.840977999999999
 31
0.0
  0
LINE
  5
59C
330
22
100
AcDbEntity
  8
LAYER_1
  6
Continuous
 62
    39
100
AcDbLine
 10
6.30147
 20
3.840977999999999
 30
0.0
 11
6.298548999999999
 21
3.805148
 31
0.0
  0
LINE
  5
59D
330
22
100
AcDbEntity
  8
LAYER_1
  6
Continuous
 62
    39
100
AcDbLine
 10
6.298548999999999
 20
3.805148
 30
0.0
 11
6.294459999999999
 21
3.769566
 31
0.0
  0
LINE
  5
59E
330
22
100
AcDbEntity
  8
LAYER_1
  6
Continuous
 62
    39
100
AcDbLine
 10
6.294459999999999
 20
3.769566
 30
0.0
 11
6.289202999999999
 21
3.734234999999999
 31
0.0
  0
LINE
  5
59F
330
22
100
AcDbEntity
  8
LAYER_1
  6
Continuous
 62
    39
100
AcDbLine
 10
6.289202999999999
 20
3.734234999999999
 30
0.0
 11
6.282778999999999
 21
3.699152999999999
 31
0.0
  0
LINE
  5
5A0
330
22
100
AcDbEntity
  8
LAYER_1
  6
Continuous
 62
    39
100
AcDbLine
 10
6.282778999999999
 20
3.699152999999999
 30
0.0
 11
6.275186999999999
 21
3.664319999999999
 31
0.0
  0
LINE
  5
5A1
330
22
100
AcDbEntity
  8
LAYER_1
  6
Continuous
 62
    39
100
AcDbLine
 10
6.275186999999999
 20
3.664319999999999
 30
0.0
 11
6.266429
 21
3.629735999999999
 31
0.0
  0
LINE
  5
5A2
330
22
100
AcDbEntity
  8
LAYER_1
  6
Continuous
 62
    39
100
AcDbLine
 10
6.266429
 20
3.629735999999999
 30
0.0
 11
6.256502999999999
 21
3.595401999999999
 31
0.0
  0
LINE
  5
5A3
330
22
100
AcDbEntity
  8
LAYER_1
  6
Continuous
 62
    39
100
AcDbLine
 10
6.256502999999999
 20
3.595401999999999
 30
0.0
 11
6.245410999999999
 21
3.561316
 31
0.0
  0
LINE
  5
5A4
330
22
100
AcDbEntity
  8
LAYER_1
  6
Continuous
 62
    39
100
AcDbLine
 10
6.245410999999999
 20
3.561316
 30
0.0
 11
6.233152999999999
 21
3.52748
 31
0.0
  0
LINE
  5
5A5
330
22
100
AcDbEntity
  8
LAYER_1
  6
Continuous
 62
    39
100
AcDbLine
 10
6.233152999999999
 20
3.52748
 30
0.0
 11
6.219729
 21
3.493891999999999
 31
0.0
  0
LINE
  5
5A6
330
22
100
AcDbEntity
  8
LAYER_1
  6
Continuous
 62
    39
100
AcDbLine
 10
6.219729
 20
3.493891999999999
 30
0.0
 11
6.205137999999999
 21
3.460552999999999
 31
0.0
  0
LINE
  5
5A7
330
22
100
AcDbEntity
  8
LAYER_1
  6
Continuous
 62
    39
100
AcDbLine
 10
6.205137999999999
 20
3.460552999999999
 30
0.0
 11
6.189383
 21
3.427462
 31
0.0
  0
LINE
  5
5A8
330
22
100
AcDbEntity
  8
LAYER_1
  6
Continuous
 62
    39
100
AcDbLine
 10
6.189383
 20
3.427462
 30
0.0
 11
6.172461
 21
3.394619999999999
 31
0.0
  0
LINE
  5
5A9
330
22
100
AcDbEntity
  8
LAYER_1
  6
Continuous
 62
    39
100
AcDbLine
 10
6.172461
 20
3.394619999999999
 30
0.0
 11
6.154374999999999
 21
3.362026
 31
0.0
  0
LINE
  5
5AA
330
22
100
AcDbEntity
  8
LAYER_1
  6
Continuous
 62
    39
100
AcDbLine
 10
6.154374999999999
 20
3.362026
 30
0.0
 11
6.135123999999999
 21
3.32968
 31
0.0
  0
LINE
  5
5AB
330
22
100
AcDbEntity
  8
LAYER_1
  6
Continuous
 62
    39
100
AcDbLine
 10
6.135123999999999
 20
3.32968
 30
0.0
 11
6.114708
 21
3.297581999999999
 31
0.0
  0
LINE
  5
5AC
330
22
100
AcDbEntity
  8
LAYER_1
  6
Continuous
 62
    39
100
AcDbLine
 10
6.114708
 20
3.297581999999999
 30
0.0
 11
6.093128
 21
3.265731999999999
 31
0.0
  0
LINE
  5
5AD
330
22
100
AcDbEntity
  8
LAYER_1
  6
Continuous
 62
    39
100
AcDbLine
 10
6.093128
 20
3.265731999999999
 30
0.0
 11
6.070383
 21
3.234129
 31
0.0
  0
LINE
  5
5AE
330
22
100
AcDbEntity
  8
LAYER_1
  6
Continuous
 62
    39
100
AcDbLine
 10
6.070383
 20
3.234129
 30
0.0
 11
6.046475
 21
3.202774999999999
 31
0.0
  0
LINE
  5
5AF
330
22
100
AcDbEntity
  8
LAYER_1
  6
Continuous
 62
    39
100
AcDbLine
 10
6.046475
 20
3.202774999999999
 30
0.0
 11
6.021403
 21
3.171667999999999
 31
0.0
  0
LINE
  5
5B0
330
22
100
AcDbEntity
  8
LAYER_1
  6
Continuous
 62
    39
100
AcDbLine
 10
6.021403
 20
3.171667999999999
 30
0.0
 11
5.995167999999999
 21
3.140808
 31
0.0
  0
LINE
  5
5B1
330
22
100
AcDbEntity
  8
LAYER_1
  6
Continuous
 62
    39
100
AcDbLine
 10
5.995167999999999
 20
3.140808
 30
0.0
 11
5.967769
 21
3.110195999999999
 31
0.0
  0
LINE
  5
5B2
330
22
100
AcDbEntity
  8
LAYER_1
  6
Continuous
 62
    39
100
AcDbLine
 10
5.967769
 20
3.110195999999999
 30
0.0
 11
5.939206999999999
 21
3.079830999999999
 31
0.0
  0
LINE
  5
5B3
330
22
100
AcDbEntity
  8
LAYER_1
  6
Continuous
 62
    39
100
AcDbLine
 10
5.939206999999999
 20
3.079830999999999
 30
0.0
 11
5.909482999999999
 21
3.049713
 31
0.0
  0
LINE
  5
5B4
330
22
100
AcDbEntity
  8
LAYER_1
  6
Continuous
 62
    39
100
AcDbLine
 10
5.909482999999999
 20
3.049713
 30
0.0
 11
5.878595999999999
 21
3.019841999999999
 31
0.0
  0
LINE
  5
5B5
330
22
100
AcDbEntity
  8
LAYER_1
  6
Continuous
 62
    39
100
AcDbLine
 10
5.878595999999999
 20
3.019841999999999
 30
0.0
 11
5.846547
 21
2.990218
 31
0.0
  0
LINE
  5
5B6
330
22
100
AcDbEntity
  8
LAYER_1
  6
Continuous
 62
    39
100
AcDbLine
 10
5.846547
 20
2.990218
 30
0.0
 11
5.813335999999999
 21
2.96084
 31
0.0
  0
LINE
  5
5B7
330
22
100
AcDbEntity
  8
LAYER_1
  6
Continuous
 62
    39
100
AcDbLine
 10
5.813335999999999
 20
2.96084
 30
0.0
 11
5.778963
 21
2.931709
 31
0.0
  0
LINE
  5
5B8
330
22
100
AcDbEntity
  8
LAYER_1
  6
Continuous
 62
    39
100
AcDbLine
 10
5.778963
 20
2.931709
 30
0.0
 11
5.743428999999999
 21
2.902824999999999
 31
0.0
  0
LINE
  5
5B9
330
22
100
AcDbEntity
  8
LAYER_1
  6
Continuous
 62
    39
100
AcDbLine
 10
5.743428999999999
 20
2.902824999999999
 30
0.0
 11
5.706732999999999
 21
2.874187
 31
0.0
  0
LINE
  5
5BA
330
22
100
AcDbEntity
  8
LAYER_1
  6
Continuous
 62
    39
100
AcDbLine
 10
5.706732999999999
 20
2.874187
 30
0.0
 11
5.668876
 21
2.845794999999999
 31
0.0
  0
LINE
  5
5BB
330
22
100
AcDbEntity
  8
LAYER_1
  6
Continuous
 62
    39
100
AcDbLine
 10
5.668876
 20
2.845794999999999
 30
0.0
 11
5.629858999999999
 21
2.817649
 31
0.0
  0
LINE
  5
5BC
330
22
100
AcDbEntity
  8
LAYER_1
  6
Continuous
 62
    39
100
AcDbLine
 10
5.629858999999999
 20
2.817649
 30
0.0
 11
5.589680999999999
 21
2.78975
 31
0.0
  0
LINE
  5
5BD
330
22
100
AcDbEntity
  8
LAYER_1
  6
Continuous
 62
    39
100
AcDbLine
 10
5.589680999999999
 20
2.78975
 30
0.0
 11
5.548341999999999
 21
2.762096
 31
0.0
  0
LINE
  5
5BE
330
22
100
AcDbEntity
  8
LAYER_1
  6
Continuous
 62
    39
100
AcDbLine
 10
5.548341999999999
 20
2.762096
 30
0.0
 11
5.505844
 21
2.734688
 31
0.0
  0
LINE
  5
5BF
330
22
100
AcDbEntity
  8
LAYER_1
  6
Continuous
 62
    39
100
AcDbLine
 10
5.505844
 20
2.734688
 30
0.0
 11
5.462184999999999
 21
2.707524999999999
 31
0.0
  0
LINE
  5
5C0
330
22
100
AcDbEntity
  8
LAYER_1
  6
Continuous
 62
    39
100
AcDbLine
 10
5.462184999999999
 20
2.707524999999999
 30
0.0
 11
5.417366999999999
 21
2.680608
 31
0.0
  0
LINE
  5
5C1
330
22
100
AcDbEntity
  8
LAYER_1
  6
Continuous
 62
    39
100
AcDbLine
 10
5.417366999999999
 20
2.680608
 30
0.0
 11
5.371389999999999
 21
2.653936999999999
 31
0.0
  0
LINE
  5
5C2
330
22
100
AcDbEntity
  8
LAYER_1
  6
Continuous
 62
    39
100
AcDbLine
 10
5.371389999999999
 20
2.653936999999999
 30
0.0
 11
5.371389999999999
 21
2.653936999999999
 31
0.0
  0
LINE
  5
5C3
330
22
100
AcDbEntity
  8
LAYER_1
  6
Continuous
 62
    39
100
AcDbLine
 10
5.371389999999999
 20
2.653936999999999
 30
0.0
 11
5.367113999999999
 21
2.614125999999999
 31
0.0
  0
LINE
  5
5C4
330
22
100
AcDbEntity
  8
LAYER_1
  6
Continuous
 62
    39
100
AcDbLine
 10
5.367113999999999
 20
2.614125999999999
 30
0.0
 11
5.36455
 21
2.574033
 31
0.0
  0
LINE
  5
5C5
330
22
100
AcDbEntity
  8
LAYER_1
  6
Continuous
 62
    39
100
AcDbLine
 10
5.36455
 20
2.574033
 30
0.0
 11
5.363697
 21
2.533374
 31
0.0
  0
LINE
  5
5C6
330
22
100
AcDbEntity
  8
LAYER_1
  6
Continuous
 62
    39
100
AcDbLine
 10
5.363697
 20
2.533374
 30
0.0
 11
5.364748999999999
 21
2.487908
 31
0.0
  0
LINE
  5
5C7
330
22
100
AcDbEntity
  8
LAYER_1
  6
Continuous
 62
    39
100
AcDbLine
 10
5.364748999999999
 20
2.487908
 30
0.0
 11
5.367904
 21
2.443400999999999
 31
0.0
  0
LINE
  5
5C8
330
22
100
AcDbEntity
  8
LAYER_1
  6
Continuous
 62
    39
100
AcDbLine
 10
5.367904
 20
2.443400999999999
 30
0.0
 11
5.373162999999999
 21
2.399852
 31
0.0
  0
LINE
  5
5C9
330
22
100
AcDbEntity
  8
LAYER_1
  6
Continuous
 62
    39
100
AcDbLine
 10
5.373162999999999
 20
2.399852
 30
0.0
 11
5.380526
 21
2.357261999999999
 31
0.0
  0
LINE
  5
5CA
330
22
100
AcDbEntity
  8
LAYER_1
  6
Continuous
 62
    39
100
AcDbLine
 10
5.380526
 20
2.357261999999999
 30
0.0
 11
5.389991999999999
 21
2.31563
 31
0.0
  0
LINE
  5
5CB
330
22
100
AcDbEntity
  8
LAYER_1
  6
Continuous
 62
    39
100
AcDbLine
 10
5.389991999999999
 20
2.31563
 30
0.0
 11
5.401562
 21
2.274955999999999
 31
0.0
  0
LINE
  5
5CC
330
22
100
AcDbEntity
  8
LAYER_1
  6
Continuous
 62
    39
100
AcDbLine
 10
5.401562
 20
2.274955999999999
 30
0.0
 11
5.415235
 21
2.235241999999999
 31
0.0
  0
LINE
  5
5CD
330
22
100
AcDbEntity
  8
LAYER_1
  6
Continuous
 62
    39
100
AcDbLine
 10
5.415235
 20
2.235241999999999
 30
0.0
 11
5.431011999999999
 21
2.196485
 31
0.0
  0
LINE
  5
5CE
330
22
100
AcDbEntity
  8
LAYER_1
  6
Continuous
 62
    39
100
AcDbLine
 10
5.431011999999999
 20
2.196485
 30
0.0
 11
5.448892999999999
 21
2.158688
 31
0.0
  0
LINE
  5
5CF
330
22
100
AcDbEntity
  8
LAYER_1
  6
Continuous
 62
    39
100
AcDbLine
 10
5.448892999999999
 20
2.158688
 30
0.0
 11
5.468875999999999
 21
2.121847999999999
 31
0.0
  0
LINE
  5
5D0
330
22
100
AcDbEntity
  8
LAYER_1
  6
Continuous
 62
    39
100
AcDbLine
 10
5.468875999999999
 20
2.121847999999999
 30
0.0
 11
5.490963999999999
 21
2.085967999999999
 31
0.0
  0
LINE
  5
5D1
330
22
100
AcDbEntity
  8
LAYER_1
  6
Continuous
 62
    39
100
AcDbLine
 10
5.490963999999999
 20
2.085967999999999
 30
0.0
 11
5.515153999999999
 21
2.051045999999999
 31
0.0
  0
LINE
  5
5D2
330
22
100
AcDbEntity
  8
LAYER_1
  6
Continuous
 62
    39
100
AcDbLine
 10
5.515153999999999
 20
2.051045999999999
 30
0.0
 11
5.541447999999999
 21
2.017082999999999
 31
0.0
  0
LINE
  5
5D3
330
22
100
AcDbEntity
  8
LAYER_1
  6
Continuous
 62
    39
100
AcDbLine
 10
5.541447999999999
 20
2.017082999999999
 30
0.0
 11
5.569846
 21
1.984079
 31
0.0
  0
LINE
  5
5D4
330
22
100
AcDbEntity
  8
LAYER_1
  6
Continuous
 62
    39
100
AcDbLine
 10
5.569846
 20
1.984079
 30
0.0
 11
5.600346
 21
1.952033
 31
0.0
  0
LINE
  5
5D5
330
22
100
AcDbEntity
  8
LAYER_1
  6
Continuous
 62
    39
100
AcDbLine
 10
5.600346
 20
1.952033
 30
0.0
 11
5.63295
 21
1.920947
 31
0.0
  0
LINE
  5
5D6
330
22
100
AcDbEntity
  8
LAYER_1
  6
Continuous
 62
    39
100
AcDbLine
 10
5.63295
 20
1.920947
 30
0.0
 11
5.667657
 21
1.890818999999999
 31
0.0
  0
LINE
  5
5D7
330
22
100
AcDbEntity
  8
LAYER_1
  6
Continuous
 62
    39
100
AcDbLine
 10
5.667657
 20
1.890818999999999
 30
0.0
 11
5.700336
 21
1.865058
 31
0.0
  0
LINE
  5
5D8
330
22
100
AcDbEntity
  8
LAYER_1
  6
Continuous
 62
    39
100
AcDbLine
 10
5.700336
 20
1.865058
 30
0.0
 11
5.733975
 21
1.840429999999999
 31
0.0
  0
LINE
  5
5D9
330
22
100
AcDbEntity
  8
LAYER_1
  6
Continuous
 62
    39
100
AcDbLine
 10
5.733975
 20
1.840429999999999
 30
0.0
 11
5.768575
 21
1.816938
 31
0.0
  0
LINE
  5
5DA
330
22
100
AcDbEntity
  8
LAYER_1
  6
Continuous
 62
    39
100
AcDbLine
 10
5.768575
 20
1.816938
 30
0.0
 11
5.804139
 21
1.794586999999999
 31
0.0
  0
LINE
  5
5DB
330
22
100
AcDbEntity
  8
LAYER_1
  6
Continuous
 62
    39
100
AcDbLine
 10
5.804139
 20
1.794586999999999
 30
0.0
 11
5.840665
 21
1.773379
 31
0.0
  0
LINE
  5
5DC
330
22
100
AcDbEntity
  8
LAYER_1
  6
Continuous
 62
    39
100
AcDbLine
 10
5.840665
 20
1.773379
 30
0.0
 11
5.878156999999999
 21
1.753317999999999
 31
0.0
  0
LINE
  5
5DD
330
22
100
AcDbEntity
  8
LAYER_1
  6
Continuous
 62
    39
100
AcDbLine
 10
5.878156999999999
 20
1.753317999999999
 30
0.0
 11
5.916615
 21
1.734407
 31
0.0
  0
LINE
  5
5DE
330
22
100
AcDbEntity
  8
LAYER_1
  6
Continuous
 62
    39
100
AcDbLine
 10
5.916615
 20
1.734407
 30
0.0
 11
5.956039999999999
 21
1.716649
 31
0.0
  0
LINE
  5
5DF
330
22
100
AcDbEntity
  8
LAYER_1
  6
Continuous
 62
    39
100
AcDbLine
 10
5.956039999999999
 20
1.716649
 30
0.0
 11
5.996433
 21
1.700047999999999
 31
0.0
  0
LINE
  5
5E0
330
22
100
AcDbEntity
  8
LAYER_1
  6
Continuous
 62
    39
100
AcDbLine
 10
5.996433
 20
1.700047999999999
 30
0.0
 11
6.037796
 21
1.684606999999999
 31
0.0
  0
LINE
  5
5E1
330
22
100
AcDbEntity
  8
LAYER_1
  6
Continuous
 62
    39
100
AcDbLine
 10
6.037796
 20
1.684606999999999
 30
0.0
 11
6.080129
 21
1.670329
 31
0.0
  0
LINE
  5
5E2
330
22
100
AcDbEntity
  8
LAYER_1
  6
Continuous
 62
    39
100
AcDbLine
 10
6.080129
 20
1.670329
 30
0.0
 11
6.123433
 21
1.657218999999999
 31
0.0
  0
LINE
  5
5E3
330
22
100
AcDbEntity
  8
LAYER_1
  6
Continuous
 62
    39
100
AcDbLine
 10
6.123433
 20
1.657218999999999
 30
0.0
 11
6.167710999999999
 21
1.645277999999999
 31
0.0
  0
LINE
  5
5E4
330
22
100
AcDbEntity
  8
LAYER_1
  6
Continuous
 62
    39
100
AcDbLine
 10
6.167710999999999
 20
1.645277999999999
 30
0.0
 11
6.212962
 21
1.634512
 31
0.0
  0
LINE
  5
5E5
330
22
100
AcDbEntity
  8
LAYER_1
  6
Continuous
 62
    39
100
AcDbLine
 10
6.212962
 20
1.634512
 30
0.0
 11
6.259187999999999
 21
1.624921999999999
 31
0.0
  0
LINE
  5
5E6
330
22
100
AcDbEntity
  8
LAYER_1
  6
Continuous
 62
    39
100
AcDbLine
 10
6.259187999999999
 20
1.624921999999999
 30
0.0
 11
6.306391
 21
1.616512
 31
0.0
  0
LINE
  5
5E7
330
22
100
AcDbEntity
  8
LAYER_1
  6
Continuous
 62
    39
100
AcDbLine
 10
6.306391
 20
1.616512
 30
0.0
 11
6.354570999999999
 21
1.609285999999999
 31
0.0
  0
LINE
  5
5E8
330
22
100
AcDbEntity
  8
LAYER_1
  6
Continuous
 62
    39
100
AcDbLine
 10
6.354570999999999
 20
1.609285999999999
 30
0.0
 11
6.403729
 21
1.603246999999999
 31
0.0
  0
LINE
  5
5E9
330
22
100
AcDbEntity
  8
LAYER_1
  6
Continuous
 62
    39
100
AcDbLine
 10
6.403729
 20
1.603246999999999
 30
0.0
 11
6.453866
 21
1.598397999999999
 31
0.0
  0
ENDSEC
  0
SECTION
  2
OBJECTS
  0
DICTIONARY
  5
C
330
0
100
AcDbDictionary
281
     1
  3
ACAD_COLOR
350
1B
  3
ACAD_GROUP
350
D
  3
ACAD_LAYOUT
350
19
  3
ACAD_MATERIAL
350
1A
  3
ACAD_MLINESTYLE
350
16
  3
ACAD_PLOTSETTINGS
350
18
  3
ACAD_PLOTSTYLENAME
350
E
  3
ACAD_TABLESTYLE
350
1C
  3
AcDbVariableDictionary
350
5ED
  0
DICTIONARY
  5
5EA
330
22
100
AcDbDictionary
280
     1
281
     1
  3
ACAD_SORTENTS
360
5EB
  0
DICTIONARY
  5
1B
102
{ACAD_REACTORS
330
C
102
}
330
C
100
AcDbDictionary
281
     1
  0
DICTIONARY
  5
D
102
{ACAD_REACTORS
330
C
102
}
330
C
100
AcDbDictionary
281
     1
  0
DICTIONARY
  5
19
102
{ACAD_REACTORS
330
C
102
}
330
C
100
AcDbDictionary
281
     1
  3
Layout1
350
21
  3
Model
350
25
  0
DICTIONARY
  5
1A
102
{ACAD_REACTORS
330
C
102
}
330
C
100
AcDbDictionary
281
     1
  0
DICTIONARY
  5
16
102
{ACAD_REACTORS
330
C
102
}
330
C
100
AcDbDictionary
281
     1
  3
Standard
350
17
  0
DICTIONARY
  5
18
102
{ACAD_REACTORS
330
C
102
}
330
C
100
AcDbDictionary
281
     1
  0
ACDBDICTIONARYWDFLT
  5
E
102
{ACAD_REACTORS
330
C
102
}
330
C
100
AcDbDictionary
281
     1
  3
Normal
350
F
100
AcDbDictionaryWithDefault
340
F
  0
DICTIONARY
  5
1C
102
{ACAD_REACTORS
330
C
102
}
330
C
100
AcDbDictionary
281
     1
  3
Standard
350
1D
  0
DICTIONARY
  5
5ED
102
{ACAD_REACTORS
330
C
102
}
330
C
100
AcDbDictionary
281
     1
  3
CTABLESTYLE
350
5EE
  0
SORTENTSTABLE
  5
5EB
102
{ACAD_REACTORS
330
5EA
102
}
330
5EA
100
AcDbSortentsTable
330
22
331
5A0
  5
5A0
331
5C2
  5
5C2
331
5E4
  5
5E4
331
4F5
  5
4F5
331
4D3
  5
4D3
331
4B1
  5
4B1
331
517
  5
517
331
531
  5
531
331
553
  5
553
331
575
  5
575
331
597
  5
597
331
5B1
  5
5B1
331
5D3
  5
5D3
331
506
  5
506
331
4E4
  5
4E4
331
4C2
  5
4C2
331
4A8
  5
4A8
331
486
  5
486
331
464
  5
464
331
442
  5
442
331
428
  5
428
331
542
  5
542
331
564
  5
564
331
586
  5
586
331
497
  5
497
331
475
  5
475
331
453
  5
453
331
417
  5
417
331
406
  5
406
331
5C0
  5
5C0
331
5E2
  5
5E2
331
515
  5
515
331
4F3
  5
4F3
331
4D1
  5
4D1
331
52F
  5
52F
331
551
  5
551
331
573
  5
573
331
595
  5
595
331
5AF
  5
5AF
331
5D1
  5
5D1
331
504
  5
504
331
4E2
  5
4E2
331
4C0
  5
4C0
331
4A6
  5
4A6
331
484
  5
484
331
462
  5
462
331
440
  5
440
331
426
  5
426
331
526
  5
526
331
540
  5
540
331
562
  5
562
331
584
  5
584
331
495
  5
495
331
473
  5
473
331
451
  5
451
331
437
  5
437
331
415
  5
415
331
5E0
  5
5E0
331
513
  5
513
331
4F1
  5
4F1
331
52D
  5
52D
331
54F
  5
54F
331
571
  5
571
331
593
  5
593
331
5AD
  5
5AD
331
5CF
  5
5CF
331
502
  5
502
331
4E0
  5
4E0
331
4BE
  5
4BE
331
4A4
  5
4A4
331
482
  5
482
331
460
  5
460
331
43E
  5
43E
331
424
  5
424
331
524
  5
524
331
53E
  5
53E
331
560
  5
560
331
582
  5
582
331
5BE
  5
5BE
331
4CF
  5
4CF
331
493
  5
493
331
471
  5
471
331
44F
  5
44F
331
435
  5
435
331
413
  5
413
331
511
  5
511
331
52B
  5
52B
331
54D
  5
54D
331
56F
  5
56F
331
591
  5
591
331
5AB
  5
5AB
331
5CD
  5
5CD
331
500
  5
500
331
4DE
  5
4DE
331
4BC
  5
4BC
331
4A2
  5
4A2
331
480
  5
480
331
45E
  5
45E
331
43C
  5
43C
331
422
  5
422
331
522
  5
522
331
53C
  5
53C
331
55E
  5
55E
331
580
  5
580
331
5BC
  5
5BC
331
5DE
  5
5DE
331
4EF
  5
4EF
331
4CD
  5
4CD
331
491
  5
491
331
46F
  5
46F
331
44D
  5
44D
331
433
  5
433
331
411
  5
411
331
529
  5
529
331
54B
  5
54B
331
56D
  5
56D
331
58F
  5
58F
331
5A9
  5
5A9
331
5CB
  5
5CB
331
4FE
  5
4FE
331
4DC
  5
4DC
331
4BA
  5
4BA
331
4A0
  5
4A0
331
47E
  5
47E
331
45C
  5
45C
331
43A
  5
43A
331
420
  5
420
331
520
  5
520
331
53A
  5
53A
331
55C
  5
55C
331
57E
  5
57E
331
5BA
  5
5BA
331
5DC
  5
5DC
331
50F
  5
50F
331
4ED
  5
4ED
331
4CB
  5
4CB
331
48F
  5
48F
331
46D
  5
46D
331
44B
  5
44B
331
431
  5
431
331
40F
  5
40F
331
549
  5
549
331
56B
  5
56B
331
58D
  5
58D
331
5A7
  5
5A7
331
5C9
  5
5C9
331
4FC
  5
4FC
331
4DA
  5
4DA
331
4B8
  5
4B8
331
49E
  5
49E
331
47C
  5
47C
331
45A
  5
45A
331
438
  5
438
331
51E
  5
51E
331
538
  5
538
331
55A
  5
55A
331
57C
  5
57C
331
59E
  5
59E
331
5B8
  5
5B8
331
5DA
  5
5DA
331
50D
  5
50D
331
4EB
  5
4EB
331
4C9
  5
4C9
331
4AF
  5
4AF
331
48D
  5
48D
331
46B
  5
46B
331
449
  5
449
331
42F
  5
42F
331
41E
  5
41E
331
40D
  5
40D
331
569
  5
569
331
58B
  5
58B
331
5A5
  5
5A5
331
5C7
  5
5C7
331
5E9
  5
5E9
331
4FA
  5
4FA
331
4D8
  5
4D8
331
4B6
  5
4B6
331
49C
  5
49C
331
47A
  5
47A
331
458
  5
458
331
51C
  5
51C
331
536
  5
536
331
558
  5
558
331
57A
  5
57A
331
59C
  5
59C
331
5B6
  5
5B6
331
5D8
  5
5D8
331
50B
  5
50B
331
4E9
  5
4E9
331
4C7
  5
4C7
331
4AD
  5
4AD
331
48B
  5
48B
331
469
  5
469
331
447
  5
447
331
42D
  5
42D
331
547
  5
547
331
41C
  5
41C
331
40B
  5
40B
331
589
  5
589
331
5A3
  5
5A3
331
5C5
  5
5C5
331
5E7
  5
5E7
331
4F8
  5
4F8
331
4D6
  5
4D6
331
4B4
  5
4B4
331
49A
  5
49A
331
478
  5
478
331
51A
  5
51A
331
534
  5
534
331
556
  5
556
331
578
  5
578
331
59A
  5
59A
331
5B4
  5
5B4
331
5D6
  5
5D6
331
509
  5
509
331
4E7
  5
4E7
331
4C5
  5
4C5
331
4AB
  5
4AB
331
489
  5
489
331
467
  5
467
331
445
  5
445
331
42B
  5
42B
331
545
  5
545
331
567
  5
567
331
456
  5
456
331
41A
  5
41A
331
409
  5
409
331
5A1
  5
5A1
331
5C3
  5
5C3
331
5E5
  5
5E5
331
4F6
  5
4F6
331
4D4
  5
4D4
331
4B2
  5
4B2
331
498
  5
498
331
518
  5
518
331
532
  5
532
331
554
  5
554
331
576
  5
576
331
598
  5
598
331
5B2
  5
5B2
331
5D4
  5
5D4
331
4C3
  5
4C3
331
4A9
  5
4A9
331
487
  5
487
331
465
  5
465
331
443
  5
443
331
429
  5
429
331
407
  5
407
331
507
  5
507
331
4E5
  5
4E5
331
543
  5
543
331
565
  5
565
331
587
  5
587
331
476
  5
476
331
454
  5
454
331
418
  5
418
331
5C1
  5
5C1
331
5E3
  5
5E3
331
4F4
  5
4F4
331
4D2
  5
4D2
331
4B0
  5
4B0
331
516
  5
516
331
530
  5
530
331
552
  5
552
331
574
  5
574
331
596
  5
596
331
5B0
  5
5B0
331
5D2
  5
5D2
331
505
  5
505
331
4E3
  5
4E3
331
4C1
  5
4C1
331
4A7
  5
4A7
331
485
  5
485
331
463
  5
463
331
441
  5
441
331
427
  5
427
331
541
  5
541
331
527
  5
527
331
563
  5
563
331
585
  5
585
331
496
  5
496
331
474
  5
474
331
452
  5
452
331
416
  5
416
331
405
  5
405
331
5E1
  5
5E1
331
514
  5
514
331
4F2
  5
4F2
331
4D0
  5
4D0
331
52E
  5
52E
331
550
  5
550
331
572
  5
572
331
594
  5
594
331
5AE
  5
5AE
331
5D0
  5
5D0
331
503
  5
503
331
4E1
  5
4E1
331
4BF
  5
4BF
331
4A5
  5
4A5
331
483
  5
483
331
461
  5
461
331
43F
  5
43F
331
425
  5
425
331
525
  5
525
331
53F
  5
53F
331
561
  5
561
331
583
  5
583
331
5BF
  5
5BF
331
494
  5
494
331
472
  5
472
331
450
  5
450
331
436
  5
436
331
414
  5
414
331
512
  5
512
331
4F0
  5
4F0
331
52C
  5
52C
331
54E
  5
54E
331
570
  5
570
331
592
  5
592
331
5AC
  5
5AC
331
5CE
  5
5CE
331
501
  5
501
331
4DF
  5
4DF
331
4BD
  5
4BD
331
4A3
  5
4A3
331
481
  5
481
331
45F
  5
45F
331
43D
  5
43D
331
423
  5
423
331
523
  5
523
331
53D
  5
53D
331
55F
  5
55F
331
581
  5
581
331
5BD
  5
5BD
331
5DF
  5
5DF
331
4CE
  5
4CE
331
492
  5
492
331
470
  5
470
331
44E
  5
44E
331
434
  5
434
331
412
  5
412
331
510
  5
510
331
52A
  5
52A
331
54C
  5
54C
331
56E
  5
56E
331
590
  5
590
331
5AA
  5
5AA
331
5CC
  5
5CC
331
4FF
  5
4FF
331
4DD
  5
4DD
331
4BB
  5
4BB
331
4A1
  5
4A1
331
47F
  5
47F
331
45D
  5
45D
331
43B
  5
43B
331
421
  5
421
331
521
  5
521
331
53B
  5
53B
331
55D
  5
55D
331
57F
  5
57F
331
5BB
  5
5BB
331
5DD
  5
5DD
331
4EE
  5
4EE
331
4CC
  5
4CC
331
490
  5
490
331
46E
  5
46E
331
44C
  5
44C
331
432
  5
432
331
410
  5
410
331
528
  5
528
331
54A
  5
54A
331
56C
  5
56C
331
58E
  5
58E
331
5A8
  5
5A8
331
5CA
  5
5CA
331
4FD
  5
4FD
331
4DB
  5
4DB
331
4B9
  5
4B9
331
49F
  5
49F
331
47D
  5
47D
331
45B
  5
45B
331
439
  5
439
331
51F
  5
51F
331
539
  5
539
331
55B
  5
55B
331
57D
  5
57D
331
5B9
  5
5B9
331
59F
  5
59F
331
5DB
  5
5DB
331
50E
  5
50E
331
4EC
  5
4EC
331
4CA
  5
4CA
331
48E
  5
48E
331
46C
  5
46C
331
44A
  5
44A
331
430
  5
430
331
41F
  5
41F
331
40E
  5
40E
331
548
  5
548
331
56A
  5
56A
331
58C
  5
58C
331
5A6
  5
5A6
331
5C8
  5
5C8
331
4FB
  5
4FB
331
4D9
  5
4D9
331
4B7
  5
4B7
331
49D
  5
49D
331
47B
  5
47B
331
459
  5
459
331
51D
  5
51D
331
537
  5
537
331
559
  5
559
331
57B
  5
57B
331
59D
  5
59D
331
5B7
  5
5B7
331
5D9
  5
5D9
331
50C
  5
50C
331
4EA
  5
4EA
331
4C8
  5
4C8
331
4AE
  5
4AE
331
48C
  5
48C
331
46A
  5
46A
331
448
  5
448
331
42E
  5
42E
331
41D
  5
41D
331
40C
  5
40C
331
568
  5
568
331
58A
  5
58A
331
5A4
  5
5A4
331
5C6
  5
5C6
331
5E8
  5
5E8
331
4F9
  5
4F9
331
4D7
  5
4D7
331
4B5
  5
4B5
331
49B
  5
49B
331
479
  5
479
331
51B
  5
51B
331
535
  5
535
331
557
  5
557
331
579
  5
579
331
59B
  5
59B
331
5B5
  5
5B5
331
5D7
  5
5D7
331
50A
  5
50A
331
4E8
  5
4E8
331
4C6
  5
4C6
331
4AC
  5
4AC
331
48A
  5
48A
331
468
  5
468
331
446
  5
446
331
42C
  5
42C
331
546
  5
546
331
457
  5
457
331
41B
  5
41B
331
40A
  5
40A
331
588
  5
588
331
5A2
  5
5A2
331
5C4
  5
5C4
331
5E6
  5
5E6
331
4F7
  5
4F7
331
4D5
  5
4D5
331
4B3
  5
4B3
331
499
  5
499
331
519
  5
519
331
533
  5
533
331
555
  5
555
331
577
  5
577
331
599
  5
599
331
5B3
  5
5B3
331
5D5
  5
5D5
331
508
  5
508
331
4E6
  5
4E6
331
4C4
  5
4C4
331
4AA
  5
4AA
331
488
  5
488
331
466
  5
466
331
444
  5
444
331
42A
  5
42A
331
544
  5
544
331
566
  5
566
331
477
  5
477
331
455
  5
455
331
419
  5
419
331
408
  5
408
  0
LAYOUT
  5
21
102
{ACAD_REACTORS
330
19
102
}
330
19
100
AcDbPlotSettings
  1

  2
Send To OneNote 2007
  4

  6

 40
0.0
 41
0.0
 42
0.0
 43
0.0
 44
0.0
 45
0.0
 46
0.0
 47
0.0
 48
0.0
 49
0.0
140
0.0
141
0.0
142
1.0
143
1.0
 70
   688
 72
     0
 73
     0
 74
     5
  7

 75
    16
147
1.0
 76
     0
 77
     2
 78
   300
148
0.0
149
0.0
100
AcDbLayout
  1
Layout1
 70
     1
 71
     1
 10
0.0
 20
0.0
 11
12.0
 21
9.0
 12
0.0
 22
0.0
 32
0.0
 14
1.000000000000000E+20
 24
1.000000000000000E+20
 34
1.000000000000000E+20
 15
-1.000000000000000E+20
 25
-1.000000000000000E+20
 35
-1.000000000000000E+20
146
0.0
 13
0.0
 23
0.0
 33
0.0
 16
1.0
 26
0.0
 36
0.0
 17
0.0
 27
1.0
 37
0.0
 76
     0
330
1E
  0
LAYOUT
  5
25
102
{ACAD_REACTORS
330
19
102
}
330
19
100
AcDbPlotSettings
  1

  2
Send To OneNote 2007
  4

  6

 40
0.0
 41
0.0
 42
0.0
 43
0.0
 44
0.0
 45
0.0
 46
0.0
 47
0.0
 48
0.0
 49
0.0
140
0.0
141
0.0
142
1.0
143
1.0
 70
  1712
 72
     0
 73
     0
 74
     0
  7

 75
     0
147
1.0
 76
     0
 77
     2
 78
   300
148
0.0
149
0.0
100
AcDbLayout
  1
Model
 70
     1
 71
     0
 10
0.0
 20
0.0
 11
12.0
 21
9.0
 12
0.0
 22
0.0
 32
0.0
 14
0.0
 24
0.0
 34
0.0
 15
0.0
 25
0.0
 35
0.0
146
0.0
 13
0.0
 23
0.0
 33
0.0
 16
1.0
 26
0.0
 36
0.0
 17
0.0
 27
1.0
 37
0.0
 76
     0
330
22
  0
MLINESTYLE
  5
17
102
{ACAD_REACTORS
330
16
102
}
330
16
100
AcDbMlineStyle
  2
STANDARD
 70
     0
  3

 62
   256
 51
90.0
 52
90.0
 71
     2
 49
0.5
 62
   256
  6
BYLAYER
 49
-0.5
 62
   256
  6
BYLAYER
  0
ACDBPLACEHOLDER
  5
F
102
{ACAD_REACTORS
330
E
102
}
330
E
  0
TABLESTYLE
  5
1D
102
{ACAD_REACTORS
330
1C
102
}
330
1C
100
AcDbTableStyle
  3
Standard
 70
     0
 71
     0
 40
0.06
 41
0.06
280
     0
281
     0
  7
Standard
140
0.18
170
     2
 62
     0
 63
     7
283
     0
274
    -2
284
     1
 64
     0
275
    -2
285
     1
 65
     0
276
    -2
286
     1
 66
     0
277
    -2
287
     1
 67
     0
278
    -2
288
     1
 68
     0
279
    -2
289
     1
 69
     0
  7
Standard
140
0.25
170
     5
 62
     0
 63
     7
283
     0
274
    -2
284
     1
 64
     0
275
    -2
285
     1
 65
     0
276
    -2
286
     1
 66
     0
277
    -2
287
     1
 67
     0
278
    -2
288
     1
 68
     0
279
    -2
289
     1
 69
     0
  7
Standard
140
0.18
170
     5
 62
     0
 63
     7
283
     0
274
    -2
284
     1
 64
     0
275
    -2
285
     1
 65
     0
276
    -2
286
     1
 66
     0
277
    -2
287
     1
 67
     0
278
    -2
288
     1
 68
     0
279
    -2
289
     1
 69
     0
  0
DICTIONARYVAR
  5
5EE
102
{ACAD_REACTORS
330
5ED
102
}
330
5ED
100
DictionaryVariables
280
     0
  1
STANDARD
  0
ENDSEC
  0
EOF
