  0
SECTION
  2
HEADER
  9
$ACADVER
  1
AC1015
  9
$ACADMAINTVER
 70
     6
  9
$DWGCODEPAGE
  3
ANSI_1252
  9
$INSBASE
 10
0.0
 20
0.0
 30
0.0
  9
$EXTMIN
 10
0.0
 20
0.0
 30
0.0
  9
$EXTMAX
 10
39.5
 20
15.5
 30
0.0
  9
$LIMMIN
 10
0.0
 20
0.0
  9
$LIMMAX
 10
39.5
 20
15.5
  9
$ORTHOMODE
 70
     0
  9
$REGENMODE
 70
     1
  9
$FILLMODE
 70
     1
  9
$QTEXTMODE
 70
     0
  9
$MIRRTEXT
 70
     1
  9
$LTSCALE
 40
1.0
  9
$ATTMODE
 70
     1
  9
$TEXTSIZE
 40
0.1377952756
  9
$TRACEWID
 40
0.05
  9
$TEXTSTYLE
  7
Standard
  9
$CLAYER
  8
0
  9
$CELTYPE
  6
ByLayer
  9
$CECOLOR
 62
   256
  9
$CELTSCALE
 40
1.0
  9
$DISPSILH
 70
     0
  9
$DIMSCALE
 40
1.0
  9
$DIMASZ
 40
0.2362204724
  9
$DIMEXO
 40
0.0393700787
  9
$DIMDLI
 40
0.38
  9
$DIMRND
 40
0.0
  9
$DIMDLE
 40
0.0
  9
$DIMEXE
 40
0.0393700787
  9
$DIMTP
 40
0.0
  9
$DIMTM
 40
0.0
  9
$DIMTXT
 40
0.1377952756
  9
$DIMCEN
 40
0.09
  9
$DIMTSZ
 40
0.0
  9
$DIMTOL
 70
     0
  9
$DIMLIM
 70
     0
  9
$DIMTIH
 70
     1
  9
$DIMTOH
 70
     1
  9
$DIMSE1
 70
     0
  9
$DIMSE2
 70
     0
  9
$DIMTAD
 70
     1
  9
$DIMZIN
 70
     0
  9
$DIMBLK
  1

  9
$DIMASO
 70
     1
  9
$DIMSHO
 70
     1
  9
$DIMPOST
  1

  9
$DIMAPOST
  1

  9
$DIMALT
 70
     0
  9
$DIMALTD
 70
     2
  9
$DIMALTF
 40
25.4
  9
$DIMLFAC
 40
1.0
  9
$DIMTOFL
 70
     0
  9
$DIMTVP
 40
0.0
  9
$DIMTIX
 70
     0
  9
$DIMSOXD
 70
     0
  9
$DIMSAH
 70
     0
  9
$DIMBLK1
  1

  9
$DIMBLK2
  1

  9
$DIMSTYLE
  2
Standard
  9
$DIMCLRD
 70
     0
  9
$DIMCLRE
 70
     0
  9
$DIMCLRT
 70
     0
  9
$DIMTFAC
 40
1.0
  9
$DIMGAP
 40
0.06
  9
$DIMJUST
 70
     0
  9
$DIMSD1
 70
     0
  9
$DIMSD2
 70
     0
  9
$DIMTOLJ
 70
     1
  9
$DIMTZIN
 70
     0
  9
$DIMALTZ
 70
     0
  9
$DIMALTTZ
 70
     0
  9
$DIMUPT
 70
     0
  9
$DIMDEC
 70
     4
  9
$DIMTDEC
 70
     4
  9
$DIMALTU
 70
     2
  9
$DIMALTTD
 70
     2
  9
$DIMTXSTY
  7
Standard
  9
$DIMAUNIT
 70
     0
  9
$DIMADEC
 70
     0
  9
$DIMALTRND
 40
0.0
  9
$DIMAZIN
 70
     0
  9
$DIMDSEP
 70
    46
  9
$DIMATFIT
 70
     3
  9
$DIMFRAC
 70
     0
  9
$DIMLDRBLK
  1

  9
$DIMLUNIT
 70
     2
  9
$DIMLWD
 70
    -2
  9
$DIMLWE
 70
    -2
  9
$DIMTMOVE
 70
     0
  9
$LUNITS
 70
     2
  9
$LUPREC
 70
     2
  9
$SKETCHINC
 40
0.1
  9
$FILLETRAD
 40
0.5
  9
$AUNITS
 70
     0
  9
$AUPREC
 70
     0
  9
$MENU
  1
.
  9
$ELEVATION
 40
0.0
  9
$PELEVATION
 40
0.0
  9
$THICKNESS
 40
0.0
  9
$LIMCHECK
 70
     0
  9
$CHAMFERA
 40
0.5
  9
$CHAMFERB
 40
0.5
  9
$CHAMFERC
 40
1.0
  9
$CHAMFERD
 40
0.0
  9
$SKPOLY
 70
     0
  9
$TDCREATE
 40
2455904.879890579
  9
$TDUCREATE
 40
2455905.129890579
  9
$TDUPDATE
 40
2455904.87989059
  9
$TDUUPDATE
 40
2455905.12989059
  9
$TDINDWG
 40
0.0000000116
  9
$TDUSRTIMER
 40
0.0000000116
  9
$USRTIMER
 70
     1
  9
$ANGBASE
 50
0.0
  9
$ANGDIR
 70
     0
  9
$PDMODE
 70
     0
  9
$PDSIZE
 40
-1.0
  9
$PLINEWID
 40
0.0
  9
$SPLFRAME
 70
     0
  9
$SPLINETYPE
 70
     6
  9
$SPLINESEGS
 70
     8
  9
$HANDSEED
  5
298
  9
$SURFTAB1
 70
     6
  9
$SURFTAB2
 70
     6
  9
$SURFTYPE
 70
     6
  9
$SURFU
 70
     6
  9
$SURFV
 70
     6
  9
$UCSBASE
  2

  9
$UCSNAME
  2

  9
$UCSORG
 10
0.0
 20
0.0
 30
0.0
  9
$UCSXDIR
 10
1.0
 20
0.0
 30
0.0
  9
$UCSYDIR
 10
0.0
 20
1.0
 30
0.0
  9
$UCSORTHOREF
  2

  9
$UCSORTHOVIEW
 70
     0
  9
$UCSORGTOP
 10
0.0
 20
0.0
 30
0.0
  9
$UCSORGBOTTOM
 10
0.0
 20
0.0
 30
0.0
  9
$UCSORGLEFT
 10
0.0
 20
0.0
 30
0.0
  9
$UCSORGRIGHT
 10
0.0
 20
0.0
 30
0.0
  9
$UCSORGFRONT
 10
0.0
 20
0.0
 30
0.0
  9
$UCSORGBACK
 10
0.0
 20
0.0
 30
0.0
  9
$PUCSBASE
  2

  9
$PUCSNAME
  2

  9
$PUCSORG
 10
0.0
 20
0.0
 30
0.0
  9
$PUCSXDIR
 10
1.0
 20
0.0
 30
0.0
  9
$PUCSYDIR
 10
0.0
 20
1.0
 30
0.0
  9
$PUCSORTHOREF
  2

  9
$PUCSORTHOVIEW
 70
     0
  9
$PUCSORGTOP
 10
0.0
 20
0.0
 30
0.0
  9
$PUCSORGBOTTOM
 10
0.0
 20
0.0
 30
0.0
  9
$PUCSORGLEFT
 10
0.0
 20
0.0
 30
0.0
  9
$PUCSORGRIGHT
 10
0.0
 20
0.0
 30
0.0
  9
$PUCSORGFRONT
 10
0.0
 20
0.0
 30
0.0
  9
$PUCSORGBACK
 10
0.0
 20
0.0
 30
0.0
  9
$USERI1
 70
     0
  9
$USERI2
 70
     0
  9
$USERI3
 70
     0
  9
$USERI4
 70
     0
  9
$USERI5
 70
     0
  9
$USERR1
 40
0.0
  9
$USERR2
 40
0.0
  9
$USERR3
 40
0.0
  9
$USERR4
 40
0.0
  9
$USERR5
 40
0.0
  9
$WORLDVIEW
 70
     1
  9
$SHADEDGE
 70
     3
  9
$SHADEDIF
 70
    70
  9
$TILEMODE
 70
     1
  9
$MAXACTVP
 70
    64
  9
$PINSBASE
 10
0.0
 20
0.0
 30
0.0
  9
$PLIMCHECK
 70
     0
  9
$PEXTMIN
 10
1.0000000000E+20
 20
1.0000000000E+20
 30
1.0000000000E+20
  9
$PEXTMAX
 10
-1.0000000000E+20
 20
-1.0000000000E+20
 30
-1.0000000000E+20
  9
$PLIMMIN
 10
0.0
 20
0.0
  9
$PLIMMAX
 10
12.0
 20
9.0
  9
$UNITMODE
 70
     0
  9
$VISRETAIN
 70
     1
  9
$PLINEGEN
 70
     0
  9
$PSLTSCALE
 70
     1
  9
$TREEDEPTH
 70
  3020
  9
$CMLSTYLE
  2
Standard
  9
$CMLJUST
 70
     0
  9
$CMLSCALE
 40
1.0
  9
$PROXYGRAPHICS
 70
     1
  9
$MEASUREMENT
 70
     0
  9
$CELWEIGHT
370
    -1
  9
$ENDCAPS
280
     0
  9
$JOINSTYLE
280
     0
  9
$LWDISPLAY
290
     1
  9
$INSUNITS
 70
     1
  9
$HYPERLINKBASE
  1

  9
$STYLESHEET
  1

  9
$XEDIT
290
     1
  9
$CEPSNTYPE
380
     0
  9
$PSTYLEMODE
290
     1
  9
$FINGERPRINTGUID
  2
{5E2E1030-9DD9-4E35-B2C1-C1B225AD898A}
  9
$VERSIONGUID
  2
{FAEB1C32-E019-11D5-929B-00C0DF256EC4}
  9
$EXTNAMES
290
     1
  9
$PSVPSCALE
 40
0.0
  9
$OLESTARTUP
290
     0
  0
ENDSEC
  0
SECTION
  2
CLASSES
  0
CLASS
  1
ACDBDICTIONARYWDFLT
  2
AcDbDictionaryWithDefault
  3
ObjectDBX Classes
 90
        0
280
     0
281
     0
  0
CLASS
  1
VISUALSTYLE
  2
AcDbVisualStyle
  3
ObjectDBX Classes
 90
     4095
280
     0
281
     0
  0
CLASS
  1
ACDBPLACEHOLDER
  2
AcDbPlaceHolder
  3
ObjectDBX Classes
 90
        0
280
     0
281
     0
  0
CLASS
  1
LAYOUT
  2
AcDbLayout
  3
ObjectDBX Classes
 90
        0
280
     0
281
     0
  0
ENDSEC
  0
SECTION
  2
TABLES
  0
TABLE
  2
VPORT
  5
8
330
0
100
AcDbSymbolTable
 70
     1
  0
VPORT
  5
29
330
8
100
AcDbSymbolTableRecord
100
AcDbViewportTableRecord
  2
*Active
 70
     0
 10
0.0
 20
0.0
 11
1.0
 21
1.0
 12
19.75
 22
7.75
 13
0.0
 23
0.0
 14
0.5
 24
0.5
 15
0.5
 25
0.5
 16
0.0
 26
0.0
 36
1.0
 17
0.0
 27
0.0
 37
0.0
 40
15.5
 41
2.5483870968
 42
50.0
 43
0.0
 44
0.0
 50
0.0
 51
0.0
 71
     0
 72
  2000
 73
     1
 74
     3
 75
     0
 76
     0
 77
     0
 78
     0
281
     0
 65
     1
110
0.0
120
0.0
130
0.0
111
1.0
121
0.0
131
0.0
112
0.0
122
1.0
132
0.0
 79
     0
146
0.0
  0
ENDTAB
  0
TABLE
  2
LTYPE
  5
5
330
0
100
AcDbSymbolTable
 70
     6
  0
LTYPE
  5
14
330
5
100
AcDbSymbolTableRecord
100
AcDbLinetypeTableRecord
  2
ByBlock
 70
     0
  3

 72
    65
 73
     0
 40
0.0
  0
LTYPE
  5
15
330
5
100
AcDbSymbolTableRecord
100
AcDbLinetypeTableRecord
  2
ByLayer
 70
     0
  3

 72
    65
 73
     0
 40
0.0
  0
LTYPE
  5
16
330
5
100
AcDbSymbolTableRecord
100
AcDbLinetypeTableRecord
  2
Continuous
 70
     0
  3
Solid line
 72
    65
 73
     0
 40
0.0
  0
LTYPE
  5
3B
330
5
100
AcDbSymbolTableRecord
100
AcDbLinetypeTableRecord
  2
HIDDEN
 70
     0
  3
Hidden __ __ __ __ __ __ __ __ __ __ __ __ __ __
 72
    65
 73
     2
 40
0.075
 49
0.05
 74
     0
 49
-0.025
 74
     0
  0
LTYPE
  5
3C
330
5
100
AcDbSymbolTableRecord
100
AcDbLinetypeTableRecord
  2
PHANTOM
 70
     0
  3
Phantom ______  __  __  ______  __  __  ______
 72
    65
 73
     6
 40
0.5
 49
0.25
 74
     0
 49
-0.05
 74
     0
 49
0.05
 74
     0
 49
-0.05
 74
     0
 49
0.05
 74
     0
 49
-0.05
 74
     0
  0
LTYPE
  5
3D
330
5
100
AcDbSymbolTableRecord
100
AcDbLinetypeTableRecord
  2
CENTER
 70
     0
  3
Center ____ _ ____ _ ____ _ ____ _ ____ _ ____
 72
    65
 73
     4
 40
0.4
 49
0.25
 74
     0
 49
-0.05
 74
     0
 49
0.05
 74
     0
 49
-0.05
 74
     0
  0
LTYPE
  5
3E
330
5
100
AcDbSymbolTableRecord
100
AcDbLinetypeTableRecord
  2
CENTERX2
 70
     0
  3
Center (2x) ________  __  ________  __  _____
 72
    65
 73
     4
 40
0.8
 49
0.5
 74
     0
 49
-0.1
 74
     0
 49
0.1
 74
     0
 49
-0.1
 74
     0
  0
LTYPE
  5
3F
330
5
100
AcDbSymbolTableRecord
100
AcDbLinetypeTableRecord
  2
DOT2
 70
     0
  3
Dot (.5x) ........................................
 72
    65
 73
     2
 40
0.025
 49
0.0
 74
     0
 49
-0.025
 74
     0
  0
ENDTAB
  0
TABLE
  2
LAYER
  5
2
330
0
100
AcDbSymbolTable
 70
     1
  0
LAYER
  5
10
330
2
100
AcDbSymbolTableRecord
100
AcDbLayerTableRecord
  2
0
 70
     0
 62
     7
  6
Continuous
370
    -3
390
F
  0
ENDTAB
  0
TABLE
  2
STYLE
  5
3
330
0
100
AcDbSymbolTable
 70
     1
  0
STYLE
  5
11
330
3
100
AcDbSymbolTableRecord
100
AcDbTextStyleTableRecord
  2
Standard
 70
     0
 40
0.0
 41
1.0
 50
0.0
 71
     0
 42
0.2
  3
txt
  4

  0
ENDTAB
  0
TABLE
  2
VIEW
  5
6
330
0
100
AcDbSymbolTable
 70
     0
  0
ENDTAB
  0
TABLE
  2
UCS
  5
7
330
0
100
AcDbSymbolTable
 70
     0
  0
ENDTAB
  0
TABLE
  2
APPID
  5
9
330
0
100
AcDbSymbolTable
 70
     1
  0
APPID
  5
12
330
9
100
AcDbSymbolTableRecord
100
AcDbRegAppTableRecord
  2
ACAD
 70
     0
  0
ENDTAB
  0
TABLE
  2
DIMSTYLE
  5
A
330
0
100
AcDbSymbolTable
 70
     1
100
AcDbDimStyleTable
  0
DIMSTYLE
105
27
330
A
100
AcDbSymbolTableRecord
100
AcDbDimStyleTableRecord
  2
Standard
 70
     0
340
11
  0
ENDTAB
  0
TABLE
  2
BLOCK_RECORD
  5
1
330
0
100
AcDbSymbolTable
 70
     1
  0
BLOCK_RECORD
  5
1F
330
1
100
AcDbSymbolTableRecord
100
AcDbBlockTableRecord
  2
*Model_Space
340
22
  0
BLOCK_RECORD
  5
1B
330
1
100
AcDbSymbolTableRecord
100
AcDbBlockTableRecord
  2
*Paper_Space
340
1E
  0
BLOCK_RECORD
  5
23
330
1
100
AcDbSymbolTableRecord
100
AcDbBlockTableRecord
  2
*Paper_Space0
340
26
  0
ENDTAB
  0
ENDSEC
  0
SECTION
  2
BLOCKS
  0
BLOCK
  5
20
330
1F
100
AcDbEntity
  8
0
100
AcDbBlockBegin
  2
*Model_Space
 70
     0
 10
0.0
 20
0.0
 30
0.0
  3
*Model_Space
  1

  0
ENDBLK
  5
21
330
1F
100
AcDbEntity
  8
0
100
AcDbBlockEnd
  0
BLOCK
  5
1C
330
1B
100
AcDbEntity
 67
     1
  8
0
100
AcDbBlockBegin
  2
*Paper_Space
 70
     0
 10
0.0
 20
0.0
 30
0.0
  3
*Paper_Space
  1

  0
ENDBLK
  5
1D
330
1B
100
AcDbEntity
 67
     1
  8
0
100
AcDbBlockEnd
  0
BLOCK
  5
24
330
23
100
AcDbEntity
  8
0
100
AcDbBlockBegin
  2
*Paper_Space0
 70
     0
 10
0.0
 20
0.0
 30
0.0
  3
*Paper_Space0
  1

  0
ENDBLK
  5
25
330
23
100
AcDbEntity
  8
0
100
AcDbBlockEnd
  0
ENDSEC
  0
SECTION
  2
ENTITIES
  0
CIRCLE
  5
40
330
1F
100
AcDbEntity
  8
0
  6
Continuous
 62
     7
370
    15
100
AcDbCircle
 10
1.5134275336
 20
11.6746320645
 30
0.0
 40
0.031500000000001
  0
CIRCLE
  5
41
330
1F
100
AcDbEntity
  8
0
  6
Continuous
 62
     7
370
    15
100
AcDbCircle
 10
1.2634275336
 20
11.6746320645
 30
0.0
 40
0.031500000000001
  0
LINE
  5
42
330
1F
100
AcDbEntity
  8
0
  6
Continuous
 62
     7
370
    15
100
AcDbLine
 10
1.6384275276
 20
11.4496322348
 30
0.0
 11
1.6384275276
 21
11.8246322761
 31
0.0
  0
ARC
  5
43
330
1F
100
AcDbEntity
  8
0
  6
Continuous
 62
     7
370
    15
100
AcDbCircle
 10
1.2634275336
 20
11.4496320645
 30
0.0
 40
0.125
100
AcDbArc
 50
180.0
 51
270.0
  0
CIRCLE
  5
44
330
1F
100
AcDbEntity
  8
0
  6
Continuous
 62
     7
370
    15
100
AcDbCircle
 10
1.5134275336
 20
11.5746320645
 30
0.0
 40
0.031500000000001
  0
ARC
  5
45
330
1F
100
AcDbEntity
  8
0
  6
Continuous
 62
     7
370
    15
100
AcDbCircle
 10
1.5134275336
 20
11.8246320645
 30
0.0
 40
0.1250000000000016
100
AcDbArc
 50
0.0
 51
90.0
  0
LINE
  5
46
330
1F
100
AcDbEntity
  8
0
  6
Continuous
 62
     7
370
    15
100
AcDbLine
 10
1.2634275321
 20
11.3246326121
 30
0.0
 11
1.5134275383
 21
11.3246326121
 31
0.0
  0
LINE
  5
47
330
1F
100
AcDbEntity
  8
0
  6
Continuous
 62
     7
370
    15
100
AcDbLine
 10
1.1384275336
 20
11.8246322761
 30
0.0
 11
1.1384275336
 21
11.4496322348
 31
0.0
  0
ARC
  5
48
330
1F
100
AcDbEntity
  8
0
  6
Continuous
 62
     7
370
    15
100
AcDbCircle
 10
1.5134275336
 20
11.4496320645
 30
0.0
 40
0.1250000000000016
100
AcDbArc
 50
270.0
 51
0.0
  0
CIRCLE
  5
49
330
1F
100
AcDbEntity
  8
0
  6
Continuous
 62
     7
370
    15
100
AcDbCircle
 10
1.2634275336
 20
11.5746320645
 30
0.0
 40
0.031500000000001
  0
LINE
  5
4A
330
1F
100
AcDbEntity
  8
0
  6
Continuous
 62
     7
370
    15
100
AcDbLine
 10
1.5134275383
 20
11.9496318987
 30
0.0
 11
1.2634275321
 21
11.9496318987
 31
0.0
  0
ARC
  5
4B
330
1F
100
AcDbEntity
  8
0
  6
Continuous
 62
     7
370
    15
100
AcDbCircle
 10
1.2634275336
 20
11.8246320645
 30
0.0
 40
0.1249999999999993
100
AcDbArc
 50
90.0
 51
180.0
  0
CIRCLE
  5
4C
330
1F
100
AcDbEntity
  8
0
  6
Continuous
 62
     7
370
    15
100
AcDbCircle
 10
1.5134275336
 20
10.8365721031
 30
0.0
 40
0.031500000000001
  0
ARC
  5
4D
330
1F
100
AcDbEntity
  8
0
  6
Continuous
 62
     7
370
    15
100
AcDbCircle
 10
1.2634275336
 20
11.0865721031
 30
0.0
 40
0.1249999999999993
100
AcDbArc
 50
90.0
 51
180.0
  0
CIRCLE
  5
4E
330
1F
100
AcDbEntity
  8
0
  6
Continuous
 62
     7
370
    15
100
AcDbCircle
 10
1.2634275336
 20
10.9365721031
 30
0.0
 40
0.031500000000001
  0
CIRCLE
  5
4F
330
1F
100
AcDbEntity
  8
0
  6
Continuous
 62
     7
370
    15
100
AcDbCircle
 10
1.5134275336
 20
10.9365721031
 30
0.0
 40
0.031500000000001
  0
CIRCLE
  5
50
330
1F
100
AcDbEntity
  8
0
  6
Continuous
 62
     7
370
    15
100
AcDbCircle
 10
1.2634275336
 20
10.8365721031
 30
0.0
 40
0.031500000000001
  0
ARC
  5
51
330
1F
100
AcDbEntity
  8
0
  6
Continuous
 62
     7
370
    15
100
AcDbCircle
 10
1.5134275336
 20
11.0865721031
 30
0.0
 40
0.1250000000000018
100
AcDbArc
 50
0.0
 51
90.0
  0
LINE
  5
52
330
1F
100
AcDbEntity
  8
0
  6
Continuous
 62
     7
370
    15
100
AcDbLine
 10
1.5134275383
 20
11.2115715182
 30
0.0
 11
1.2634275321
 21
11.2115715182
 31
0.0
  0
LINE
  5
53
330
1F
100
AcDbEntity
  8
0
  6
Continuous
 62
     7
370
    15
100
AcDbLine
 10
1.6384275276
 20
10.7115718542
 30
0.0
 11
1.6384275276
 21
11.0865718955
 31
0.0
  0
ARC
  5
54
330
1F
100
AcDbEntity
  8
0
  6
Continuous
 62
     7
370
    15
100
AcDbCircle
 10
1.2634275336
 20
10.7115721031
 30
0.0
 40
0.1250000000000018
100
AcDbArc
 50
180.0
 51
270.0
  0
ARC
  5
55
330
1F
100
AcDbEntity
  8
0
  6
Continuous
 62
     7
370
    15
100
AcDbCircle
 10
1.5134275336
 20
10.7115721031
 30
0.0
 40
0.1250000000000018
100
AcDbArc
 50
270.0
 51
0.0
  0
LINE
  5
56
330
1F
100
AcDbEntity
  8
0
  6
Continuous
 62
     7
370
    15
100
AcDbLine
 10
1.2634275321
 20
10.5865722316
 30
0.0
 11
1.5134275383
 21
10.5865722316
 31
0.0
  0
LINE
  5
57
330
1F
100
AcDbEntity
  8
0
  6
Continuous
 62
     7
370
    15
100
AcDbLine
 10
1.1384275336
 20
11.0865718955
 30
0.0
 11
1.1384275336
 21
10.7115718542
 31
0.0
  0
LINE
  5
58
330
1F
100
AcDbEntity
  8
0
  6
Continuous
 62
     7
370
    15
100
AcDbLine
 10
27.5497736275
 20
11.8435285911
 30
0.0
 11
26.2708433352
 21
11.8435285911
 31
0.0
  0
ARC
  5
59
330
1F
100
AcDbEntity
  8
0
  6
Continuous
 62
     7
370
    15
100
AcDbCircle
 10
26.2708434422
 20
11.7185287543
 30
0.0
 40
0.1250000000000018
100
AcDbArc
 50
90.0
 51
220.7584232429
  0
LINE
  5
5A
330
1F
100
AcDbEntity
  8
0
  6
Continuous
 62
     7
370
    15
100
AcDbLine
 10
26.1761587756
 20
11.6369198845
 30
0.0
 11
26.9891051177
 21
10.693731527
 31
0.0
  0
ARC
  5
5B
330
1F
100
AcDbEntity
  8
0
  6
Continuous
 62
     7
370
    15
100
AcDbCircle
 10
27.0837882834
 20
10.7753402612
 30
0.0
 40
0.1249999999999997
100
AcDbArc
 50
220.7584232429
 51
270.0
  0
LINE
  5
5C
330
1F
100
AcDbEntity
  8
0
  6
Continuous
 62
     7
370
    15
100
AcDbLine
 10
27.0837873306
 20
10.6503398149
 30
0.0
 11
27.5497736275
 21
10.6503398149
 31
0.0
  0
ARC
  5
5D
330
1F
100
AcDbEntity
  8
0
  6
Continuous
 62
     7
370
    15
100
AcDbCircle
 10
27.5497726793
 20
10.7753402612
 30
0.0
 40
0.1249999999999964
100
AcDbArc
 50
270.0
 51
0.0
  0
LINE
  5
5E
330
1F
100
AcDbEntity
  8
0
  6
Continuous
 62
     7
370
    15
100
AcDbLine
 10
27.6747720769
 20
10.7753406109
 30
0.0
 11
27.6747720769
 21
11.7185289684
 31
0.0
  0
ARC
  5
5F
330
1F
100
AcDbEntity
  8
0
  6
Continuous
 62
     7
370
    15
100
AcDbCircle
 10
27.5497726793
 20
11.7185287543
 30
0.0
 40
0.1250000000000018
100
AcDbArc
 50
0.0
 51
90.0
  0
LINE
  5
60
330
1F
100
AcDbEntity
  8
0
  6
Continuous
 62
     7
370
    15
100
AcDbLine
 10
33.4570585594
 20
10.7970458535
 30
0.0
 11
33.2907498673
 21
11.740234211
 31
0.0
  0
ARC
  5
61
330
1F
100
AcDbEntity
  8
0
  6
Continuous
 62
     7
370
    15
100
AcDbCircle
 10
33.1676487691
 20
11.7185287543
 30
0.0
 40
0.1249999999999982
100
AcDbArc
 50
10.0
 51
90.0
  0
LINE
  5
62
330
1F
100
AcDbEntity
  8
0
  6
Continuous
 62
     7
370
    15
100
AcDbLine
 10
33.1676498493
 20
11.8435285911
 30
0.0
 11
31.3892631401
 21
11.8435285911
 31
0.0
  0
ARC
  5
63
330
1F
100
AcDbEntity
  8
0
  6
Continuous
 62
     7
370
    15
100
AcDbCircle
 10
31.3892636938
 20
11.7185287543
 30
0.0
 40
0.1250000000000071
100
AcDbArc
 50
90.0
 51
180.0
  0
LINE
  5
64
330
1F
100
AcDbEntity
  8
0
  6
Continuous
 62
     7
370
    15
100
AcDbLine
 10
31.2642646907
 20
11.7185289684
 30
0.0
 11
31.2642646907
 21
10.7753406109
 31
0.0
  0
ARC
  5
65
330
1F
100
AcDbEntity
  8
0
  6
Continuous
 62
     7
370
    15
100
AcDbCircle
 10
31.3892636938
 20
10.7753402612
 30
0.0
 40
0.1250000000000018
100
AcDbArc
 50
180.0
 51
270.0
  0
LINE
  5
66
330
1F
100
AcDbEntity
  8
0
  6
Continuous
 62
     7
370
    15
100
AcDbLine
 10
31.3892631401
 20
10.6503398149
 30
0.0
 11
33.3339585415
 21
10.6503398149
 31
0.0
  0
ARC
  5
67
330
1F
100
AcDbEntity
  8
0
  6
Continuous
 62
     7
370
    15
100
AcDbCircle
 10
33.3339583484
 20
10.7753402612
 30
0.0
 40
0.1249999999999964
100
AcDbArc
 50
270.0
 51
10.0
  0
ARC
  5
68
330
1F
100
AcDbEntity
  8
0
  6
Continuous
 62
     7
370
    15
100
AcDbCircle
 10
25.9256286401
 20
11.3308381954
 30
0.0
 40
0.1249999999999964
100
AcDbArc
 50
180.0
 51
220.7584232429
  0
LINE
  5
69
330
1F
100
AcDbEntity
  8
0
  6
Continuous
 62
     7
370
    15
100
AcDbLine
 10
25.8006283938
 20
12.3937557282
 30
0.0
 11
25.8006283938
 21
11.3308383004
 31
0.0
  0
LINE
  5
6A
330
1F
100
AcDbEntity
  8
0
  6
Continuous
 62
     7
370
    15
100
AcDbLine
 10
30.8857423435
 20
12.3937557282
 30
0.0
 11
25.8006283938
 21
12.3937557282
 31
0.0
  0
LINE
  5
6B
330
1F
100
AcDbEntity
  8
0
  6
Continuous
 62
     7
370
    15
100
AcDbLine
 10
30.8857423435
 20
12.0437556114
 30
0.0
 11
30.8857423435
 21
12.3937557282
 31
0.0
  0
LINE
  5
6C
330
1F
100
AcDbEntity
  8
0
  6
Continuous
 62
     7
370
    15
100
AcDbLine
 10
31.6857422751
 20
12.0437556114
 30
0.0
 11
30.8857423435
 21
12.0437556114
 31
0.0
  0
LINE
  5
6D
330
1F
100
AcDbEntity
  8
0
  6
Continuous
 62
     7
370
    15
100
AcDbLine
 10
31.6857422751
 20
12.3937557282
 30
0.0
 11
31.6857422751
 21
12.0437556114
 31
0.0
  0
LINE
  5
6E
330
1F
100
AcDbEntity
  8
0
  6
Continuous
 62
     7
370
    15
100
AcDbLine
 10
33.9245044661
 20
10.0980095021
 30
0.0
 11
33.5197021024
 21
12.3937557282
 31
0.0
  0
ARC
  5
6F
330
1F
100
AcDbEntity
  8
0
  6
Continuous
 62
     7
370
    15
100
AcDbCircle
 10
33.8014026486
 20
10.0763032882
 30
0.0
 40
0.125000000000001
100
AcDbArc
 50
278.3681013325
 51
10.0
  0
LINE
  5
70
330
1F
100
AcDbEntity
  8
0
  6
Continuous
 62
     7
370
    15
100
AcDbLine
 10
33.4201224527
 20
9.8938723937
 30
0.0
 11
33.8195932514
 21
9.9526340082
 31
0.0
  0
LINE
  5
71
330
1F
100
AcDbEntity
  8
0
  6
Continuous
 62
     7
370
    15
100
AcDbLine
 10
33.2201230565
 20
9.8938723937
 30
0.0
 11
33.4201224527
 21
9.8938723937
 31
0.0
  0
LINE
  5
72
330
1F
100
AcDbEntity
  8
0
  6
Continuous
 62
     7
370
    15
100
AcDbLine
 10
33.2201230565
 20
10.0087556532
 30
0.0
 11
33.2201230565
 21
9.8938723937
 31
0.0
  0
LINE
  5
73
330
1F
100
AcDbEntity
  8
0
  6
Continuous
 62
     7
370
    15
100
AcDbLine
 10
28.2101226924
 20
10.0087556532
 30
0.0
 11
33.2201230565
 21
10.0087556532
 31
0.0
  0
LINE
  5
74
330
1F
100
AcDbEntity
  8
0
  6
Continuous
 62
     7
370
    15
100
AcDbLine
 10
28.2101226924
 20
10.5437554462
 30
0.0
 11
28.2101226924
 21
10.0087556532
 31
0.0
  0
LINE
  5
75
330
1F
100
AcDbEntity
  8
0
  6
Continuous
 62
     7
370
    15
100
AcDbLine
 10
27.4101227608
 20
10.5437554462
 30
0.0
 11
28.2101226924
 21
10.5437554462
 31
0.0
  0
LINE
  5
76
330
1F
100
AcDbEntity
  8
0
  6
Continuous
 62
     7
370
    15
100
AcDbLine
 10
27.4101227608
 20
10.0087556532
 30
0.0
 11
27.4101227608
 21
10.5437554462
 31
0.0
  0
LINE
  5
77
330
1F
100
AcDbEntity
  8
0
  6
Continuous
 62
     7
370
    15
100
AcDbLine
 10
26.9001228923
 20
10.0087556532
 30
0.0
 11
27.4101227608
 21
10.0087556532
 31
0.0
  0
LINE
  5
78
330
1F
100
AcDbEntity
  8
0
  6
Continuous
 62
     7
370
    15
100
AcDbLine
 10
25.8309446302
 20
11.2492292165
 30
0.0
 11
26.9001228923
 21
10.0087556532
 31
0.0
  0
LINE
  5
79
330
1F
100
AcDbEntity
  8
0
  6
Continuous
 62
     7
370
    15
100
AcDbLine
 10
30.9598046345
 20
10.7753406109
 30
0.0
 11
30.9598046345
 21
11.7185289684
 31
0.0
  0
ARC
  5
7A
330
1F
100
AcDbEntity
  8
0
  6
Continuous
 62
     7
370
    15
100
AcDbCircle
 10
30.8348043354
 20
11.7185287543
 30
0.0
 40
0.1250000000000018
100
AcDbArc
 50
0.0
 51
90.0
  0
LINE
  5
7B
330
1F
100
AcDbEntity
  8
0
  6
Continuous
 62
     7
370
    15
100
AcDbLine
 10
30.8348038386
 20
11.8435285911
 30
0.0
 11
28.5060949533
 21
11.8435285911
 31
0.0
  0
ARC
  5
7C
330
1F
100
AcDbEntity
  8
0
  6
Continuous
 62
     7
370
    15
100
AcDbCircle
 10
28.5060947426
 20
11.7185287543
 30
0.0
 40
0.1250000000000036
100
AcDbArc
 50
90.0
 51
180.0
  0
LINE
  5
7D
330
1F
100
AcDbEntity
  8
0
  6
Continuous
 62
     7
370
    15
100
AcDbLine
 10
28.3810941574
 20
11.7185289684
 30
0.0
 11
28.3810941574
 21
10.7753406109
 31
0.0
  0
ARC
  5
7E
330
1F
100
AcDbEntity
  8
0
  6
Continuous
 62
     7
370
    15
100
AcDbCircle
 10
28.5060947426
 20
10.7753402612
 30
0.0
 40
0.1249999999999964
100
AcDbArc
 50
180.0
 51
270.0
  0
LINE
  5
7F
330
1F
100
AcDbEntity
  8
0
  6
Continuous
 62
     7
370
    15
100
AcDbLine
 10
28.5060949533
 20
10.6503398149
 30
0.0
 11
30.8348038386
 21
10.6503398149
 31
0.0
  0
ARC
  5
80
330
1F
100
AcDbEntity
  8
0
  6
Continuous
 62
     7
370
    15
100
AcDbCircle
 10
30.8348043354
 20
10.7753402612
 30
0.0
 40
0.1250000000000036
100
AcDbArc
 50
270.0
 51
0.0
  0
LINE
  5
81
330
1F
100
AcDbEntity
  8
0
  6
Continuous
 62
     7
370
    15
100
AcDbLine
 10
33.5197021024
 20
12.3937557282
 30
0.0
 11
31.6857422751
 21
12.3937557282
 31
0.0
  0
ARC
  5
82
330
1F
100
AcDbEntity
  8
0
  6
Continuous
 62
     7
370
    15
100
AcDbCircle
 10
27.5497726788
 20
8.8224049127
 30
0.0
 40
0.125
100
AcDbArc
 50
0.0
 51
90.0
  0
LINE
  5
83
330
1F
100
AcDbEntity
  8
0
  6
Continuous
 62
     7
370
    15
100
AcDbLine
 10
27.0837873306
 20
8.947405194
 30
0.0
 11
27.5497736275
 21
8.947405194
 31
0.0
  0
ARC
  5
84
330
1F
100
AcDbEntity
  8
0
  6
Continuous
 62
     7
370
    15
100
AcDbCircle
 10
27.0837882829
 20
8.8224049127
 30
0.0
 40
0.125000000000002
100
AcDbArc
 50
90.0
 51
139.2415767571
  0
LINE
  5
85
330
1F
100
AcDbEntity
  8
0
  6
Continuous
 62
     7
370
    15
100
AcDbLine
 10
26.1761587756
 20
7.9608251244
 30
0.0
 11
26.9891051177
 21
8.9040140686
 31
0.0
  0
ARC
  5
86
330
1F
100
AcDbEntity
  8
0
  6
Continuous
 62
     7
370
    15
100
AcDbCircle
 10
26.2708434417
 20
7.8792164197
 30
0.0
 40
0.1250000000000047
100
AcDbArc
 50
139.2415767571
 51
270.0
  0
LINE
  5
87
330
1F
100
AcDbEntity
  8
0
  6
Continuous
 62
     7
370
    15
100
AcDbLine
 10
27.5497736275
 20
7.7542164178
 30
0.0
 11
26.2708433352
 21
7.7542164178
 31
0.0
  0
ARC
  5
88
330
1F
100
AcDbEntity
  8
0
  6
Continuous
 62
     7
370
    15
100
AcDbCircle
 10
27.5497726788
 20
7.8792164197
 30
0.0
 40
0.1250000000000009
100
AcDbArc
 50
270.0
 51
0.0
  0
LINE
  5
89
330
1F
100
AcDbEntity
  8
0
  6
Continuous
 62
     7
370
    15
100
AcDbLine
 10
27.6747720769
 20
8.8224049847
 30
0.0
 11
27.6747720769
 21
7.8792166272
 31
0.0
  0
ARC
  5
8A
330
1F
100
AcDbEntity
  8
0
  6
Continuous
 62
     7
370
    15
100
AcDbCircle
 10
31.3892636933
 20
8.8224049127
 30
0.0
 40
0.1249999999999982
100
AcDbArc
 50
90.0
 51
180.0
  0
LINE
  5
8B
330
1F
100
AcDbEntity
  8
0
  6
Continuous
 62
     7
370
    15
100
AcDbLine
 10
31.2642646907
 20
7.8792166272
 30
0.0
 11
31.2642646907
 21
8.8224049847
 31
0.0
  0
ARC
  5
8C
330
1F
100
AcDbEntity
  8
0
  6
Continuous
 62
     7
370
    15
100
AcDbCircle
 10
31.3892636933
 20
7.8792164197
 30
0.0
 40
0.1250000000000071
100
AcDbArc
 50
180.0
 51
270.0
  0
LINE
  5
8D
330
1F
100
AcDbEntity
  8
0
  6
Continuous
 62
     7
370
    15
100
AcDbLine
 10
33.1676498493
 20
7.7542164178
 30
0.0
 11
31.3892631401
 21
7.7542164178
 31
0.0
  0
ARC
  5
8E
330
1F
100
AcDbEntity
  8
0
  6
Continuous
 62
     7
370
    15
100
AcDbCircle
 10
33.1676487686
 20
7.8792164197
 30
0.0
 40
0.1249999999999996
100
AcDbArc
 50
270.0
 51
350.0
  0
LINE
  5
8F
330
1F
100
AcDbEntity
  8
0
  6
Continuous
 62
     7
370
    15
100
AcDbLine
 10
33.4570585594
 20
8.8006991555
 30
0.0
 11
33.2907498673
 21
7.8575102113
 31
0.0
  0
ARC
  5
90
330
1F
100
AcDbEntity
  8
0
  6
Continuous
 62
     7
370
    15
100
AcDbCircle
 10
33.3339583479
 20
8.8224049127
 30
0.0
 40
0.1249999999999982
100
AcDbArc
 50
350.0
 51
90.0
  0
LINE
  5
91
330
1F
100
AcDbEntity
  8
0
  6
Continuous
 62
     7
370
    15
100
AcDbLine
 10
31.3892631401
 20
8.947405194
 30
0.0
 11
33.3339585415
 21
8.947405194
 31
0.0
  0
LINE
  5
92
330
1F
100
AcDbEntity
  8
0
  6
Continuous
 62
     7
370
    15
100
AcDbLine
 10
26.9001228923
 20
9.5889893557
 30
0.0
 11
27.4101227608
 21
9.5889893557
 31
0.0
  0
LINE
  5
93
330
1F
100
AcDbEntity
  8
0
  6
Continuous
 62
     7
370
    15
100
AcDbLine
 10
27.4101227608
 20
9.5889893557
 30
0.0
 11
27.4101227608
 21
9.0539895628
 31
0.0
  0
LINE
  5
94
330
1F
100
AcDbEntity
  8
0
  6
Continuous
 62
     7
370
    15
100
AcDbLine
 10
27.4101227608
 20
9.0539895628
 30
0.0
 11
28.2101226924
 21
9.0539895628
 31
0.0
  0
LINE
  5
95
330
1F
100
AcDbEntity
  8
0
  6
Continuous
 62
     7
370
    15
100
AcDbLine
 10
28.2101226924
 20
9.0539895628
 30
0.0
 11
28.2101226924
 21
9.5889893557
 31
0.0
  0
LINE
  5
96
330
1F
100
AcDbEntity
  8
0
  6
Continuous
 62
     7
370
    15
100
AcDbLine
 10
28.2101226924
 20
9.5889893557
 30
0.0
 11
33.2201230565
 21
9.5889893557
 31
0.0
  0
LINE
  5
97
330
1F
100
AcDbEntity
  8
0
  6
Continuous
 62
     7
370
    15
100
AcDbLine
 10
33.2201230565
 20
9.5889893557
 30
0.0
 11
33.2201230565
 21
9.7038726153
 31
0.0
  0
LINE
  5
98
330
1F
100
AcDbEntity
  8
0
  6
Continuous
 62
     7
370
    15
100
AcDbLine
 10
33.2201230565
 20
9.7038726153
 30
0.0
 11
33.4201224527
 21
9.7038726153
 31
0.0
  0
LINE
  5
99
330
1F
100
AcDbEntity
  8
0
  6
Continuous
 62
     7
370
    15
100
AcDbLine
 10
33.4201224527
 20
9.7038726153
 30
0.0
 11
33.8195932514
 21
9.6451110007
 31
0.0
  0
ARC
  5
9A
330
1F
100
AcDbEntity
  8
0
  6
Continuous
 62
     7
370
    15
100
AcDbCircle
 10
33.8014026481
 20
9.5214418857
 30
0.0
 40
0.1250000000000004
100
AcDbArc
 50
350.0
 51
81.6318986675
  0
LINE
  5
9B
330
1F
100
AcDbEntity
  8
0
  6
Continuous
 62
     7
370
    15
100
AcDbLine
 10
33.9245044661
 20
9.4997360935
 30
0.0
 11
33.5197021024
 21
7.2039892808
 31
0.0
  0
LINE
  5
9C
330
1F
100
AcDbEntity
  8
0
  6
Continuous
 62
     7
370
    15
100
AcDbLine
 10
33.5197021024
 20
7.2039892808
 30
0.0
 11
31.6857422751
 21
7.2039892808
 31
0.0
  0
LINE
  5
9D
330
1F
100
AcDbEntity
  8
0
  6
Continuous
 62
     7
370
    15
100
AcDbLine
 10
31.6857422751
 20
7.2039892808
 30
0.0
 11
31.6857422751
 21
7.5539893976
 31
0.0
  0
LINE
  5
9E
330
1F
100
AcDbEntity
  8
0
  6
Continuous
 62
     7
370
    15
100
AcDbLine
 10
31.6857422751
 20
7.5539893976
 30
0.0
 11
30.8857423435
 21
7.5539893976
 31
0.0
  0
LINE
  5
9F
330
1F
100
AcDbEntity
  8
0
  6
Continuous
 62
     7
370
    15
100
AcDbLine
 10
30.8857423435
 20
7.5539893976
 30
0.0
 11
30.8857423435
 21
7.2039892808
 31
0.0
  0
LINE
  5
A0
330
1F
100
AcDbEntity
  8
0
  6
Continuous
 62
     7
370
    15
100
AcDbLine
 10
30.8857423435
 20
7.2039892808
 30
0.0
 11
25.8006283938
 21
7.2039892808
 31
0.0
  0
LINE
  5
A1
330
1F
100
AcDbEntity
  8
0
  6
Continuous
 62
     7
370
    15
100
AcDbLine
 10
25.8006283938
 20
7.2039892808
 30
0.0
 11
25.8006283938
 21
8.2669067085
 31
0.0
  0
ARC
  5
A2
330
1F
100
AcDbEntity
  8
0
  6
Continuous
 62
     7
370
    15
100
AcDbCircle
 10
25.9256286395
 20
8.2669069785
 30
0.0
 40
0.1250000000000058
100
AcDbArc
 50
139.2415767571
 51
180.0
  0
LINE
  5
A3
330
1F
100
AcDbEntity
  8
0
  6
Continuous
 62
     7
370
    15
100
AcDbLine
 10
25.8309446302
 20
8.3485157925
 30
0.0
 11
26.9001228923
 21
9.5889893557
 31
0.0
  0
ARC
  5
A4
330
1F
100
AcDbEntity
  8
0
  6
Continuous
 62
     7
370
    15
100
AcDbCircle
 10
28.5060947421
 20
8.8224049127
 30
0.0
 40
0.125
100
AcDbArc
 50
90.0
 51
180.0
  0
LINE
  5
A5
330
1F
100
AcDbEntity
  8
0
  6
Continuous
 62
     7
370
    15
100
AcDbLine
 10
28.3810941574
 20
7.8792166272
 30
0.0
 11
28.3810941574
 21
8.8224049847
 31
0.0
  0
ARC
  5
A6
330
1F
100
AcDbEntity
  8
0
  6
Continuous
 62
     7
370
    15
100
AcDbCircle
 10
28.5060947421
 20
7.8792164197
 30
0.0
 40
0.1250000000000071
100
AcDbArc
 50
180.0
 51
270.0
  0
LINE
  5
A7
330
1F
100
AcDbEntity
  8
0
  6
Continuous
 62
     7
370
    15
100
AcDbLine
 10
30.8348038386
 20
7.7542164178
 30
0.0
 11
28.5060949533
 21
7.7542164178
 31
0.0
  0
ARC
  5
A8
330
1F
100
AcDbEntity
  8
0
  6
Continuous
 62
     7
370
    15
100
AcDbCircle
 10
30.8348043349
 20
7.8792164197
 30
0.0
 40
0.1250000000000009
100
AcDbArc
 50
270.0
 51
0.0
  0
LINE
  5
A9
330
1F
100
AcDbEntity
  8
0
  6
Continuous
 62
     7
370
    15
100
AcDbLine
 10
30.9598046345
 20
8.8224049847
 30
0.0
 11
30.9598046345
 21
7.8792166272
 31
0.0
  0
ARC
  5
AA
330
1F
100
AcDbEntity
  8
0
  6
Continuous
 62
     7
370
    15
100
AcDbCircle
 10
30.8348043349
 20
8.8224049127
 30
0.0
 40
0.1250000000000071
100
AcDbArc
 50
0.0
 51
90.0
  0
LINE
  5
AB
330
1F
100
AcDbEntity
  8
0
  6
Continuous
 62
     7
370
    15
100
AcDbLine
 10
28.5060949533
 20
8.947405194
 30
0.0
 11
30.8348038386
 21
8.947405194
 31
0.0
  0
CIRCLE
  5
AC
330
1F
100
AcDbEntity
  8
0
  6
Continuous
 62
     7
370
    15
100
AcDbCircle
 10
2.3861194441
 20
10.9256560675
 30
0.0
 40
0.2500000000000009
  0
CIRCLE
  5
AD
330
1F
100
AcDbEntity
  8
0
  6
Continuous
 62
     7
370
    15
100
AcDbCircle
 10
3.7932567921
 20
11.5959440188
 30
0.0
 40
0.2500000000000013
  0
CIRCLE
  5
AE
330
1F
100
AcDbEntity
  8
0
  6
Continuous
 62
     7
370
    15
100
AcDbCircle
 10
3.0761025912
 20
11.600307762
 30
0.0
 40
0.2499999999999987
  0
CIRCLE
  5
AF
330
1F
100
AcDbEntity
  8
0
  6
Continuous
 62
     7
370
    15
100
AcDbCircle
 10
19.9990578737
 20
7.3478149441
 30
0.0
 40
0.25
  0
CIRCLE
  5
B0
330
1F
100
AcDbEntity
  8
0
  6
Continuous
 62
     7
370
    15
100
AcDbCircle
 10
3.8136146946
 20
10.9380641854
 30
0.0
 40
0.2499999999999987
  0
CIRCLE
  5
B1
330
1F
100
AcDbEntity
  8
0
  6
Continuous
 62
     7
370
    15
100
AcDbCircle
 10
20.7447972488
 20
7.365854904
 30
0.0
 40
0.25
  0
CIRCLE
  5
B2
330
1F
100
AcDbEntity
  8
0
  6
Continuous
 62
     7
370
    15
100
AcDbCircle
 10
3.1001255721
 20
10.9364061505
 30
0.0
 40
0.2500000000000009
  0
CIRCLE
  5
B3
330
1F
100
AcDbEntity
  8
0
  6
Continuous
 62
     7
370
    15
100
AcDbCircle
 10
2.4356528607
 20
11.5932436613
 30
0.0
 40
0.2499999999999987
  0
LINE
  5
B4
330
1F
100
AcDbEntity
  8
0
  6
Continuous
 62
     7
370
    15
100
AcDbLine
 10
23.259051141
 20
14.8490294446
 30
0.0
 11
22.392796188
 21
14.8490294446
 31
0.0
  0
ARC
  5
B5
330
1F
100
AcDbEntity
  8
0
  6
Continuous
 62
     7
370
    15
100
AcDbCircle
 10
22.3927958744
 20
14.7240296615
 30
0.0
 40
0.1250000000000013
100
AcDbArc
 50
90.0
 51
198.3761703189
  0
LINE
  5
B6
330
1F
100
AcDbEntity
  8
0
  6
Continuous
 62
     7
370
    15
100
AcDbLine
 10
22.2741688651
 20
14.6846227039
 30
0.0
 11
22.7733694983
 21
13.1818875303
 31
0.0
  0
ARC
  5
B7
330
1F
100
AcDbEntity
  8
0
  6
Continuous
 62
     7
370
    15
100
AcDbCircle
 10
22.8919951697
 20
13.2212947863
 30
0.0
 40
0.1250000000000018
100
AcDbArc
 50
198.3761703189
 51
270.0
  0
LINE
  5
B8
330
1F
100
AcDbEntity
  8
0
  6
Continuous
 62
     7
370
    15
100
AcDbLine
 10
22.8919944746
 20
13.0962950257
 30
0.0
 11
23.259051141
 21
13.0962950257
 31
0.0
  0
ARC
  5
B9
330
1F
100
AcDbEntity
  8
0
  6
Continuous
 62
     7
370
    15
100
AcDbCircle
 10
23.2590505648
 20
13.2212947863
 30
0.0
 40
0.1250000000000018
100
AcDbArc
 50
270.0
 51
0.0
  0
LINE
  5
BA
330
1F
100
AcDbEntity
  8
0
  6
Continuous
 62
     7
370
    15
100
AcDbLine
 10
23.3840495903
 20
13.2212946484
 30
0.0
 11
23.3840495903
 21
14.724029822
 31
0.0
  0
ARC
  5
BB
330
1F
100
AcDbEntity
  8
0
  6
Continuous
 62
     7
370
    15
100
AcDbCircle
 10
23.2590505648
 20
14.7240296615
 30
0.0
 40
0.1249999999999964
100
AcDbArc
 50
360.0
 51
90.0
  0
LINE
  5
BC
330
1F
100
AcDbEntity
  8
0
  6
Continuous
 62
     7
370
    15
100
AcDbLine
 10
22.6515390123
 20
12.7010904178
 30
0.0
 11
23.5940409778
 21
12.7010904178
 31
0.0
  0
LINE
  5
BD
330
1F
100
AcDbEntity
  8
0
  6
Continuous
 62
     7
370
    15
100
AcDbLine
 10
22.469554768
 20
13.2010912551
 30
0.0
 11
22.6515390123
 21
12.7010904178
 31
0.0
  0
LINE
  5
BE
330
1F
100
AcDbEntity
  8
0
  6
Continuous
 62
     7
370
    15
100
AcDbLine
 10
22.2195555227
 20
13.2010912551
 30
0.0
 11
22.469554768
 21
13.2010912551
 31
0.0
  0
LINE
  5
BF
330
1F
100
AcDbEntity
  8
0
  6
Continuous
 62
     7
370
    15
100
AcDbLine
 10
22.0027635737
 20
13.620534303
 30
0.0
 11
22.2195555227
 21
13.2010912551
 31
0.0
  0
SPLINE
  5
C0
330
1F
100
AcDbEntity
  8
0
  6
Continuous
 62
     7
370
    15
100
AcDbSpline
210
0.0
220
0.0
230
1.0
 70
     8
 71
     3
 72
    11
 73
     7
 74
     0
 42
0.00000001
 43
0.00000001
 40
0.0
 40
0.0
 40
0.0
 40
0.0
 40
0.2705138190376961
 40
0.5404161700193393
 40
0.7620256484301225
 40
1.0
 40
1.0
 40
1.0
 40
1.0
 10
21.66589173195824
 20
15.15414655988971
 30
0.0
 10
21.6908372875093
 20
15.01471806663925
 30
0.0
 10
21.74067201180497
 20
14.73617624359294
 30
0.0
 10
21.83458106197965
 20
14.34834082605837
 30
0.0
 10
21.92487698652126
 20
13.97731063538144
 30
0.0
 10
21.976192298986
 20
13.74224976500521
 30
0.0
 10
22.00276357371931
 20
13.62053430297603
 30
0.0
  0
LINE
  5
C1
330
1F
100
AcDbEntity
  8
0
  6
Continuous
 62
     7
370
    15
100
AcDbLine
 10
23.5940409778
 20
15.1541465599
 30
0.0
 11
21.665891732
 21
15.1541465599
 31
0.0
  0
LINE
  5
C2
330
1F
100
AcDbEntity
  8
0
  6
Continuous
 62
     7
370
    15
100
AcDbLine
 10
23.5940409778
 20
12.7010904178
 30
0.0
 11
23.5940409778
 21
15.1541465599
 31
0.0
  0
ARC
  5
C3
330
1F
100
AcDbEntity
  8
0
  6
Continuous
 62
     7
370
    15
100
AcDbCircle
 10
24.2492591032
 20
13.9658447401
 30
0.0
 40
0.1250000000000013
100
AcDbArc
 50
180.0
 51
288.3761703189
  0
LINE
  5
C4
330
1F
100
AcDbEntity
  8
0
  6
Continuous
 62
     7
370
    15
100
AcDbLine
 10
24.2886650601
 20
13.847218511
 30
0.0
 11
25.7914014071
 21
14.3464179708
 31
0.0
  0
ARC
  5
C5
330
1F
100
AcDbEntity
  8
0
  6
Continuous
 62
     7
370
    15
100
AcDbCircle
 10
25.7519939784
 20
14.4650440353
 30
0.0
 40
0.1250000000000036
100
AcDbArc
 50
288.3761703189
 51
0.0
  0
LINE
  5
C6
330
1F
100
AcDbEntity
  8
0
  6
Continuous
 62
     7
370
    15
100
AcDbLine
 10
25.8769950849
 20
14.4650441205
 30
0.0
 11
25.8769950849
 21
14.8320996135
 31
0.0
  0
ARC
  5
C7
330
1F
100
AcDbEntity
  8
0
  6
Continuous
 62
     7
370
    15
100
AcDbCircle
 10
25.7519939784
 20
14.8320994305
 30
0.0
 40
0.1250000000000036
100
AcDbArc
 50
360.0
 51
90.0
  0
LINE
  5
C8
330
1F
100
AcDbEntity
  8
0
  6
Continuous
 62
     7
370
    15
100
AcDbLine
 10
25.751994289
 20
14.9570992362
 30
0.0
 11
24.249257942
 21
14.9570992362
 31
0.0
  0
ARC
  5
C9
330
1F
100
AcDbEntity
  8
0
  6
Continuous
 62
     7
370
    15
100
AcDbCircle
 10
24.2492591032
 20
14.8320994305
 30
0.0
 40
0.1249999999999964
100
AcDbArc
 50
90.0
 51
180.0
  0
LINE
  5
CA
330
1F
100
AcDbEntity
  8
0
  6
Continuous
 62
     7
370
    15
100
AcDbLine
 10
25.7721988555
 20
14.0426044139
 30
0.0
 11
26.2721973462
 21
14.2245886582
 31
0.0
  0
LINE
  5
CB
330
1F
100
AcDbEntity
  8
0
  6
Continuous
 62
     7
370
    15
100
AcDbLine
 10
25.7721988555
 20
13.7926039952
 30
0.0
 11
25.7721988555
 21
14.0426044139
 31
0.0
  0
LINE
  5
CC
330
1F
100
AcDbEntity
  8
0
  6
Continuous
 62
     7
370
    15
100
AcDbLine
 10
25.3527558077
 20
13.5758132196
 30
0.0
 11
25.7721988555
 21
13.7926039952
 31
0.0
  0
SPLINE
  5
CD
330
1F
100
AcDbEntity
  8
0
  6
Continuous
 62
     7
370
    15
100
AcDbSpline
210
0.0
220
0.0
230
1.0
 70
     8
 71
     3
 72
    11
 73
     7
 74
     0
 42
0.00000001
 43
0.00000001
 40
0.0
 40
0.0
 40
0.0
 40
0.0
 40
0.2705129907648245
 40
0.54041583692188
 40
0.7620251242977858
 40
1.0
 40
1.0
 40
1.0
 40
1.0
 10
23.81914237742303
 20
13.23894020451696
 30
0.0
 10
23.95857044797963
 20
13.26388631032876
 30
0.0
 10
24.23711210776172
 20
13.31372225577492
 30
0.0
 10
24.62494777654733
 20
13.40763044981111
 30
0.0
 10
24.99597865197795
 20
13.49792681868982
 30
0.0
 10
25.23103994626583
 20
13.549241982549
 30
0.0
 10
25.35275580765649
 20
13.5758132195978
 30
0.0
  0
LINE
  5
CE
330
1F
100
AcDbEntity
  8
0
  6
Continuous
 62
     7
370
    15
100
AcDbLine
 10
23.8191423774
 20
15.1670894504
 30
0.0
 11
23.8191423774
 21
13.2389402045
 31
0.0
  0
LINE
  5
CF
330
1F
100
AcDbEntity
  8
0
  6
Continuous
 62
     7
370
    15
100
AcDbLine
 10
26.2721973462
 20
15.1670894504
 30
0.0
 11
23.8191423774
 21
15.1670894504
 31
0.0
  0
LINE
  5
D0
330
1F
100
AcDbEntity
  8
0
  6
Continuous
 62
     7
370
    15
100
AcDbLine
 10
26.2721973462
 20
14.2245886582
 30
0.0
 11
26.2721973462
 21
15.1670894504
 31
0.0
  0
LINE
  5
D1
330
1F
100
AcDbEntity
  8
0
  6
Continuous
 62
     7
370
    15
100
AcDbLine
 10
24.1242594927
 20
14.8320996135
 30
0.0
 11
24.1242594927
 21
13.9658446606
 31
0.0
  0
LINE
  5
D2
330
1F
100
AcDbEntity
  8
0
  6
Continuous
 62
     7
370
    15
100
AcDbLine
 10
21.8561291077
 20
11.2637549154
 30
0.0
 11
21.8561291077
 21
11.7637557526
 31
0.0
  0
LINE
  5
D3
330
1F
100
AcDbEntity
  8
0
  6
Continuous
 62
     7
370
    15
100
AcDbLine
 10
17.6061290307
 20
11.7637557526
 30
0.0
 11
17.6061290307
 21
11.2637549154
 31
0.0
  0
LINE
  5
D4
330
1F
100
AcDbEntity
  8
0
  6
Continuous
 62
     7
370
    15
100
AcDbLine
 10
21.8561291077
 20
11.7637557526
 30
0.0
 11
17.6061290307
 21
11.7637557526
 31
0.0
  0
LINE
  5
D5
330
1F
100
AcDbEntity
  8
0
  6
Continuous
 62
     7
370
    15
100
AcDbLine
 10
17.6061290307
 20
11.2637549154
 30
0.0
 11
21.8561291077
 21
11.2637549154
 31
0.0
  0
LINE
  5
D6
330
1F
100
AcDbEntity
  8
0
  6
Continuous
 62
     7
370
    15
100
AcDbLine
 10
21.877220704
 20
12.4224891562
 30
0.0
 11
17.627220627
 21
12.4224891562
 31
0.0
  0
LINE
  5
D7
330
1F
100
AcDbEntity
  8
0
  6
Continuous
 62
     7
370
    15
100
AcDbLine
 10
21.877220704
 20
11.9224894923
 30
0.0
 11
21.877220704
 21
12.4224891562
 31
0.0
  0
LINE
  5
D8
330
1F
100
AcDbEntity
  8
0
  6
Continuous
 62
     7
370
    15
100
AcDbLine
 10
17.627220627
 20
11.9224894923
 30
0.0
 11
21.877220704
 21
11.9224894923
 31
0.0
  0
LINE
  5
D9
330
1F
100
AcDbEntity
  8
0
  6
Continuous
 62
     7
370
    15
100
AcDbLine
 10
17.627220627
 20
12.4224891562
 30
0.0
 11
17.627220627
 21
11.9224894923
 31
0.0
  0
SPLINE
  5
DA
330
1F
100
AcDbEntity
  8
0
  6
Continuous
 62
     7
370
    15
100
AcDbSpline
210
0.0
220
0.0
230
1.0
 70
     8
 71
     3
 72
    23
 73
    19
 74
     0
 42
0.00000001
 43
0.00000001
 40
0.0
 40
0.0
 40
0.0
 40
0.0
 40
0.0321269207418683
 40
0.0625473807114196
 40
0.0930143213346685
 40
0.124306868345626
 40
0.1671998790101878
 40
0.2101809633357613
 40
0.2523937495028131
 40
0.3145698271417962
 40
0.3760483919281977
 40
0.4376463793840448
 40
0.4998327515246332
 40
0.600449824148925
 40
0.70114394939126
 40
0.8007888822034805
 40
0.8999986083288282
 40
1.0
 40
1.0
 40
1.0
 40
1.0
 10
36.39920718477421
 20
0.4743382793709721
 30
0.0
 10
36.35417770029478
 20
0.4805710739529681
 30
0.0
 10
36.26651052759545
 20
0.492705600593366
 30
0.0
 10
36.14846516925309
 20
0.5538787948658082
 30
0.0
 10
36.04843504713353
 20
0.6371665336817023
 30
0.0
 10
35.95331277501744
 20
0.7502107688254793
 30
0.0
 10
35.86597444576685
 20
0.8903224673797197
 30
0.0
 10
35.78385910813437
 20
1.050687346079736
 30
0.0
 10
35.70081821507074
 20
1.240628935672491
 30
0.0
 10
35.62668345041828
 20
1.462245462657277
 30
0.0
 10
35.57347603787156
 20
1.717838303222491
 30
0.0
 10
35.55130452088773
 20
1.977823655653861
 30
0.0
 10
35.55206173769617
 20
2.293557828375169
 30
0.0
 10
35.58218177373133
 20
2.663001794317901
 30
0.0
 10
35.62581038222991
 20
3.083797832636926
 30
0.0
 10
35.6619639798494
 20
3.503250003991719
 30
0.0
 10
35.70907903784143
 20
3.921240225343707
 30
0.0
 10
35.76968613208899
 20
4.194845463141698
 30
0.0
 10
35.8001101055948
 20
4.332191736035304
 30
0.0
  0
SPLINE
  5
DB
330
1F
100
AcDbEntity
  8
0
  6
Continuous
 62
     7
370
    15
100
AcDbSpline
210
0.0
220
0.0
230
1.0
 70
     8
 71
     3
 72
    19
 73
    15
 74
     0
 42
0.00000001
 43
0.00000001
 40
0.0
 40
0.0
 40
0.0
 40
0.0
 40
0.2491949949568178
 40
0.4987766576381283
 40
0.5614476215129484
 40
0.6235643864422997
 40
0.6857647612667929
 40
0.7485580202238289
 40
0.790719052101814
 40
0.8328182613913233
 40
0.8744576967157763
 40
0.915654223152764
 40
0.9570442668850984
 40
1.0
 40
1.0
 40
1.0
 40
1.0
 10
35.8001101055948
 20
4.332191736035304
 30
0.0
 10
35.95797632692982
 20
4.011638377361497
 30
0.0
 10
36.27395372545296
 20
3.370034267849978
 30
0.0
 10
36.61658600520681
 20
2.641540970019164
 30
0.0
 10
36.83622129384649
 20
2.151613564031329
 30
0.0
 10
36.91987716793952
 20
1.895801459701417
 30
0.0
 10
36.95646431183363
 20
1.628472690410502
 30
0.0
 10
36.94709059475527
 20
1.387824298454732
 30
0.0
 10
36.91082245647346
 20
1.179748155542729
 30
0.0
 10
36.86019458520951
 20
1.006031878263046
 30
0.0
 10
36.78686380449961
 20
0.8417267319897855
 30
0.0
 10
36.68729640074266
 20
0.6932007264241222
 30
0.0
 10
36.55955326236113
 20
0.5632901630358073
 30
0.0
 10
36.45331324617832
 20
0.5043535822209605
 30
0.0
 10
36.39920718477421
 20
0.4743382793709721
 30
0.0
  0
SPLINE
  5
DC
330
1F
100
AcDbEntity
  8
0
  6
Continuous
 62
     7
370
    15
100
AcDbSpline
210
0.0
220
0.0
230
1.0
 70
     8
 71
     3
 72
    19
 73
    15
 74
     0
 42
0.00000001
 43
0.00000001
 40
0.0
 40
0.0
 40
0.0
 40
0.0
 40
0.2491950004227813
 40
0.4987765749782631
 40
0.5614477106442296
 40
0.6235644281971898
 40
0.6857647548920663
 40
0.7485581349164729
 40
0.7907190627434088
 40
0.8328182251975258
 40
0.8744575766817064
 40
0.9156543508300861
 40
0.9570446363713507
 40
1.0
 40
1.0
 40
1.0
 40
1.0
 10
36.5028911070087
 20
3.337632211938462
 30
0.0
 10
36.57966785099818
 20
3.686604376743716
 30
0.0
 10
36.7333404421019
 20
4.385090063972624
 30
0.0
 10
36.89214980981814
 20
5.174316925595546
 30
0.0
 10
36.98847847973096
 20
5.702511531658018
 30
0.0
 10
37.00864559784767
 20
5.970898263330053
 30
0.0
 10
36.98035860508723
 20
6.239232431267862
 30
0.0
 10
36.9138032567107
 20
6.470684332804209
 30
0.0
 10
36.82890969047276
 20
6.664085587458434
 30
0.0
 10
36.73827737516235
 20
6.820694024881286
 30
0.0
 10
36.62784174833769
 20
6.962742198184849
 30
0.0
 10
36.49569425164439
 20
7.083203336230747
 30
0.0
 10
36.34063100147097
 20
7.178861473923486
 30
0.0
 10
36.22339327350464
 20
7.210731954809361
 30
0.0
 10
36.16368670552689
 20
7.226962882058672
 30
0.0
  0
SPLINE
  5
DD
330
1F
100
AcDbEntity
  8
0
  6
Continuous
 62
     7
370
    15
100
AcDbSpline
210
0.0
220
0.0
230
1.0
 70
     8
 71
     3
 72
    23
 73
    19
 74
     0
 42
0.00000001
 43
0.00000001
 40
0.0
 40
0.0
 40
0.0
 40
0.0
 40
0.03212700207165
 40
0.062547450600891
 40
0.0930145424420951
 40
0.1243069992602239
 40
0.1672000904251972
 40
0.2101811988393547
 40
0.2523939174180544
 40
0.3145699110376249
 40
0.37604846283712
 40
0.4376465440145662
 40
0.4998328642805839
 40
0.6004499632615857
 40
0.7011440003880266
 40
0.800788984591
 40
0.8999986856215855
 40
1.0
 40
1.0
 40
1.0
 40
1.0
 10
36.16368670552689
 20
7.226962882058672
 30
0.0
 10
36.12144701839473
 20
7.210160433017862
 30
0.0
 10
36.03921137317629
 20
7.177448063870869
 30
0.0
 10
35.9391827075648
 20
7.089862642186501
 30
0.0
 10
35.86192749458751
 20
6.985103187497741
 30
0.0
 10
35.79654345521188
 20
6.852618341541262
 30
0.0
 10
35.74517779675935
 20
6.695708085320157
 30
0.0
 10
35.70372025276552
 20
6.520376600861853
 30
0.0
 10
35.66842392479276
 20
6.316102948860272
 30
0.0
 10
35.649341765669
 20
6.083196143902398
 30
0.0
 10
35.65868756800264
 20
5.822291062209779
 30
0.0
 10
35.6992290055631
 20
5.564530779129877
 30
0.0
 10
35.77533162535471
 20
5.258104543984728
 30
0.0
 10
35.89278464283302
 20
4.906535200144176
 30
0.0
 10
36.03560188809215
 20
4.508319339002853
 30
0.0
 10
36.17084960608691
 20
4.109627451298652
 30
0.0
 10
36.31638659084122
 20
3.714969888934887
 30
0.0
 10
36.4405584592615
 20
3.463744206357107
 30
0.0
 10
36.5028911070087
 20
3.337632211938462
 30
0.0
  0
LINE
  5
DE
330
1F
100
AcDbEntity
  8
0
  6
Continuous
 62
     7
370
    15
100
AcDbLine
 10
34.6791790547
 20
12.5637709375
 30
0.0
 11
36.1479994201
 21
12.9573399376
 31
0.0
  0
LINE
  5
DF
330
1F
100
AcDbEntity
  8
0
  6
Continuous
 62
     7
370
    15
100
AcDbLine
 10
34.6791790547
 20
13.3030539172
 30
0.0
 11
34.6791790547
 21
12.5637709375
 31
0.0
  0
LINE
  5
E0
330
1F
100
AcDbEntity
  8
0
  6
Continuous
 62
     7
370
    15
100
AcDbLine
 10
28.5991791047
 20
12.5637709375
 30
0.0
 11
28.5991791047
 21
13.3030539172
 31
0.0
  0
LINE
  5
E1
330
1F
100
AcDbEntity
  8
0
  6
Continuous
 62
     7
370
    15
100
AcDbLine
 10
27.1303610859
 20
12.9573399376
 30
0.0
 11
28.5991791047
 21
12.5637709375
 31
0.0
  0
ARC
  5
E2
330
1F
100
AcDbEntity
  8
0
  6
Continuous
 62
     7
370
    15
100
AcDbCircle
 10
27.3891794167
 20
13.9232661793
 30
0.0
 40
0.9999999999999984
100
AcDbArc
 50
97.9854964991
 51
255.0
  0
LINE
  5
E3
330
1F
100
AcDbEntity
  8
0
  6
Continuous
 62
     7
370
    15
100
AcDbLine
 10
30.0266798408
 20
15.3030537464
 30
0.0
 11
27.2502579409
 21
14.9135690724
 31
0.0
  0
LINE
  5
E4
330
1F
100
AcDbEntity
  8
0
  6
Continuous
 62
     7
370
    15
100
AcDbLine
 10
31.451679059
 20
13.8780533548
 30
0.0
 11
30.0266798408
 21
15.3030537464
 31
0.0
  0
LINE
  5
E5
330
1F
100
AcDbEntity
  8
0
  6
Continuous
 62
     7
370
    15
100
AcDbLine
 10
31.8266791003
 20
13.8780533548
 30
0.0
 11
31.451679059
 21
13.8780533548
 31
0.0
  0
LINE
  5
E6
330
1F
100
AcDbEntity
  8
0
  6
Continuous
 62
     7
370
    15
100
AcDbLine
 10
33.2516783186
 20
15.3030537464
 30
0.0
 11
31.8266791003
 21
13.8780533548
 31
0.0
  0
LINE
  5
E7
330
1F
100
AcDbEntity
  8
0
  6
Continuous
 62
     7
370
    15
100
AcDbLine
 10
36.0281025651
 20
14.9135690724
 30
0.0
 11
33.2516783186
 21
15.3030537464
 31
0.0
  0
ARC
  5
E8
330
1F
100
AcDbEntity
  8
0
  6
Continuous
 62
     7
370
    15
100
AcDbCircle
 10
35.8891794167
 20
13.9232661793
 30
0.0
 40
1.000000000000005
100
AcDbArc
 50
285.0
 51
82.0145035009
  0
LINE
  5
E9
330
1F
100
AcDbEntity
  8
0
  6
Continuous
 62
     7
370
    15
100
AcDbLine
 10
28.5991791047
 20
13.3030539172
 30
0.0
 11
34.6791790547
 21
13.3030539172
 31
0.0
  0
LINE
  5
EA
330
1F
100
AcDbEntity
  8
0
  6
Continuous
 62
     7
370
    15
100
AcDbLine
 10
12.1384271807
 20
13.575609062
 30
0.0
 11
12.1384271807
 21
13.6856089646
 31
0.0
  0
LINE
  5
EB
330
1F
100
AcDbEntity
  8
0
  6
Continuous
 62
     7
370
    15
100
AcDbLine
 10
5.1384274853
 20
13.6856089646
 30
0.0
 11
5.8884275679
 21
13.6856089646
 31
0.0
  0
LINE
  5
EC
330
1F
100
AcDbEntity
  8
0
  6
Continuous
 62
     7
370
    15
100
AcDbLine
 10
5.8884275679
 20
13.575609062
 30
0.0
 11
5.1384274853
 21
13.575609062
 31
0.0
  0
LINE
  5
ED
330
1F
100
AcDbEntity
  8
0
  6
Continuous
 62
     7
370
    15
100
AcDbLine
 10
2.3884275735
 20
13.6856089646
 30
0.0
 11
2.3884275735
 21
13.575609062
 31
0.0
  0
LINE
  5
EE
330
1F
100
AcDbEntity
  8
0
  6
Continuous
 62
     7
370
    15
100
AcDbLine
 10
12.1384271807
 20
12.1306082614
 30
0.0
 11
2.0044529559
 21
12.1306082614
 31
0.0
  0
LINE
  5
EF
330
1F
100
AcDbEntity
  8
0
  6
Continuous
 62
     7
370
    15
100
AcDbLine
 10
1.1384275336
 20
12.6306090987
 30
0.0
 11
1.1384275336
 21
14.6306089278
 31
0.0
  0
LINE
  5
F0
330
1F
100
AcDbEntity
  8
0
  6
Continuous
 62
     7
370
    15
100
AcDbLine
 10
1.5384275361
 20
13.6856089646
 30
0.0
 11
1.5384275361
 21
13.575609062
 31
0.0
  0
LINE
  5
F1
330
1F
100
AcDbEntity
  8
0
  6
Continuous
 62
     7
370
    15
100
AcDbLine
 10
9.3884272689
 20
13.6856089646
 30
0.0
 11
9.3884272689
 21
13.575609062
 31
0.0
  0
LINE
  5
F2
330
1F
100
AcDbEntity
  8
0
  6
Continuous
 62
     7
370
    15
100
AcDbLine
 10
8.638427773
 20
13.575609062
 30
0.0
 11
8.638427773
 21
13.6856089646
 31
0.0
  0
LINE
  5
F3
330
1F
100
AcDbEntity
  8
0
  6
Continuous
 62
     7
370
    15
100
AcDbLine
 10
21.7143897317
 20
14.3806085092
 30
0.0
 11
21.5156129347
 21
13.6387618257
 31
0.0
  0
LINE
  5
F4
330
1F
100
AcDbEntity
  8
0
  6
Continuous
 62
     7
370
    15
100
AcDbLine
 10
15.6384271751
 20
13.575609062
 30
0.0
 11
15.6384271751
 21
13.6856089646
 31
0.0
  0
LINE
  5
F5
330
1F
100
AcDbEntity
  8
0
  6
Continuous
 62
     7
370
    15
100
AcDbLine
 10
12.1384271807
 20
13.6856089646
 30
0.0
 11
12.8884272633
 21
13.6856089646
 31
0.0
  0
LINE
  5
F6
330
1F
100
AcDbEntity
  8
0
  6
Continuous
 62
     7
370
    15
100
AcDbLine
 10
12.8884272633
 20
13.6856089646
 30
0.0
 11
12.8884272633
 21
13.575609062
 31
0.0
  0
LINE
  5
F7
330
1F
100
AcDbEntity
  8
0
  6
Continuous
 62
     7
370
    15
100
AcDbLine
 10
1.28842753
 20
13.6856089646
 30
0.0
 11
1.5384275361
 21
13.6856089646
 31
0.0
  0
LINE
  5
F8
330
1F
100
AcDbEntity
  8
0
  6
Continuous
 62
     7
370
    15
100
AcDbLine
 10
15.6384271751
 20
13.6856089646
 30
0.0
 11
16.3884272577
 21
13.6856089646
 31
0.0
  0
LINE
  5
F9
330
1F
100
AcDbEntity
  8
0
  6
Continuous
 62
     7
370
    15
100
AcDbLine
 10
21.5156129347
 20
13.6224562008
 30
0.0
 11
21.7143897317
 21
12.880608344
 31
0.0
  0
LINE
  5
FA
330
1F
100
AcDbEntity
  8
0
  6
Continuous
 62
     7
370
    15
100
AcDbLine
 10
2.0044529559
 20
15.1306085918
 30
0.0
 11
12.1384271807
 21
15.1306085918
 31
0.0
  0
LINE
  5
FB
330
1F
100
AcDbEntity
  8
0
  6
Continuous
 62
     7
370
    15
100
AcDbLine
 10
1.5384275361
 20
13.575609062
 30
0.0
 11
1.28842753
 21
13.575609062
 31
0.0
  0
LINE
  5
FC
330
1F
100
AcDbEntity
  8
0
  6
Continuous
 62
     7
370
    15
100
AcDbLine
 10
2.3884275735
 20
13.575609062
 30
0.0
 11
1.6384275276
 21
13.575609062
 31
0.0
  0
LINE
  5
FD
330
1F
100
AcDbEntity
  8
0
  6
Continuous
 62
     7
370
    15
100
AcDbLine
 10
19.1384271694
 20
13.6856089646
 30
0.0
 11
19.888427252
 21
13.6856089646
 31
0.0
  0
LINE
  5
FE
330
1F
100
AcDbEntity
  8
0
  6
Continuous
 62
     7
370
    15
100
AcDbLine
 10
16.3884272577
 20
13.6856089646
 30
0.0
 11
16.3884272577
 21
13.575609062
 31
0.0
  0
LINE
  5
FF
330
1F
100
AcDbEntity
  8
0
  6
Continuous
 62
     7
370
    15
100
AcDbLine
 10
9.3884272689
 20
13.575609062
 30
0.0
 11
8.638427773
 21
13.575609062
 31
0.0
  0
LINE
  5
100
330
1F
100
AcDbEntity
  8
0
  6
Continuous
 62
     7
370
    15
100
AcDbLine
 10
8.638427773
 20
13.6856089646
 30
0.0
 11
9.3884272689
 21
13.6856089646
 31
0.0
  0
CIRCLE
  5
101
330
1F
100
AcDbEntity
  8
0
  6
Continuous
 62
     7
370
    15
100
AcDbCircle
 10
15.1141164173
 20
12.4890508796
 30
0.0
 40
0.0314999999999994
  0
LINE
  5
102
330
1F
100
AcDbEntity
  8
0
  6
Continuous
 62
     7
370
    15
100
AcDbLine
 10
12.1384271807
 20
15.1306085918
 30
0.0
 11
21.7143897317
 21
14.3806085092
 31
0.0
  0
LINE
  5
103
330
1F
100
AcDbEntity
  8
0
  6
Continuous
 62
     7
370
    15
100
AcDbLine
 10
2.0044529559
 20
12.1306082614
 30
0.0
 11
1.1384275336
 21
12.6306090987
 31
0.0
  0
LINE
  5
104
330
1F
100
AcDbEntity
  8
0
  6
Continuous
 62
     7
370
    15
100
AcDbLine
 10
21.7143897317
 20
12.880608344
 30
0.0
 11
12.1384271807
 21
12.1306082614
 31
0.0
  0
LINE
  5
105
330
1F
100
AcDbEntity
  8
0
  6
Continuous
 62
     7
370
    15
100
AcDbLine
 10
19.888427252
 20
13.575609062
 30
0.0
 11
19.1384271694
 21
13.575609062
 31
0.0
  0
LINE
  5
106
330
1F
100
AcDbEntity
  8
0
  6
Continuous
 62
     7
370
    15
100
AcDbLine
 10
1.6384275276
 20
13.6856089646
 30
0.0
 11
2.3884275735
 21
13.6856089646
 31
0.0
  0
LINE
  5
107
330
1F
100
AcDbEntity
  8
0
  6
Continuous
 62
     7
370
    15
100
AcDbLine
 10
6.2014273388
 20
12.6306090987
 30
0.0
 11
6.2014273388
 21
12.38060868
 31
0.0
  0
LINE
  5
108
330
1F
100
AcDbEntity
  8
0
  6
Continuous
 62
     7
370
    15
100
AcDbLine
 10
6.2014273388
 20
14.8806093465
 30
0.0
 11
6.2014273388
 21
14.6306089278
 31
0.0
  0
LINE
  5
109
330
1F
100
AcDbEntity
  8
0
  6
Continuous
 62
     7
370
    15
100
AcDbLine
 10
5.8884275679
 20
13.6856089646
 30
0.0
 11
5.8884275679
 21
13.575609062
 31
0.0
  0
LINE
  5
10A
330
1F
100
AcDbEntity
  8
0
  6
Continuous
 62
     7
370
    15
100
AcDbLine
 10
5.1384274853
 20
13.575609062
 30
0.0
 11
5.1384274853
 21
13.6856089646
 31
0.0
  0
CIRCLE
  5
10B
330
1F
100
AcDbEntity
  8
0
  6
Continuous
 62
     7
370
    15
100
AcDbCircle
 10
12.0634275336
 20
12.2559916123
 30
0.0
 40
0.0314999999999994
  0
LINE
  5
10C
330
1F
100
AcDbEntity
  8
0
  6
Continuous
 62
     7
370
    15
100
AcDbLine
 10
6.1384276932
 20
12.38060868
 30
0.0
 11
6.1384276932
 21
12.6306090987
 31
0.0
  0
LINE
  5
10D
330
1F
100
AcDbEntity
  8
0
  6
Continuous
 62
     7
370
    15
100
AcDbLine
 10
6.1384276932
 20
14.8806093465
 30
0.0
 11
6.2014273388
 21
14.8806093465
 31
0.0
  0
LINE
  5
10E
330
1F
100
AcDbEntity
  8
0
  6
Continuous
 62
     7
370
    15
100
AcDbLine
 10
6.1384276932
 20
14.6306089278
 30
0.0
 11
6.1384276932
 21
14.8806093465
 31
0.0
  0
ARC
  5
10F
330
1F
100
AcDbEntity
  8
0
  6
Continuous
 62
     7
370
    15
100
AcDbCircle
 10
21.5460387333
 20
13.6306088111
 30
0.0
 40
0.0314999999999958
100
AcDbArc
 50
165.0
 51
195.0
  0
LINE
  5
110
330
1F
100
AcDbEntity
  8
0
  6
Continuous
 62
     7
370
    15
100
AcDbLine
 10
19.888427252
 20
13.6856089646
 30
0.0
 11
19.888427252
 21
13.575609062
 31
0.0
  0
LINE
  5
111
330
1F
100
AcDbEntity
  8
0
  6
Continuous
 62
     7
370
    15
100
AcDbLine
 10
16.3884272577
 20
13.575609062
 30
0.0
 11
15.6384271751
 21
13.575609062
 31
0.0
  0
LINE
  5
112
330
1F
100
AcDbEntity
  8
0
  6
Continuous
 62
     7
370
    15
100
AcDbLine
 10
19.1384271694
 20
13.575609062
 30
0.0
 11
19.1384271694
 21
13.6856089646
 31
0.0
  0
LINE
  5
113
330
1F
100
AcDbEntity
  8
0
  6
Continuous
 62
     7
370
    15
100
AcDbLine
 10
1.6384275276
 20
13.575609062
 30
0.0
 11
1.6384275276
 21
13.6856089646
 31
0.0
  0
LINE
  5
114
330
1F
100
AcDbEntity
  8
0
  6
Continuous
 62
     7
370
    15
100
AcDbLine
 10
12.8884272633
 20
13.575609062
 30
0.0
 11
12.1384271807
 21
13.575609062
 31
0.0
  0
LINE
  5
115
330
1F
100
AcDbEntity
  8
0
  6
Continuous
 62
     7
370
    15
100
AcDbLine
 10
1.1384275336
 20
14.6306089278
 30
0.0
 11
2.0044529559
 21
15.1306085918
 31
0.0
  0
LINE
  5
116
330
1F
100
AcDbEntity
  8
0
  6
Continuous
 62
     7
370
    15
100
AcDbLine
 10
6.2014273388
 20
14.6306089278
 30
0.0
 11
6.1384276932
 21
14.6306089278
 31
0.0
  0
LINE
  5
117
330
1F
100
AcDbEntity
  8
0
  6
Continuous
 62
     7
370
    15
100
AcDbLine
 10
6.2014273388
 20
12.38060868
 30
0.0
 11
6.1384276932
 21
12.38060868
 31
0.0
  0
CIRCLE
  5
118
330
1F
100
AcDbEntity
  8
0
  6
Continuous
 62
     7
370
    15
100
AcDbCircle
 10
15.2141164173
 20
12.4968829909
 30
0.0
 40
0.0314999999999994
  0
CIRCLE
  5
119
330
1F
100
AcDbEntity
  8
0
  6
Continuous
 62
     7
370
    15
100
AcDbCircle
 10
19.2891164173
 20
12.8160415291
 30
0.0
 40
0.0314999999999994
  0
LINE
  5
11A
330
1F
100
AcDbEntity
  8
0
  6
Continuous
 62
     7
370
    15
100
AcDbLine
 10
6.1384276932
 20
12.6306090987
 30
0.0
 11
6.2014273388
 21
12.6306090987
 31
0.0
  0
LINE
  5
11B
330
1F
100
AcDbEntity
  8
0
  6
Continuous
 62
     7
370
    15
100
AcDbLine
 10
1.28842753
 20
13.575609062
 30
0.0
 11
1.28842753
 21
13.6856089646
 31
0.0
  0
CIRCLE
  5
11C
330
1F
100
AcDbEntity
  8
0
  6
Continuous
 62
     7
370
    15
100
AcDbCircle
 10
19.1891164173
 20
12.8082094178
 30
0.0
 40
0.0314999999999976
  0
LINE
  5
11D
330
1F
100
AcDbEntity
  8
0
  6
Continuous
 62
     7
370
    15
100
AcDbLine
 10
34.3035336875
 20
12.0317091372
 30
0.0
 11
33.9837313019
 21
11.6223812791
 31
0.0
  0
LINE
  5
11E
330
1F
100
AcDbEntity
  8
0
  6
Continuous
 62
     7
370
    15
100
AcDbLine
 10
33.9837313019
 20
11.6223812791
 30
0.0
 11
34.95601447
 21
10.8130534552
 31
0.0
  0
LINE
  5
11F
330
1F
100
AcDbEntity
  8
0
  6
Continuous
 62
     7
370
    15
100
AcDbLine
 10
34.95601447
 20
10.8130534552
 30
0.0
 11
34.95601447
 21
7.3647135574
 31
0.0
  0
LINE
  5
120
330
1F
100
AcDbEntity
  8
0
  6
Continuous
 62
     7
370
    15
100
AcDbLine
 10
34.95601447
 20
7.3647135574
 30
0.0
 11
37.1535344707
 21
7.5317086416
 31
0.0
  0
LINE
  5
121
330
1F
100
AcDbEntity
  8
0
  6
Continuous
 62
     7
370
    15
100
AcDbLine
 10
37.1535344707
 20
12.0317091372
 30
0.0
 11
34.3035336875
 21
12.0317091372
 31
0.0
  0
LINE
  5
122
330
1F
100
AcDbEntity
  8
0
  6
Continuous
 62
     7
370
    15
100
AcDbLine
 10
37.1535344707
 20
7.5317086416
 30
0.0
 11
37.1535344707
 21
12.0317091372
 31
0.0
  0
LINE
  5
123
330
1F
100
AcDbEntity
  8
0
  6
Continuous
 62
     7
370
    15
100
AcDbLine
 10
25.8900916803
 20
10.0769619053
 30
0.0
 11
25.0884279812
 21
13.0688088366
 31
0.0
  0
CIRCLE
  5
124
330
1F
100
AcDbEntity
  8
0
  6
Continuous
 62
     7
370
    15
100
AcDbCircle
 10
24.8696656267
 20
7.5688092681
 30
0.0
 40
0.0315000000000012
  0
LINE
  5
125
330
1F
100
AcDbEntity
  8
0
  6
Continuous
 62
     7
370
    15
100
AcDbLine
 10
25.0884279812
 20
7.0688093491
 30
0.0
 11
25.8900916803
 21
10.0606562803
 31
0.0
  0
LINE
  5
126
330
1F
100
AcDbEntity
  8
0
  6
Continuous
 62
     7
370
    15
100
AcDbLine
 10
24.3384278986
 20
7.0688093491
 30
0.0
 11
25.0884279812
 21
7.0688093491
 31
0.0
  0
LINE
  5
127
330
1F
100
AcDbEntity
  8
0
  6
Continuous
 62
     7
370
    15
100
AcDbLine
 10
24.5134285436
 20
10.0138091415
 30
0.0
 11
25.0134270343
 21
10.0138091415
 31
0.0
  0
CIRCLE
  5
128
330
1F
100
AcDbEntity
  8
0
  6
Continuous
 62
     7
370
    15
100
AcDbCircle
 10
24.7674275336
 20
12.5688092681
 30
0.0
 40
0.0315000000000012
  0
ARC
  5
129
330
1F
100
AcDbEntity
  8
0
  6
Continuous
 62
     7
370
    15
100
AcDbCircle
 10
25.8596639113
 20
10.0688092681
 30
0.0
 40
0.0315000000000056
100
AcDbArc
 50
345.0
 51
15.0
  0
CIRCLE
  5
12A
330
1F
100
AcDbEntity
  8
0
  6
Continuous
 62
     7
370
    15
100
AcDbCircle
 10
24.7696656267
 20
7.5688092681
 30
0.0
 40
0.0314999999999976
  0
LINE
  5
12B
330
1F
100
AcDbEntity
  8
0
  6
Continuous
 62
     7
370
    15
100
AcDbLine
 10
25.3911632573
 20
10.0138091415
 30
0.0
 11
25.6411648493
 21
10.0138091415
 31
0.0
  0
LINE
  5
12C
330
1F
100
AcDbEntity
  8
0
  6
Continuous
 62
     7
370
    15
100
AcDbLine
 10
25.6411648493
 20
10.0138091415
 30
0.0
 11
25.6411648493
 21
10.1238090441
 31
0.0
  0
LINE
  5
12D
330
1F
100
AcDbEntity
  8
0
  6
Continuous
 62
     7
370
    15
100
AcDbLine
 10
24.3384278986
 20
13.0688088366
 30
0.0
 11
24.3384278986
 21
7.0688093491
 31
0.0
  0
LINE
  5
12E
330
1F
100
AcDbEntity
  8
0
  6
Continuous
 62
     7
370
    15
100
AcDbLine
 10
25.0134270343
 20
10.1238090441
 30
0.0
 11
24.5134285436
 21
10.1238090441
 31
0.0
  0
LINE
  5
12F
330
1F
100
AcDbEntity
  8
0
  6
Continuous
 62
     7
370
    15
100
AcDbLine
 10
25.6411648493
 20
10.1238090441
 30
0.0
 11
25.3911632573
 21
10.1238090441
 31
0.0
  0
LINE
  5
130
330
1F
100
AcDbEntity
  8
0
  6
Continuous
 62
     7
370
    15
100
AcDbLine
 10
24.5134285436
 20
10.1238090441
 30
0.0
 11
24.5134285436
 21
10.0138091415
 31
0.0
  0
LINE
  5
131
330
1F
100
AcDbEntity
  8
0
  6
Continuous
 62
     7
370
    15
100
AcDbLine
 10
25.0134270343
 20
10.0138091415
 30
0.0
 11
25.0134270343
 21
10.1238090441
 31
0.0
  0
LINE
  5
132
330
1F
100
AcDbEntity
  8
0
  6
Continuous
 62
     7
370
    15
100
AcDbLine
 10
25.0884279812
 20
13.0688088366
 30
0.0
 11
24.3384278986
 21
13.0688088366
 31
0.0
  0
LINE
  5
133
330
1F
100
AcDbEntity
  8
0
  6
Continuous
 62
     7
370
    15
100
AcDbLine
 10
25.3911632573
 20
10.1238090441
 30
0.0
 11
25.3911632573
 21
10.0138091415
 31
0.0
  0
CIRCLE
  5
134
330
1F
100
AcDbEntity
  8
0
  6
Continuous
 62
     7
370
    15
100
AcDbCircle
 10
24.8674275336
 20
12.5688092681
 30
0.0
 40
0.0314999999999976
  0
LINE
  5
135
330
1F
100
AcDbEntity
  8
0
  6
Continuous
 62
     7
370
    15
100
AcDbLine
 10
5.8884275679
 20
9.4306087854
 30
0.0
 11
9.3834277534
 21
9.4306087854
 31
0.0
  0
LINE
  5
136
330
1F
100
AcDbEntity
  8
0
  6
Continuous
 62
     7
370
    15
100
AcDbLine
 10
5.8884275679
 20
9.3156087805
 30
0.0
 11
5.8884275679
 21
9.4306087854
 31
0.0
  0
LINE
  5
137
330
1F
100
AcDbEntity
  8
0
  6
Continuous
 62
     7
370
    15
100
AcDbLine
 10
5.1384274853
 20
9.3156087805
 30
0.0
 11
5.8884275679
 21
9.3156087805
 31
0.0
  0
LINE
  5
138
330
1F
100
AcDbEntity
  8
0
  6
Continuous
 62
     7
370
    15
100
AcDbLine
 10
5.1384274853
 20
9.4306087854
 30
0.0
 11
5.1384274853
 21
9.3156087805
 31
0.0
  0
LINE
  5
139
330
1F
100
AcDbEntity
  8
0
  6
Continuous
 62
     7
370
    15
100
AcDbLine
 10
1.5384275361
 20
9.4306087854
 30
0.0
 11
5.1384274853
 21
9.4306087854
 31
0.0
  0
LINE
  5
13A
330
1F
100
AcDbEntity
  8
0
  6
Continuous
 62
     7
370
    15
100
AcDbLine
 10
1.5384275361
 20
9.3156087805
 30
0.0
 11
1.5384275361
 21
9.4306087854
 31
0.0
  0
LINE
  5
13B
330
1F
100
AcDbEntity
  8
0
  6
Continuous
 62
     7
370
    15
100
AcDbLine
 10
1.28842753
 20
9.4306087854
 30
0.0
 11
1.28842753
 21
9.3156087805
 31
0.0
  0
LINE
  5
13C
330
1F
100
AcDbEntity
  8
0
  6
Continuous
 62
     7
370
    15
100
AcDbLine
 10
1.1384275336
 20
9.4306087854
 30
0.0
 11
1.28842753
 21
9.4306087854
 31
0.0
  0
LINE
  5
13D
330
1F
100
AcDbEntity
  8
0
  6
Continuous
 62
     7
370
    15
100
AcDbLine
 10
1.1384275336
 20
10.3731089908
 30
0.0
 11
1.1384275336
 21
9.4306087854
 31
0.0
  0
SPLINE
  5
13E
330
1F
100
AcDbEntity
  8
0
  6
Continuous
 62
     7
370
    15
100
AcDbSpline
210
0.0
220
0.0
230
1.0
 70
     8
 71
     3
 72
    10
 73
     6
 74
     0
 42
0.00000001
 43
0.00000001
 40
0.0
 40
0.0
 40
0.0
 40
0.0
 40
0.2800034091632248
 40
0.5599990186625758
 40
1.0
 40
1.0
 40
1.0
 40
1.0
 10
4.185700331287602
 20
10.53717546886707
 30
0.0
 10
3.900910906303646
 20
10.52999556043588
 30
0.0
 10
3.331339989316971
 20
10.51563594357419
 30
0.0
 10
2.315240946513487
 20
10.46221972954955
 30
0.0
 10
1.584806964889166
 20
10.40690976199943
 30
0.0
 10
1.138427533642995
 20
10.37310899084369
 30
0.0
  0
LINE
  5
13F
330
1F
100
AcDbEntity
  8
0
  6
Continuous
 62
     7
370
    15
100
AcDbLine
 10
5.3978083022
 20
11.8156082736
 30
0.0
 11
4.3706774211
 21
10.6239190001
 31
0.0
  0
LINE
  5
140
330
1F
100
AcDbEntity
  8
0
  6
Continuous
 62
     7
370
    15
100
AcDbLine
 10
5.6578083387
 20
11.9306088651
 30
0.0
 11
5.6578083387
 21
11.8156082736
 31
0.0
  0
LINE
  5
141
330
1F
100
AcDbEntity
  8
0
  6
Continuous
 62
     7
370
    15
100
AcDbLine
 10
5.9078081707
 20
11.9306088651
 30
0.0
 11
5.6578083387
 21
11.9306088651
 31
0.0
  0
LINE
  5
142
330
1F
100
AcDbEntity
  8
0
  6
Continuous
 62
     7
370
    15
100
AcDbLine
 10
5.9078081707
 20
11.2806084807
 30
0.0
 11
5.9078081707
 21
11.9306088651
 31
0.0
  0
LINE
  5
143
330
1F
100
AcDbEntity
  8
0
  6
Continuous
 62
     7
370
    15
100
AcDbLine
 10
7.7078080169
 20
11.9306088651
 30
0.0
 11
6.7078081024
 21
11.9306088651
 31
0.0
  0
LINE
  5
144
330
1F
100
AcDbEntity
  8
0
  6
Continuous
 62
     7
370
    15
100
AcDbLine
 10
7.7078080169
 20
11.8156082736
 30
0.0
 11
7.7078080169
 21
11.9306088651
 31
0.0
  0
LINE
  5
145
330
1F
100
AcDbEntity
  8
0
  6
Continuous
 62
     7
370
    15
100
AcDbLine
 10
8.4578080995
 20
11.9306088651
 30
0.0
 11
8.4578080995
 21
11.8156082736
 31
0.0
  0
LINE
  5
146
330
1F
100
AcDbEntity
  8
0
  6
Continuous
 62
     7
370
    15
100
AcDbLine
 10
9.4578080141
 20
11.9306088651
 30
0.0
 11
8.4578080995
 21
11.9306088651
 31
0.0
  0
LINE
  5
147
330
1F
100
AcDbEntity
  8
0
  6
Continuous
 62
     7
370
    15
100
AcDbLine
 10
10.2078080967
 20
11.9306088651
 30
0.0
 11
10.2078080967
 21
11.8156082736
 31
0.0
  0
LINE
  5
148
330
1F
100
AcDbEntity
  8
0
  6
Continuous
 62
     7
370
    15
100
AcDbLine
 10
11.7178084664
 20
11.9304915332
 30
0.0
 11
11.7178084664
 21
11.8156082736
 31
0.0
  0
LINE
  5
149
330
1F
100
AcDbEntity
  8
0
  6
Continuous
 62
     7
370
    15
100
AcDbLine
 10
11.9178078627
 20
11.9304915332
 30
0.0
 11
11.7178084664
 21
11.9304915332
 31
0.0
  0
LINE
  5
14A
330
1F
100
AcDbEntity
  8
0
  6
Continuous
 62
     7
370
    15
100
AcDbLine
 10
20.9105718175
 20
10.6076720412
 30
0.0
 11
11.9178078627
 21
11.9304915332
 31
0.0
  0
ARC
  5
14B
330
1F
100
AcDbEntity
  8
0
  6
Continuous
 62
     7
370
    15
100
AcDbCircle
 10
21.056103955
 20
11.5970251013
 30
0.0
 40
0.9999999999999994
100
AcDbArc
 50
261.6318986675
 51
322.0
  0
LINE
  5
14C
330
1F
100
AcDbEntity
  8
0
  6
Continuous
 62
     7
370
    15
100
AcDbLine
 10
23.1384268278
 20
12.6380080532
 30
0.0
 11
21.8441143131
 21
10.9813638309
 31
0.0
  0
LINE
  5
14D
330
1F
100
AcDbEntity
  8
0
  6
Continuous
 62
     7
370
    15
100
AcDbLine
 10
24.1384285023
 20
11.8056092425
 30
0.0
 11
23.1384268278
 21
12.6380080532
 31
0.0
  0
LINE
  5
14E
330
1F
100
AcDbEntity
  8
0
  6
Continuous
 62
     7
370
    15
100
AcDbLine
 10
24.1384285023
 20
9.3731090763
 30
0.0
 11
24.1384285023
 21
11.8056092425
 31
0.0
  0
LINE
  5
14F
330
1F
100
AcDbEntity
  8
0
  6
Continuous
 62
     7
370
    15
100
AcDbLine
 10
23.6924285346
 20
9.3731090763
 30
0.0
 11
24.1384285023
 21
9.3731090763
 31
0.0
  0
ARC
  5
150
330
1F
100
AcDbEntity
  8
0
  6
Continuous
 62
     7
370
    15
100
AcDbCircle
 10
22.9924275336
 20
9.3731088111
 30
0.0
 40
0.7000000000000023
100
AcDbArc
 50
0.0
 51
45.6998417722
  0
ARC
  5
151
330
1F
100
AcDbEntity
  8
0
  6
Continuous
 62
     7
370
    15
100
AcDbCircle
 10
23.4593194732
 20
9.8515481142
 30
0.0
 40
0.031500000000003
100
AcDbArc
 50
45.6998417722
 51
140.0
  0
LINE
  5
152
330
1F
100
AcDbEntity
  8
0
  6
Continuous
 62
     7
370
    15
100
AcDbLine
 10
22.8924286029
 20
9.3156087805
 30
0.0
 11
22.8924286029
 21
9.4306087854
 31
0.0
  0
LINE
  5
153
330
1F
100
AcDbEntity
  8
0
  6
Continuous
 62
     7
370
    15
100
AcDbLine
 10
22.3924277656
 20
9.3156087805
 30
0.0
 11
22.8924286029
 21
9.3156087805
 31
0.0
  0
LINE
  5
154
330
1F
100
AcDbEntity
  8
0
  6
Continuous
 62
     7
370
    15
100
AcDbLine
 10
22.3924277656
 20
9.4306087854
 30
0.0
 11
22.3924277656
 21
9.3156087805
 31
0.0
  0
LINE
  5
155
330
1F
100
AcDbEntity
  8
0
  6
Continuous
 62
     7
370
    15
100
AcDbLine
 10
19.888427252
 20
9.4306087854
 30
0.0
 11
22.3924277656
 21
9.4306087854
 31
0.0
  0
LINE
  5
156
330
1F
100
AcDbEntity
  8
0
  6
Continuous
 62
     7
370
    15
100
AcDbLine
 10
19.888427252
 20
9.3156087805
 30
0.0
 11
19.888427252
 21
9.4306087854
 31
0.0
  0
LINE
  5
157
330
1F
100
AcDbEntity
  8
0
  6
Continuous
 62
     7
370
    15
100
AcDbLine
 10
19.1384271694
 20
9.3156087805
 30
0.0
 11
19.888427252
 21
9.3156087805
 31
0.0
  0
LINE
  5
158
330
1F
100
AcDbEntity
  8
0
  6
Continuous
 62
     7
370
    15
100
AcDbLine
 10
19.1384271694
 20
9.4306087854
 30
0.0
 11
19.1384271694
 21
9.3156087805
 31
0.0
  0
LINE
  5
159
330
1F
100
AcDbEntity
  8
0
  6
Continuous
 62
     7
370
    15
100
AcDbLine
 10
12.8884272633
 20
9.4306087854
 30
0.0
 11
19.1384271694
 21
9.4306087854
 31
0.0
  0
LINE
  5
15A
330
1F
100
AcDbEntity
  8
0
  6
Continuous
 62
     7
370
    15
100
AcDbLine
 10
12.8884272633
 20
9.3156087805
 30
0.0
 11
12.8884272633
 21
9.4306087854
 31
0.0
  0
LINE
  5
15B
330
1F
100
AcDbEntity
  8
0
  6
Continuous
 62
     7
370
    15
100
AcDbLine
 10
12.1384271807
 20
9.3156087805
 30
0.0
 11
12.8884272633
 21
9.3156087805
 31
0.0
  0
LINE
  5
15C
330
1F
100
AcDbEntity
  8
0
  6
Continuous
 62
     7
370
    15
100
AcDbLine
 10
12.1384271807
 20
9.4306087854
 30
0.0
 11
12.1384271807
 21
9.3156087805
 31
0.0
  0
LINE
  5
15D
330
1F
100
AcDbEntity
  8
0
  6
Continuous
 62
     7
370
    15
100
AcDbLine
 10
10.183427685
 20
9.4306087854
 30
0.0
 11
12.1384271807
 21
9.4306087854
 31
0.0
  0
LINE
  5
15E
330
1F
100
AcDbEntity
  8
0
  6
Continuous
 62
     7
370
    15
100
AcDbLine
 10
10.183427685
 20
9.4306087854
 30
0.0
 11
10.183427685
 21
9.7806089021
 31
0.0
  0
CIRCLE
  5
15F
330
1F
100
AcDbEntity
  8
0
  6
Continuous
 62
     7
370
    15
100
AcDbCircle
 10
22.5384275336
 20
11.1056088111
 30
0.0
 40
0.0315000000000012
  0
CIRCLE
  5
160
330
1F
100
AcDbEntity
  8
0
  6
Continuous
 62
     7
370
    15
100
AcDbCircle
 10
3.9884275336
 20
9.5556088111
 30
0.0
 40
0.0315000000000012
  0
CIRCLE
  5
161
330
1F
100
AcDbEntity
  8
0
  6
Continuous
 62
     7
370
    15
100
AcDbCircle
 10
3.8884275336
 20
9.5556088111
 30
0.0
 40
0.0315000000000012
  0
LINE
  5
162
330
1F
100
AcDbEntity
  8
0
  6
Continuous
 62
     7
370
    15
100
AcDbLine
 10
6.7078081024
 20
11.9306088651
 30
0.0
 11
6.7078081024
 21
11.2806084807
 31
0.0
  0
LINE
  5
163
330
1F
100
AcDbEntity
  8
0
  6
Continuous
 62
     7
370
    15
100
AcDbLine
 10
22.8924286029
 20
9.4306087854
 30
0.0
 11
23.0649887428
 21
9.4306087854
 31
0.0
  0
LINE
  5
164
330
1F
100
AcDbEntity
  8
0
  6
Continuous
 62
     7
370
    15
100
AcDbLine
 10
11.207808598
 20
11.8156082736
 30
0.0
 11
11.207808598
 21
11.9306088651
 31
0.0
  0
CIRCLE
  5
165
330
1F
100
AcDbEntity
  8
0
  6
Continuous
 62
     7
370
    15
100
AcDbCircle
 10
22.6384275336
 20
11.1056088111
 30
0.0
 40
0.0314999999999976
  0
LINE
  5
166
330
1F
100
AcDbEntity
  8
0
  6
Continuous
 62
     7
370
    15
100
AcDbLine
 10
5.6578083387
 20
11.8156082736
 30
0.0
 11
5.3978083022
 21
11.8156082736
 31
0.0
  0
LINE
  5
167
330
1F
100
AcDbEntity
  8
0
  6
Continuous
 62
     7
370
    15
100
AcDbLine
 10
6.7078081024
 20
11.2806084807
 30
0.0
 11
5.9078081707
 21
11.2806084807
 31
0.0
  0
LINE
  5
168
330
1F
100
AcDbEntity
  8
0
  6
Continuous
 62
     7
370
    15
100
AcDbLine
 10
10.2078080967
 20
11.8156082736
 30
0.0
 11
9.4578080141
 21
11.8156082736
 31
0.0
  0
LINE
  5
169
330
1F
100
AcDbEntity
  8
0
  6
Continuous
 62
     7
370
    15
100
AcDbLine
 10
8.4578080995
 20
11.8156082736
 30
0.0
 11
7.7078080169
 21
11.8156082736
 31
0.0
  0
LINE
  5
16A
330
1F
100
AcDbEntity
  8
0
  6
Continuous
 62
     7
370
    15
100
AcDbLine
 10
10.183427685
 20
9.7806089021
 30
0.0
 11
9.3834277534
 21
9.7806089021
 31
0.0
  0
LINE
  5
16B
330
1F
100
AcDbEntity
  8
0
  6
Continuous
 62
     7
370
    15
100
AcDbLine
 10
1.28842753
 20
9.3156087805
 30
0.0
 11
1.5384275361
 21
9.3156087805
 31
0.0
  0
ARC
  5
16C
330
1F
100
AcDbEntity
  8
0
  6
Continuous
 62
     7
370
    15
100
AcDbCircle
 10
4.181310043
 20
10.7871367766
 30
0.0
 40
0.25
100
AcDbArc
 50
271.0062213858
 51
319.2415767571
  0
LINE
  5
16D
330
1F
100
AcDbEntity
  8
0
  6
Continuous
 62
     7
370
    15
100
AcDbLine
 10
11.207808598
 20
11.9306088651
 30
0.0
 11
10.2078080967
 21
11.9306088651
 31
0.0
  0
LINE
  5
16E
330
1F
100
AcDbEntity
  8
0
  6
Continuous
 62
     7
370
    15
100
AcDbLine
 10
23.4351899062
 20
9.8717957954
 30
0.0
 11
23.0649887428
 21
9.4306087854
 31
0.0
  0
LINE
  5
16F
330
1F
100
AcDbEntity
  8
0
  6
Continuous
 62
     7
370
    15
100
AcDbLine
 10
9.3834277534
 20
9.7806089021
 30
0.0
 11
9.3834277534
 21
9.4306087854
 31
0.0
  0
LINE
  5
170
330
1F
100
AcDbEntity
  8
0
  6
Continuous
 62
     7
370
    15
100
AcDbLine
 10
9.4578080141
 20
11.8156082736
 30
0.0
 11
9.4578080141
 21
11.9306088651
 31
0.0
  0
LINE
  5
171
330
1F
100
AcDbEntity
  8
0
  6
Continuous
 62
     7
370
    15
100
AcDbLine
 10
11.7178084664
 20
11.8156082736
 30
0.0
 11
11.207808598
 21
11.8156082736
 31
0.0
  0
LINE
  5
172
330
1F
100
AcDbEntity
  8
0
  6
Continuous
 62
     7
370
    15
100
AcDbLine
 10
16.3834277421
 20
9.1156087976
 30
0.0
 11
15.643427864
 21
9.1156087976
 31
0.0
  0
LINE
  5
173
330
1F
100
AcDbEntity
  8
0
  6
Continuous
 62
     7
370
    15
100
AcDbLine
 10
16.3834277421
 20
9.0006087927
 30
0.0
 11
16.3834277421
 21
9.1156087976
 31
0.0
  0
LINE
  5
174
330
1F
100
AcDbEntity
  8
0
  6
Continuous
 62
     7
370
    15
100
AcDbLine
 10
21.7692752843
 20
9.1156087976
 30
0.0
 11
21.7692752843
 21
9.0006087927
 31
0.0
  0
LINE
  5
175
330
1F
100
AcDbEntity
  8
0
  6
Continuous
 62
     7
370
    15
100
AcDbLine
 10
22.9940028962
 20
9.0006087927
 30
0.0
 11
23.4351899062
 21
8.5594217827
 31
0.0
  0
ARC
  5
176
330
1F
100
AcDbEntity
  8
0
  6
Continuous
 62
     7
370
    15
100
AcDbCircle
 10
23.4593194732
 20
8.579669508
 30
0.0
 40
0.0315000000000042
100
AcDbArc
 50
220.0
 51
314.3001582278
  0
ARC
  5
177
330
1F
100
AcDbEntity
  8
0
  6
Continuous
 62
     7
370
    15
100
AcDbCircle
 10
22.9924275336
 20
9.0581088111
 30
0.0
 40
0.7000000000000011
100
AcDbArc
 50
314.3001582278
 51
0.0
  0
SPLINE
  5
178
330
1F
100
AcDbEntity
  8
0
  6
Continuous
 62
     7
370
    15
100
AcDbSpline
210
0.0
220
0.0
230
1.0
 70
     8
 71
     3
 72
    15
 73
    11
 74
     0
 42
0.00000001
 43
0.00000001
 40
0.0
 40
0.0
 40
0.0
 40
0.0
 40
0.1470782573670863
 40
0.2841339323989734
 40
0.4155430318827514
 40
0.545712981120886
 40
0.6501138063728777
 40
0.7589527615489795
 40
0.8747180838483446
 40
1.0
 40
1.0
 40
1.0
 40
1.0
 10
2.05787046549312
 20
7.409332561975233
 30
0.0
 10
2.177820508801318
 20
7.383189583011523
 30
0.0
 10
2.409546653145835
 20
7.332685126740714
 30
0.0
 10
2.746505411495535
 20
7.250424622925153
 30
0.0
 10
3.07012857454759
 20
7.17312323552322
 30
0.0
 10
3.368973390966587
 20
7.109536200900423
 30
0.0
 10
3.651591553844372
 20
7.061225222697654
 30
0.0
 10
3.924175494439448
 20
7.027282587693497
 30
0.0
 10
4.215526388238678
 20
7.004737435844254
 30
0.0
 10
4.416745012564938
 20
7.002020871179439
 30
0.0
 10
4.521326400773274
 20
7.00060896358512
 30
0.0
  0
LINE
  5
179
330
1F
100
AcDbEntity
  8
0
  6
Continuous
 62
     7
370
    15
100
AcDbLine
 10
1.6384275276
 20
7.6261239242
 30
0.0
 11
2.0578704655
 21
7.409332562
 31
0.0
  0
LINE
  5
17A
330
1F
100
AcDbEntity
  8
0
  6
Continuous
 62
     7
370
    15
100
AcDbLine
 10
1.6384275276
 20
7.8761237562
 30
0.0
 11
1.6384275276
 21
7.6261239242
 31
0.0
  0
LINE
  5
17B
330
1F
100
AcDbEntity
  8
0
  6
Continuous
 62
     7
370
    15
100
AcDbLine
 10
1.6434275198
 20
9.0006087927
 30
0.0
 11
1.1384275336
 21
9.0006087927
 31
0.0
  0
LINE
  5
17C
330
1F
100
AcDbEntity
  8
0
  6
Continuous
 62
     7
370
    15
100
AcDbLine
 10
1.6434275198
 20
9.1156087976
 30
0.0
 11
1.6434275198
 21
9.0006087927
 31
0.0
  0
LINE
  5
17D
330
1F
100
AcDbEntity
  8
0
  6
Continuous
 62
     7
370
    15
100
AcDbLine
 10
2.3834274713
 20
9.1156087976
 30
0.0
 11
1.6434275198
 21
9.1156087976
 31
0.0
  0
LINE
  5
17E
330
1F
100
AcDbEntity
  8
0
  6
Continuous
 62
     7
370
    15
100
AcDbLine
 10
8.6434272886
 20
9.1156087976
 30
0.0
 11
8.6434272886
 21
9.0006087927
 31
0.0
  0
LINE
  5
17F
330
1F
100
AcDbEntity
  8
0
  6
Continuous
 62
     7
370
    15
100
AcDbLine
 10
9.3834277534
 20
9.1156087976
 30
0.0
 11
8.6434272886
 21
9.1156087976
 31
0.0
  0
LINE
  5
180
330
1F
100
AcDbEntity
  8
0
  6
Continuous
 62
     7
370
    15
100
AcDbLine
 10
9.3834277534
 20
9.0006087927
 30
0.0
 11
9.3834277534
 21
9.1156087976
 31
0.0
  0
LINE
  5
181
330
1F
100
AcDbEntity
  8
0
  6
Continuous
 62
     7
370
    15
100
AcDbLine
 10
10.433427517
 20
9.0006087927
 30
0.0
 11
10.433427517
 21
8.650608676
 31
0.0
  0
LINE
  5
182
330
1F
100
AcDbEntity
  8
0
  6
Continuous
 62
     7
370
    15
100
AcDbLine
 10
10.433427517
 20
8.650608676
 30
0.0
 11
11.2334280353
 21
8.650608676
 31
0.0
  0
LINE
  5
183
330
1F
100
AcDbEntity
  8
0
  6
Continuous
 62
     7
370
    15
100
AcDbLine
 10
6.1384276932
 20
8.0502115585
 30
0.0
 11
6.1384276932
 21
8.3002113905
 31
0.0
  0
LINE
  5
184
330
1F
100
AcDbEntity
  8
0
  6
Continuous
 62
     7
370
    15
100
AcDbLine
 10
6.2014273388
 20
8.0502115585
 30
0.0
 11
6.1384276932
 21
8.0502115585
 31
0.0
  0
LINE
  5
185
330
1F
100
AcDbEntity
  8
0
  6
Continuous
 62
     7
370
    15
100
AcDbLine
 10
6.2014273388
 20
8.3002113905
 30
0.0
 11
6.2014273388
 21
8.0502115585
 31
0.0
  0
LINE
  5
186
330
1F
100
AcDbEntity
  8
0
  6
Continuous
 62
     7
370
    15
100
AcDbLine
 10
6.1384276932
 20
8.3002113905
 30
0.0
 11
6.2014273388
 21
8.3002113905
 31
0.0
  0
CIRCLE
  5
187
330
1F
100
AcDbEntity
  8
0
  6
Continuous
 62
     7
370
    15
100
AcDbCircle
 10
17.1585525231
 20
7.6957592738
 30
0.0
 40
0.0315000000000012
  0
CIRCLE
  5
188
330
1F
100
AcDbEntity
  8
0
  6
Continuous
 62
     7
370
    15
100
AcDbCircle
 10
13.5539456426
 20
7.4218354936
 30
0.0
 40
0.0314999999999994
  0
CIRCLE
  5
189
330
1F
100
AcDbEntity
  8
0
  6
Continuous
 62
     7
370
    15
100
AcDbCircle
 10
22.6377544064
 20
8.1121385745
 30
0.0
 40
0.0314999999999976
  0
CIRCLE
  5
18A
330
1F
100
AcDbEntity
  8
0
  6
Continuous
 62
     7
370
    15
100
AcDbCircle
 10
21.3963337795
 20
8.0177996792
 30
0.0
 40
0.0314999999999976
  0
CIRCLE
  5
18B
330
1F
100
AcDbEntity
  8
0
  6
Continuous
 62
     7
370
    15
100
AcDbCircle
 10
10.8367800135
 20
7.215350763
 30
0.0
 40
0.0314999999999994
  0
CIRCLE
  5
18C
330
1F
100
AcDbEntity
  8
0
  6
Continuous
 62
     7
370
    15
100
AcDbCircle
 10
17.0588400229
 20
7.6881818525
 30
0.0
 40
0.0315000000000012
  0
CIRCLE
  5
18D
330
1F
100
AcDbEntity
  8
0
  6
Continuous
 62
     7
370
    15
100
AcDbCircle
 10
13.4542331425
 20
7.4142580723
 30
0.0
 40
0.0315000000000012
  0
CIRCLE
  5
18E
330
1F
100
AcDbEntity
  8
0
  6
Continuous
 62
     7
370
    15
100
AcDbCircle
 10
22.5380419062
 20
8.1045611532
 30
0.0
 40
0.0314999999999976
  0
LINE
  5
18F
330
1F
100
AcDbEntity
  8
0
  6
Continuous
 62
     7
370
    15
100
AcDbLine
 10
10.183427685
 20
8.7506089608
 30
0.0
 11
10.183427685
 21
8.6256087514
 31
0.0
  0
LINE
  5
190
330
1F
100
AcDbEntity
  8
0
  6
Continuous
 62
     7
370
    15
100
AcDbLine
 10
9.6834274344
 20
8.7506089608
 30
0.0
 11
10.183427685
 21
8.7506089608
 31
0.0
  0
CIRCLE
  5
191
330
1F
100
AcDbEntity
  8
0
  6
Continuous
 62
     7
370
    15
100
AcDbCircle
 10
7.3336058043
 20
7.3506088111
 30
0.0
 40
0.0315000000000012
  0
LINE
  5
192
330
1F
100
AcDbEntity
  8
0
  6
Continuous
 62
     7
370
    15
100
AcDbLine
 10
2.3834274713
 20
9.0006087927
 30
0.0
 11
2.3834274713
 21
9.1156087976
 31
0.0
  0
LINE
  5
193
330
1F
100
AcDbEntity
  8
0
  6
Continuous
 62
     7
370
    15
100
AcDbLine
 10
8.6434272886
 20
9.0006087927
 30
0.0
 11
2.3834274713
 21
9.0006087927
 31
0.0
  0
LINE
  5
194
330
1F
100
AcDbEntity
  8
0
  6
Continuous
 62
     7
370
    15
100
AcDbLine
 10
15.643427864
 20
9.0006087927
 30
0.0
 11
11.2334280353
 21
9.0006087927
 31
0.0
  0
LINE
  5
195
330
1F
100
AcDbEntity
  8
0
  6
Continuous
 62
     7
370
    15
100
AcDbLine
 10
15.643427864
 20
9.1156087976
 30
0.0
 11
15.643427864
 21
9.0006087927
 31
0.0
  0
LINE
  5
196
330
1F
100
AcDbEntity
  8
0
  6
Continuous
 62
     7
370
    15
100
AcDbLine
 10
21.7692752843
 20
9.0006087927
 30
0.0
 11
16.3834277421
 21
9.0006087927
 31
0.0
  0
LINE
  5
197
330
1F
100
AcDbEntity
  8
0
  6
Continuous
 62
     7
370
    15
100
AcDbLine
 10
22.0092754985
 20
9.0006087927
 30
0.0
 11
22.0092754985
 21
9.1156087976
 31
0.0
  0
LINE
  5
198
330
1F
100
AcDbEntity
  8
0
  6
Continuous
 62
     7
370
    15
100
AcDbLine
 10
22.9940028962
 20
9.0006087927
 30
0.0
 11
22.0092754985
 21
9.0006087927
 31
0.0
  0
LINE
  5
199
330
1F
100
AcDbEntity
  8
0
  6
Continuous
 62
     7
370
    15
100
AcDbLine
 10
24.1384285023
 20
9.0581090885
 30
0.0
 11
23.6924285346
 21
9.0581090885
 31
0.0
  0
LINE
  5
19A
330
1F
100
AcDbEntity
  8
0
  6
Continuous
 62
     7
370
    15
100
AcDbLine
 10
24.1384285023
 20
8.1008186005
 30
0.0
 11
24.1384285023
 21
9.0581090885
 31
0.0
  0
CIRCLE
  5
19B
330
1F
100
AcDbEntity
  8
0
  6
Continuous
 62
     7
370
    15
100
AcDbCircle
 10
7.3336058043
 20
7.2506088111
 30
0.0
 40
0.0315000000000012
  0
SPLINE
  5
19C
330
1F
100
AcDbEntity
  8
0
  6
Continuous
 62
     7
370
    15
100
AcDbSpline
210
0.0
220
0.0
230
1.0
 70
     8
 71
     3
 72
    27
 73
    23
 74
     0
 42
0.00000001
 43
0.00000001
 40
0.0
 40
0.0
 40
0.0
 40
0.0
 40
0.0714085509710956
 40
0.1423275408174373
 40
0.2128368350297113
 40
0.2824526778838445
 40
0.3516731947440737
 40
0.4239183679292258
 40
0.5040122171544352
 40
0.5511913478218113
 40
0.5944151498025438
 40
0.6309673985306335
 40
0.6486040504557119
 40
0.6652689478788529
 40
0.6827380511399419
 40
0.7021719609404939
 40
0.74790991046164
 40
0.8011487601009613
 40
0.8645478575858694
 40
0.925347999722211
 40
0.9668822541204037
 40
1.0
 40
1.0
 40
1.0
 40
1.0
 10
20.70965957843367
 20
7.840257130564512
 30
0.0
 10
20.7712423539125
 20
7.84230472978185
 30
0.0
 10
20.89398570707425
 20
7.846385890332229
 30
0.0
 10
21.07665959853276
 20
7.824691995364366
 30
0.0
 10
21.25536185437793
 20
7.791002303712498
 30
0.0
 10
21.43149523912872
 20
7.751935058652087
 30
0.0
 10
21.60707816517862
 20
7.703311397616611
 30
0.0
 10
21.78054044458121
 20
7.619106870908884
 30
0.0
 10
21.91229910511214
 20
7.50720070949269
 30
0.0
 10
22.02146244513404
 20
7.409001885118671
 30
0.0
 10
22.10633458218815
 20
7.340009704915585
 30
0.0
 10
22.17968047519386
 20
7.296965500698342
 30
0.0
 10
22.23996942402772
 20
7.283017185136001
 30
0.0
 10
22.28524564186171
 20
7.288248594881203
 30
0.0
 10
22.32724914159905
 20
7.308949671007148
 30
0.0
 10
22.38236008767521
 20
7.354677680214346
 30
0.0
 10
22.4439377094033
 20
7.437287100138101
 30
0.0
 10
22.51259964237315
 20
7.559148812986155
 30
0.0
 10
22.57936583772205
 20
7.696889759833024
 30
0.0
 10
22.64290833615612
 20
7.824457291010195
 30
0.0
 10
22.69915397560359
 20
7.927613503604284
 30
0.0
 10
22.74281254187773
 20
7.975146557193892
 30
0.0
 10
22.76218072086762
 20
7.996233568711388
 30
0.0
  0
LINE
  5
19D
330
1F
100
AcDbEntity
  8
0
  6
Continuous
 62
     7
370
    15
100
AcDbLine
 10
9.6834274344
 20
8.6256087514
 30
0.0
 11
9.6834274344
 21
8.7506089608
 31
0.0
  0
LINE
  5
19E
330
1F
100
AcDbEntity
  8
0
  6
Continuous
 62
     7
370
    15
100
AcDbLine
 10
4.5213264008
 20
7.0006089636
 30
0.0
 11
9.6605940448
 21
7.0006089636
 31
0.0
  0
LINE
  5
19F
330
1F
100
AcDbEntity
  8
0
  6
Continuous
 62
     7
370
    15
100
AcDbLine
 10
9.6605940448
 20
7.0006089636
 30
0.0
 11
20.7096595784
 21
7.8402571306
 31
0.0
  0
LINE
  5
1A0
330
1F
100
AcDbEntity
  8
0
  6
Continuous
 62
     7
370
    15
100
AcDbLine
 10
1.1384275336
 20
8.0581085873
 30
0.0
 11
1.6384275276
 21
7.8761237562
 31
0.0
  0
LINE
  5
1A1
330
1F
100
AcDbEntity
  8
0
  6
Continuous
 62
     7
370
    15
100
AcDbLine
 10
1.1384275336
 20
9.0006087927
 30
0.0
 11
1.1384275336
 21
8.0581085873
 31
0.0
  0
LINE
  5
1A2
330
1F
100
AcDbEntity
  8
0
  6
Continuous
 62
     7
370
    15
100
AcDbLine
 10
10.433427517
 20
9.0006087927
 30
0.0
 11
9.3834277534
 21
9.0006087927
 31
0.0
  0
LINE
  5
1A3
330
1F
100
AcDbEntity
  8
0
  6
Continuous
 62
     7
370
    15
100
AcDbLine
 10
11.2334280353
 20
8.650608676
 30
0.0
 11
11.2334280353
 21
9.0006087927
 31
0.0
  0
CIRCLE
  5
1A4
330
1F
100
AcDbEntity
  8
0
  6
Continuous
 62
     7
370
    15
100
AcDbCircle
 10
7.0836058043
 20
7.3506088111
 30
0.0
 40
0.0314999999999994
  0
CIRCLE
  5
1A5
330
1F
100
AcDbEntity
  8
0
  6
Continuous
 62
     7
370
    15
100
AcDbCircle
 10
7.0836058043
 20
7.2506088111
 30
0.0
 40
0.0314999999999994
  0
LINE
  5
1A6
330
1F
100
AcDbEntity
  8
0
  6
Continuous
 62
     7
370
    15
100
AcDbLine
 10
10.183427685
 20
8.6256087514
 30
0.0
 11
9.6834274344
 21
8.6256087514
 31
0.0
  0
LINE
  5
1A7
330
1F
100
AcDbEntity
  8
0
  6
Continuous
 62
     7
370
    15
100
AcDbLine
 10
22.0092754985
 20
9.1156087976
 30
0.0
 11
21.7692752843
 21
9.1156087976
 31
0.0
  0
LINE
  5
1A8
330
1F
100
AcDbEntity
  8
0
  6
Continuous
 62
     7
370
    15
100
AcDbLine
 10
22.7621807209
 20
7.9962335687
 30
0.0
 11
24.1384285023
 21
8.1008186005
 31
0.0
  0
LINE
  5
1A9
330
1F
100
AcDbEntity
  8
0
  6
Continuous
 62
     7
370
    15
100
AcDbLine
 10
33.8490060316
 20
4.1269781067
 30
0.0
 11
34.2293540644
 21
3.0819781519
 31
0.0
  0
LINE
  5
1AA
330
1F
100
AcDbEntity
  8
0
  6
Continuous
 62
     7
370
    15
100
AcDbLine
 10
19.1383825833
 20
4.1269781067
 30
0.0
 11
33.8490060316
 21
4.1269781067
 31
0.0
  0
LINE
  5
1AB
330
1F
100
AcDbEntity
  8
0
  6
Continuous
 62
     7
370
    15
100
AcDbLine
 10
19.1383825833
 20
6.8769780184
 30
0.0
 11
19.1383825833
 21
4.1269781067
 31
0.0
  0
LINE
  5
1AC
330
1F
100
AcDbEntity
  8
0
  6
Continuous
 62
     7
370
    15
100
AcDbLine
 10
34.6733382688
 20
6.8769780184
 30
0.0
 11
19.1383825833
 21
6.8769780184
 31
0.0
  0
ARC
  5
1AD
330
1F
100
AcDbEntity
  8
0
  6
Continuous
 62
     7
370
    15
100
AcDbCircle
 10
34.6733375124
 20
6.1269781294
 30
0.0
 40
0.7500000000000009
100
AcDbArc
 50
0.0
 51
90.0
  0
LINE
  5
1AE
330
1F
100
AcDbEntity
  8
0
  6
Continuous
 62
     7
370
    15
100
AcDbLine
 10
19.6383822473
 20
5.1269780213
 30
0.0
 11
19.7013824795
 21
5.1269780213
 31
0.0
  0
LINE
  5
1AF
330
1F
100
AcDbEntity
  8
0
  6
Continuous
 62
     7
370
    15
100
AcDbLine
 10
19.6383822473
 20
4.626978064
 30
0.0
 11
19.6383822473
 21
5.1269780213
 31
0.0
  0
LINE
  5
1B0
330
1F
100
AcDbEntity
  8
0
  6
Continuous
 62
     7
370
    15
100
AcDbLine
 10
19.7013824795
 20
4.626978064
 30
0.0
 11
19.6383822473
 21
4.626978064
 31
0.0
  0
LINE
  5
1B1
330
1F
100
AcDbEntity
  8
0
  6
Continuous
 62
     7
370
    15
100
AcDbLine
 10
19.7013824795
 20
5.1269780213
 30
0.0
 11
19.7013824795
 21
4.626978064
 31
0.0
  0
LINE
  5
1B2
330
1F
100
AcDbEntity
  8
0
  6
Continuous
 62
     7
370
    15
100
AcDbLine
 10
34.2293540644
 20
3.0819781519
 30
0.0
 11
35.4233383514
 21
3.0819781519
 31
0.0
  0
LINE
  5
1B3
330
1F
100
AcDbEntity
  8
0
  6
Continuous
 62
     7
370
    15
100
AcDbLine
 10
35.4233383514
 20
3.0819781519
 30
0.0
 11
35.4233383514
 21
6.1269779358
 31
0.0
  0
LINE
  5
1B4
330
1F
100
AcDbEntity
  8
0
  6
Continuous
 62
     7
370
    15
100
AcDbLine
 10
17.4233821285
 20
6.8369783739
 30
0.0
 11
17.4233821285
 21
4.0869781688
 31
0.0
  0
LINE
  5
1B5
330
1F
100
AcDbEntity
  8
0
  6
Continuous
 62
     7
370
    15
100
AcDbLine
 10
17.4233821285
 20
4.0869781688
 30
0.0
 11
2.7127598535
 21
4.0869781688
 31
0.0
  0
LINE
  5
1B6
330
1F
100
AcDbEntity
  8
0
  6
Continuous
 62
     7
370
    15
100
AcDbLine
 10
2.7127598535
 20
4.0869781688
 30
0.0
 11
2.3324109406
 21
3.041978214
 31
0.0
  0
LINE
  5
1B7
330
1F
100
AcDbEntity
  8
0
  6
Continuous
 62
     7
370
    15
100
AcDbLine
 10
2.3324109406
 20
3.041978214
 30
0.0
 11
1.1384275336
 21
3.041978214
 31
0.0
  0
LINE
  5
1B8
330
1F
100
AcDbEntity
  8
0
  6
Continuous
 62
     7
370
    15
100
AcDbLine
 10
1.1384275336
 20
3.041978214
 30
0.0
 11
1.1384275336
 21
6.0869782913
 31
0.0
  0
LINE
  5
1B9
330
1F
100
AcDbEntity
  8
0
  6
Continuous
 62
     7
370
    15
100
AcDbLine
 10
1.8884275429
 20
6.8369783739
 30
0.0
 11
17.4233821285
 21
6.8369783739
 31
0.0
  0
LINE
  5
1BA
330
1F
100
AcDbEntity
  8
0
  6
Continuous
 62
     7
370
    15
100
AcDbLine
 10
16.9233824645
 20
4.5869781261
 30
0.0
 11
16.9233824645
 21
5.0869780833
 31
0.0
  0
LINE
  5
1BB
330
1F
100
AcDbEntity
  8
0
  6
Continuous
 62
     7
370
    15
100
AcDbLine
 10
16.9233824645
 20
5.0869780833
 30
0.0
 11
16.8603822323
 21
5.0869780833
 31
0.0
  0
LINE
  5
1BC
330
1F
100
AcDbEntity
  8
0
  6
Continuous
 62
     7
370
    15
100
AcDbLine
 10
16.8603822323
 20
5.0869780833
 30
0.0
 11
16.8603822323
 21
4.5869781261
 31
0.0
  0
LINE
  5
1BD
330
1F
100
AcDbEntity
  8
0
  6
Continuous
 62
     7
370
    15
100
AcDbLine
 10
16.8603822323
 20
4.5869781261
 30
0.0
 11
16.9233824645
 21
4.5869781261
 31
0.0
  0
ARC
  5
1BE
330
1F
100
AcDbEntity
  8
0
  6
Continuous
 62
     7
370
    15
100
AcDbCircle
 10
1.8884275336
 20
6.0869781294
 30
0.0
 40
0.7500000000000004
100
AcDbArc
 50
90.0
 51
180.0
  0
SPLINE
  5
1BF
330
1F
100
AcDbEntity
  8
0
  6
Continuous
 62
     7
370
    15
100
AcDbSpline
210
0.0
220
0.0
230
1.0
 70
     8
 71
     3
 72
    11
 73
     7
 74
     0
 42
0.00000001
 43
0.00000001
 40
0.0
 40
0.0
 40
0.0
 40
0.0
 40
0.2804039241925668
 40
0.5583293744556292
 40
0.7787917522778612
 40
1.0
 40
1.0
 40
1.0
 40
1.0
 10
5.565558124385962
 20
1.350766157718
 30
0.0
 10
5.566217799607809
 20
1.340886198187821
 30
0.0
 10
5.567531319220699
 20
1.321213607513435
 30
0.0
 10
5.585833923104113
 20
1.298612393576388
 30
0.0
 10
5.609825066446374
 20
1.289627132643661
 30
0.0
 10
5.625182457286177
 20
1.28893280131305
 30
0.0
 10
5.632874120079169
 20
1.288585049372803
 30
0.0
  0
SPLINE
  5
1C0
330
1F
100
AcDbEntity
  8
0
  6
Continuous
 62
     7
370
    15
100
AcDbSpline
210
0.0
220
0.0
230
1.0
 70
     8
 71
     3
 72
    12
 73
     8
 74
     0
 42
0.00000001
 43
0.00000001
 40
0.0
 40
0.0
 40
0.0
 40
0.0
 40
0.2508467164436911
 40
0.5008614634292288
 40
0.6258347303925471
 40
0.7507754124537666
 40
1.0
 40
1.0
 40
1.0
 40
1.0
 10
5.655726576085647
 20
1.414978649263151
 30
0.0
 10
5.64510489787574
 20
1.414679968507305
 30
0.0
 10
5.623896769789746
 20
1.414083597613586
 30
0.0
 10
5.597396941003884
 20
1.408083458182866
 30
0.0
 10
5.579621051032907
 20
1.395852343618573
 30
0.0
 10
5.567527821227247
 20
1.377706352174574
 30
0.0
 10
5.566345588085007
 20
1.361536558896021
 30
0.0
 10
5.565558124385962
 20
1.350766157718
 30
0.0
  0
LINE
  5
1C1
330
1F
100
AcDbEntity
  8
0
  6
Continuous
 62
     7
370
    15
100
AcDbLine
 10
5.7172305323
 20
1.4149786493
 30
0.0
 11
5.6557265761
 21
1.4149786493
 31
0.0
  0
LINE
  5
1C2
330
1F
100
AcDbEntity
  8
0
  6
Continuous
 62
     7
370
    15
100
AcDbLine
 10
5.7172305323
 20
1.2885850494
 30
0.0
 11
5.7172305323
 21
1.4149786493
 31
0.0
  0
LINE
  5
1C3
330
1F
100
AcDbEntity
  8
0
  6
Continuous
 62
     7
370
    15
100
AcDbLine
 10
5.6328741201
 20
1.2885850494
 30
0.0
 11
5.7172305323
 21
1.2885850494
 31
0.0
  0
LINE
  5
1C4
330
1F
100
AcDbEntity
  8
0
  6
Continuous
 62
     7
370
    15
100
AcDbLine
 10
6.0602992624
 20
1.4149786493
 30
0.0
 11
6.0602992624
 21
1.2885850494
 31
0.0
  0
LINE
  5
1C5
330
1F
100
AcDbEntity
  8
0
  6
Continuous
 62
     7
370
    15
100
AcDbLine
 10
6.2155828552
 20
1.4149786493
 30
0.0
 11
6.0602992624
 21
1.4149786493
 31
0.0
  0
LINE
  5
1C6
330
1F
100
AcDbEntity
  8
0
  6
Continuous
 62
     7
370
    15
100
AcDbLine
 10
6.2155828552
 20
1.2885850494
 30
0.0
 11
6.2155828552
 21
1.4149786493
 31
0.0
  0
LINE
  5
1C7
330
1F
100
AcDbEntity
  8
0
  6
Continuous
 62
     7
370
    15
100
AcDbLine
 10
6.0602992624
 20
1.2885850494
 30
0.0
 11
6.2155828552
 21
1.2885850494
 31
0.0
  0
SPLINE
  5
1C8
330
1F
100
AcDbEntity
  8
0
  6
Continuous
 62
     7
370
    15
100
AcDbSpline
210
0.0
220
0.0
230
1.0
 70
     8
 71
     3
 72
    11
 73
     7
 74
     0
 42
0.00000001
 43
0.00000001
 40
0.0
 40
0.0
 40
0.0
 40
0.0
 40
0.4989291277850266
 40
0.624047784671603
 40
0.7495053329204389
 40
1.0
 40
1.0
 40
1.0
 40
1.0
 10
6.423906368673799
 20
1.342753703611887
 30
0.0
 10
6.418718605289262
 20
1.34274697138445
 30
0.0
 10
6.41222988361071
 20
1.342738550886661
 30
0.0
 10
6.406052262403309
 20
1.338162339239658
 30
0.0
 10
6.403704298255585
 20
1.333596729153045
 30
0.0
 10
6.403502117647286
 20
1.329813698873065
 30
0.0
 10
6.403367405941649
 20
1.327293088880894
 30
0.0
  0
LINE
  5
1C9
330
1F
100
AcDbEntity
  8
0
  6
Continuous
 62
     7
370
    15
100
AcDbLine
 10
6.5261500409
 20
1.3427537036
 30
0.0
 11
6.4239063687
 21
1.3427537036
 31
0.0
  0
LINE
  5
1CA
330
1F
100
AcDbEntity
  8
0
  6
Continuous
 62
     7
370
    15
100
AcDbLine
 10
6.4239063687
 20
1.2885850494
 30
0.0
 11
6.5261500409
 21
1.2885850494
 31
0.0
  0
SPLINE
  5
1CB
330
1F
100
AcDbEntity
  8
0
  6
Continuous
 62
     7
370
    15
100
AcDbSpline
210
0.0
220
0.0
230
1.0
 70
     8
 71
     3
 72
    11
 73
     7
 74
     0
 42
0.00000001
 43
0.00000001
 40
0.0
 40
0.0
 40
0.0
 40
0.0
 40
0.2504612589583237
 40
0.3759189643662508
 40
0.501157430103503
 40
1.0
 40
1.0
 40
1.0
 40
1.0
 10
6.403367405941649
 20
1.303876412725668
 30
0.0
 10
6.403490930505011
 20
1.301360229106424
 30
0.0
 10
6.403676329341246
 20
1.297583672427615
 30
0.0
 10
6.406175749991152
 20
1.293139165599592
 30
0.0
 10
6.412282121237362
 20
1.288586213232574
 30
0.0
 10
6.418742464882173
 20
1.288585566400672
 30
0.0
 10
6.4239063686738
 20
1.288585049372803
 30
0.0
  0
LINE
  5
1CC
330
1F
100
AcDbEntity
  8
0
  6
Continuous
 62
     7
370
    15
100
AcDbLine
 10
6.4033674059
 20
1.3272930889
 30
0.0
 11
6.4033674059
 21
1.3038764127
 31
0.0
  0
LINE
  5
1CD
330
1F
100
AcDbEntity
  8
0
  6
Continuous
 62
     7
370
    15
100
AcDbLine
 10
6.5261500409
 20
1.2885850494
 30
0.0
 11
6.5261500409
 21
1.3427537036
 31
0.0
  0
LINE
  5
1CE
330
1F
100
AcDbEntity
  8
0
  6
Continuous
 62
     7
370
    15
100
AcDbLine
 10
7.1149524123
 20
1.3752549548
 30
0.0
 11
7.0268155638
 21
1.3752549548
 31
0.0
  0
LINE
  5
1CF
330
1F
100
AcDbEntity
  8
0
  6
Continuous
 62
     7
370
    15
100
AcDbLine
 10
7.0268155638
 20
1.3752549548
 30
0.0
 11
7.0702066892
 21
1.292083449
 31
0.0
  0
LINE
  5
1D0
330
1F
100
AcDbEntity
  8
0
  6
Continuous
 62
     7
370
    15
100
AcDbLine
 10
7.0702066892
 20
1.292083449
 30
0.0
 11
7.1149524123
 21
1.3752549548
 31
0.0
  0
SPLINE
  5
1D1
330
1F
100
AcDbEntity
  8
0
  6
Continuous
 62
     7
370
    15
100
AcDbSpline
210
0.0
220
0.0
230
1.0
 70
     8
 71
     3
 72
    11
 73
     7
 74
     0
 42
0.00000001
 43
0.00000001
 40
0.0
 40
0.0
 40
0.0
 40
0.0
 40
0.2804029031446585
 40
0.5583255693115138
 40
0.778789753411744
 40
1.0
 40
1.0
 40
1.0
 40
1.0
 10
7.45424011950372
 20
1.350766157718
 30
0.0
 10
7.454899813473972
 20
1.340886216647177
 30
0.0
 10
7.456213366248858
 20
1.321213725166994
 30
0.0
 10
7.474515678550159
 20
1.29861221659615
 30
0.0
 10
7.498507093420961
 20
1.289627156111144
 30
0.0
 10
7.513864656321624
 20
1.288932809241845
 30
0.0
 10
7.521556408526872
 20
1.288585049372803
 30
0.0
  0
SPLINE
  5
1D2
330
1F
100
AcDbEntity
  8
0
  6
Continuous
 62
     7
370
    15
100
AcDbSpline
210
0.0
220
0.0
230
1.0
 70
     8
 71
     3
 72
    12
 73
     8
 74
     0
 42
0.00000001
 43
0.00000001
 40
0.0
 40
0.0
 40
0.0
 40
0.0
 40
0.2508464118901616
 40
0.5008630739029514
 40
0.625834318970181
 40
0.7507761408369623
 40
1.0
 40
1.0
 40
1.0
 40
1.0
 10
7.544408571203405
 20
1.414978649263151
 30
0.0
 10
7.533786909469468
 20
1.414679941432656
 30
0.0
 10
7.512578720339197
 20
1.414083513837568
 30
0.0
 10
7.486078671680287
 20
1.408083684860675
 30
0.0
 10
7.468303057993882
 20
1.395852155640028
 30
0.0
 10
7.456209350084906
 20
1.377706546660568
 30
0.0
 10
7.455027394896365
 20
1.36153661064787
 30
0.0
 10
7.45424011950372
 20
1.350766157718
 30
0.0
  0
LINE
  5
1D3
330
1F
100
AcDbEntity
  8
0
  6
Continuous
 62
     7
370
    15
100
AcDbLine
 10
7.6059128207
 20
1.4149786493
 30
0.0
 11
7.5444085712
 21
1.4149786493
 31
0.0
  0
LINE
  5
1D4
330
1F
100
AcDbEntity
  8
0
  6
Continuous
 62
     7
370
    15
100
AcDbLine
 10
7.6059128207
 20
1.2885850494
 30
0.0
 11
7.6059128207
 21
1.4149786493
 31
0.0
  0
LINE
  5
1D5
330
1F
100
AcDbEntity
  8
0
  6
Continuous
 62
     7
370
    15
100
AcDbLine
 10
7.5215564085
 20
1.2885850494
 30
0.0
 11
7.6059128207
 21
1.2885850494
 31
0.0
  0
LINE
  5
1D6
330
1F
100
AcDbEntity
  8
0
  6
Continuous
 62
     7
370
    15
100
AcDbLine
 10
7.9453700726
 20
1.2524725399
 30
0.0
 11
7.7106386509
 21
1.2524725399
 31
0.0
  0
LINE
  5
1D7
330
1F
100
AcDbEntity
  8
0
  6
Continuous
 62
     7
370
    15
100
AcDbLine
 10
7.9453700726
 20
1.2885850494
 30
0.0
 11
7.9453700726
 21
1.2524725399
 31
0.0
  0
LINE
  5
1D8
330
1F
100
AcDbEntity
  8
0
  6
Continuous
 62
     7
370
    15
100
AcDbLine
 10
7.8514775039
 20
1.2885850494
 30
0.0
 11
7.9453700726
 21
1.2885850494
 31
0.0
  0
LINE
  5
1D9
330
1F
100
AcDbEntity
  8
0
  6
Continuous
 62
     7
370
    15
100
AcDbLine
 10
7.8514775039
 20
1.4547023437
 30
0.0
 11
7.8514775039
 21
1.2885850494
 31
0.0
  0
LINE
  5
1DA
330
1F
100
AcDbEntity
  8
0
  6
Continuous
 62
     7
370
    15
100
AcDbLine
 10
7.8045312196
 20
1.4547023437
 30
0.0
 11
7.8514775039
 21
1.4547023437
 31
0.0
  0
LINE
  5
1DB
330
1F
100
AcDbEntity
  8
0
  6
Continuous
 62
     7
370
    15
100
AcDbLine
 10
7.8045312196
 20
1.2885850494
 30
0.0
 11
7.8045312196
 21
1.4547023437
 31
0.0
  0
LINE
  5
1DC
330
1F
100
AcDbEntity
  8
0
  6
Continuous
 62
     7
370
    15
100
AcDbLine
 10
7.7106386509
 20
1.2885850494
 30
0.0
 11
7.8045312196
 21
1.2885850494
 31
0.0
  0
LINE
  5
1DD
330
1F
100
AcDbEntity
  8
0
  6
Continuous
 62
     7
370
    15
100
AcDbLine
 10
7.7106386509
 20
1.2524725399
 30
0.0
 11
7.7106386509
 21
1.2885850494
 31
0.0
  0
LINE
  5
1DE
330
1F
100
AcDbEntity
  8
0
  6
Continuous
 62
     7
370
    15
100
AcDbLine
 10
7.0073484287
 20
1.411367391
 30
0.0
 11
7.1349833276
 21
1.411367391
 31
0.0
  0
LINE
  5
1DF
330
1F
100
AcDbEntity
  8
0
  6
Continuous
 62
     7
370
    15
100
AcDbLine
 10
6.9831979877
 20
1.4547023437
 30
0.0
 11
7.0073484287
 21
1.411367391
 31
0.0
  0
LINE
  5
1E0
330
1F
100
AcDbEntity
  8
0
  6
Continuous
 62
     7
370
    15
100
AcDbLine
 10
6.9306092085
 20
1.4547023437
 30
0.0
 11
6.9831979877
 21
1.4547023437
 31
0.0
  0
LINE
  5
1E1
330
1F
100
AcDbEntity
  8
0
  6
Continuous
 62
     7
370
    15
100
AcDbLine
 10
7.0460562482
 20
1.2524725399
 30
0.0
 11
6.9306092085
 21
1.4547023437
 31
0.0
  0
LINE
  5
1E2
330
1F
100
AcDbEntity
  8
0
  6
Continuous
 62
     7
370
    15
100
AcDbLine
 10
7.0911404741
 20
1.2524725399
 30
0.0
 11
7.0460562482
 21
1.2524725399
 31
0.0
  0
LINE
  5
1E3
330
1F
100
AcDbEntity
  8
0
  6
Continuous
 62
     7
370
    15
100
AcDbLine
 10
7.205063958
 20
1.4547023437
 30
0.0
 11
7.0911404741
 21
1.2524725399
 31
0.0
  0
LINE
  5
1E4
330
1F
100
AcDbEntity
  8
0
  6
Continuous
 62
     7
370
    15
100
AcDbLine
 10
7.1584004437
 20
1.4547023437
 30
0.0
 11
7.205063958
 21
1.4547023437
 31
0.0
  0
LINE
  5
1E5
330
1F
100
AcDbEntity
  8
0
  6
Continuous
 62
     7
370
    15
100
AcDbLine
 10
7.1349833276
 20
1.411367391
 30
0.0
 11
7.1584004437
 21
1.4547023437
 31
0.0
  0
LINE
  5
1E6
330
1F
100
AcDbEntity
  8
0
  6
Continuous
 62
     7
370
    15
100
AcDbLine
 10
6.482193962
 20
1.3788662131
 30
0.0
 11
6.5261500409
 21
1.3788662131
 31
0.0
  0
LINE
  5
1E7
330
1F
100
AcDbEntity
  8
0
  6
Continuous
 62
     7
370
    15
100
AcDbLine
 10
6.4018438502
 20
1.4547023437
 30
0.0
 11
6.482193962
 21
1.3788662131
 31
0.0
  0
LINE
  5
1E8
330
1F
100
AcDbEntity
  8
0
  6
Continuous
 62
     7
370
    15
100
AcDbLine
 10
6.3352614727
 20
1.4547023437
 30
0.0
 11
6.4018438502
 21
1.4547023437
 31
0.0
  0
LINE
  5
1E9
330
1F
100
AcDbEntity
  8
0
  6
Continuous
 62
     7
370
    15
100
AcDbLine
 10
6.4292666801
 20
1.3788662131
 30
0.0
 11
6.3352614727
 21
1.4547023437
 31
0.0
  0
LINE
  5
1EA
330
1F
100
AcDbEntity
  8
0
  6
Continuous
 62
     7
370
    15
100
AcDbLine
 10
6.403762228
 20
1.3788662131
 30
0.0
 11
6.4292666801
 21
1.3788662131
 31
0.0
  0
SPLINE
  5
1EB
330
1F
100
AcDbEntity
  8
0
  6
Continuous
 62
     7
370
    15
100
AcDbSpline
210
0.0
220
0.0
230
1.0
 70
     8
 71
     3
 72
    11
 73
     7
 74
     0
 42
0.00000001
 43
0.00000001
 40
0.0
 40
0.0
 40
0.0
 40
0.0
 40
0.1876457699425925
 40
0.3746578681604894
 40
0.5610140096996111
 40
1.0
 40
1.0
 40
1.0
 40
1.0
 10
6.356421121602464
 20
1.33835250778821
 30
0.0
 10
6.356629680379627
 20
1.342831644103294
 30
0.0
 10
6.357046093639895
 20
1.351774790882052
 30
0.0
 10
6.362003348660021
 20
1.364654335189333
 30
0.0
 10
6.377422976782475
 20
1.377776935091019
 30
0.0
 10
6.392898508429506
 20
1.378416936440682
 30
0.0
 10
6.403762228047296
 20
1.378866213103762
 30
0.0
  0
LINE
  5
1EC
330
1F
100
AcDbEntity
  8
0
  6
Continuous
 62
     7
370
    15
100
AcDbLine
 10
6.3564211216
 20
1.2926476691
 30
0.0
 11
6.3564211216
 21
1.3383525078
 31
0.0
  0
SPLINE
  5
1ED
330
1F
100
AcDbEntity
  8
0
  6
Continuous
 62
     7
370
    15
100
AcDbSpline
210
0.0
220
0.0
230
1.0
 70
     8
 71
     3
 72
    11
 73
     7
 74
     0
 42
0.00000001
 43
0.00000001
 40
0.0
 40
0.0
 40
0.0
 40
0.0
 40
0.281484684051263
 40
0.5599931601973334
 40
0.7791609995639297
 40
1.0
 40
1.0
 40
1.0
 40
1.0
 10
6.403762228047296
 20
1.252472539880927
 30
0.0
 10
6.397087013691404
 20
1.252710698812697
 30
0.0
 10
6.383807163689087
 20
1.253184498562338
 30
0.0
 10
6.36564654418748
 20
1.260909525586334
 30
0.0
 10
6.357224714451909
 20
1.276888945036522
 30
0.0
 10
6.35668966326653
 20
1.287381477418043
 30
0.0
 10
6.356421121602464
 20
1.29264766910774
 30
0.0
  0
LINE
  5
1EE
330
1F
100
AcDbEntity
  8
0
  6
Continuous
 62
     7
370
    15
100
AcDbLine
 10
6.5730963252
 20
1.2524725399
 30
0.0
 11
6.403762228
 21
1.2524725399
 31
0.0
  0
LINE
  5
1EF
330
1F
100
AcDbEntity
  8
0
  6
Continuous
 62
     7
370
    15
100
AcDbLine
 10
6.5730963252
 20
1.4547023437
 30
0.0
 11
6.5730963252
 21
1.2524725399
 31
0.0
  0
LINE
  5
1F0
330
1F
100
AcDbEntity
  8
0
  6
Continuous
 62
     7
370
    15
100
AcDbLine
 10
6.5261500409
 20
1.4547023437
 30
0.0
 11
6.5730963252
 21
1.4547023437
 31
0.0
  0
LINE
  5
1F1
330
1F
100
AcDbEntity
  8
0
  6
Continuous
 62
     7
370
    15
100
AcDbLine
 10
6.5261500409
 20
1.3788662131
 30
0.0
 11
6.5261500409
 21
1.4547023437
 31
0.0
  0
SPLINE
  5
1F2
330
1F
100
AcDbEntity
  8
0
  6
Continuous
 62
     7
370
    15
100
AcDbSpline
210
0.0
220
0.0
230
1.0
 70
     8
 71
     3
 72
     9
 73
     5
 74
     0
 42
0.00000001
 43
0.00000001
 40
0.0
 40
0.0
 40
0.0
 40
0.0
 40
0.5597646490785985
 40
1.0
 40
1.0
 40
1.0
 40
1.0
 10
5.518612133376723
 20
1.352346106132967
 30
0.0
 10
5.52075846174439
 20
1.371895259599826
 30
0.0
 10
5.524592802428818
 20
1.406819139660915
 30
0.0
 10
5.551194930964305
 20
1.429174424788431
 30
0.0
 10
5.56290612835538
 20
1.439016011581491
 30
0.0
  0
SPLINE
  5
1F3
330
1F
100
AcDbEntity
  8
0
  6
Continuous
 62
     7
370
    15
100
AcDbSpline
210
0.0
220
0.0
230
1.0
 70
     8
 71
     3
 72
    11
 73
     7
 74
     0
 42
0.00000001
 43
0.00000001
 40
0.0
 40
0.0
 40
0.0
 40
0.0
 40
0.2809233702290406
 40
0.5598905691313267
 40
0.7794963937585552
 40
0.9999999999999999
 40
0.9999999999999999
 40
0.9999999999999999
 40
0.9999999999999999
 10
5.633268942184817
 20
1.252472539880927
 30
0.0
 10
5.61708747931896
 20
1.25332929185905
 30
0.0
 10
5.58483723098271
 20
1.255036829940502
 30
0.0
 10
5.543613557462316
 20
1.277443384173682
 30
0.0
 10
5.521237728031504
 20
1.314186991913372
 30
0.0
 10
5.519488521000619
 20
1.33960911515076
 30
0.0
 10
5.518612133376723
 20
1.352346106132967
 30
0.0
  0
LINE
  5
1F4
330
1F
100
AcDbEntity
  8
0
  6
Continuous
 62
     7
370
    15
100
AcDbLine
 10
5.7641768166
 20
1.2524725399
 30
0.0
 11
5.6332689422
 21
1.2524725399
 31
0.0
  0
LINE
  5
1F5
330
1F
100
AcDbEntity
  8
0
  6
Continuous
 62
     7
370
    15
100
AcDbLine
 10
5.7641768166
 20
1.4547023437
 30
0.0
 11
5.7641768166
 21
1.2524725399
 31
0.0
  0
LINE
  5
1F6
330
1F
100
AcDbEntity
  8
0
  6
Continuous
 62
     7
370
    15
100
AcDbLine
 10
5.6454570947
 20
1.4547023437
 30
0.0
 11
5.7641768166
 21
1.4547023437
 31
0.0
  0
SPLINE
  5
1F7
330
1F
100
AcDbEntity
  8
0
  6
Continuous
 62
     7
370
    15
100
AcDbSpline
210
0.0
220
0.0
230
1.0
 70
     8
 71
     3
 72
     9
 73
     5
 74
     0
 42
0.00000001
 43
0.00000001
 40
0.0
 40
0.0
 40
0.0
 40
0.0
 40
0.5581563359273427
 40
1.0
 40
1.0
 40
1.0
 40
1.0
 10
5.56290612835538
 20
1.439016011581491
 30
0.0
 10
5.577780042580871
 20
1.444704782050339
 30
0.0
 10
5.604428336738059
 20
1.45489685567322
 30
0.0
 10
5.632884097236823
 20
1.454761950639415
 30
0.0
 10
5.645457094719572
 20
1.454702343704977
 30
0.0
  0
LINE
  5
1F8
330
1F
100
AcDbEntity
  8
0
  6
Continuous
 62
     7
370
    15
100
AcDbLine
 10
4.9119225019
 20
1.2970488649
 30
0.0
 11
4.9119225019
 21
1.301055092
 31
0.0
  0
SPLINE
  5
1F9
330
1F
100
AcDbEntity
  8
0
  6
Continuous
 62
     7
370
    15
100
AcDbSpline
210
0.0
220
0.0
230
1.0
 70
     8
 71
     3
 72
    11
 73
     7
 74
     0
 42
0.00000001
 43
0.00000001
 40
0.0
 40
0.0
 40
0.0
 40
0.0
 40
0.2816833016077668
 40
0.5596713147595873
 40
0.7788717035177106
 40
1.0
 40
1.0
 40
1.0
 40
1.0
 10
4.963947207579944
 20
1.252472539880927
 30
0.0
 10
4.956515659663961
 20
1.252651733454377
 30
0.0
 10
4.941750055280962
 20
1.253007769833802
 30
0.0
 10
4.920625002614075
 20
1.26072977600919
 30
0.0
 10
4.912591762701958
 20
1.279505127187447
 30
0.0
 10
4.912146239056403
 20
1.291183907801245
 30
0.0
 10
4.911922501907116
 20
1.297048864931416
 30
0.0
  0
LINE
  5
1FA
330
1F
100
AcDbEntity
  8
0
  6
Continuous
 62
     7
370
    15
100
AcDbLine
 10
5.0797890694
 20
1.2524725399
 30
0.0
 11
4.9639472076
 21
1.2524725399
 31
0.0
  0
SPLINE
  5
1FB
330
1F
100
AcDbEntity
  8
0
  6
Continuous
 62
     7
370
    15
100
AcDbSpline
210
0.0
220
0.0
230
1.0
 70
     8
 71
     3
 72
    11
 73
     7
 74
     0
 42
0.00000001
 43
0.00000001
 40
0.0
 40
0.0
 40
0.0
 40
0.0
 40
0.1879539960104525
 40
0.3753436065842117
 40
0.5604978334996435
 40
1.0
 40
1.0
 40
1.0
 40
1.0
 10
5.132208597143347
 20
1.300321547125112
 30
0.0
 10
5.132023318089946
 20
1.295119640409078
 30
0.0
 10
5.1316533163363
 20
1.284731447184378
 30
0.0
 10
5.128031438141712
 20
1.269154521630801
 30
0.0
 10
5.110954001818401
 20
1.252335901851768
 30
0.0
 10
5.092660323563347
 20
1.252416107773811
 30
0.0
 10
5.079789069364871
 20
1.252472539880927
 30
0.0
  0
LINE
  5
1FC
330
1F
100
AcDbEntity
  8
0
  6
Continuous
 62
     7
370
    15
100
AcDbLine
 10
5.1322085971
 20
1.3227790344
 30
0.0
 11
5.1322085971
 21
1.3003215471
 31
0.0
  0
SPLINE
  5
1FD
330
1F
100
AcDbEntity
  8
0
  6
Continuous
 62
     7
370
    15
100
AcDbSpline
210
0.0
220
0.0
230
1.0
 70
     8
 71
     3
 72
    11
 73
     7
 74
     0
 42
0.00000001
 43
0.00000001
 40
0.0
 40
0.0
 40
0.0
 40
0.0
 40
0.2819328070275707
 40
0.5582666271332274
 40
0.7783636718296204
 40
1.0
 40
1.0
 40
1.0
 40
1.0
 10
5.079789069364871
 20
1.37164369653889
 30
0.0
 10
5.087627857179601
 20
1.371494092828361
 30
0.0
 10
5.103149760005598
 20
1.371197856431599
 30
0.0
 10
5.125270097575611
 20
1.361743959505527
 30
0.0
 10
5.131562772648521
 20
1.341215365989798
 30
0.0
 10
5.131992822787883
 20
1.328938738129104
 30
0.0
 10
5.132208597143347
 20
1.32277903436097
 30
0.0
  0
LINE
  5
1FE
330
1F
100
AcDbEntity
  8
0
  6
Continuous
 62
     7
370
    15
100
AcDbLine
 10
4.9552576013
 20
1.3716436965
 30
0.0
 11
5.0797890694
 21
1.3716436965
 31
0.0
  0
LINE
  5
1FF
330
1F
100
AcDbEntity
  8
0
  6
Continuous
 62
     7
370
    15
100
AcDbLine
 10
4.9552576013
 20
1.4149786493
 30
0.0
 11
4.9552576013
 21
1.3716436965
 31
0.0
  0
LINE
  5
200
330
1F
100
AcDbEntity
  8
0
  6
Continuous
 62
     7
370
    15
100
AcDbLine
 10
5.096096161
 20
1.4149786493
 30
0.0
 11
4.9552576013
 21
1.4149786493
 31
0.0
  0
LINE
  5
201
330
1F
100
AcDbEntity
  8
0
  6
Continuous
 62
     7
370
    15
100
AcDbLine
 10
5.096096161
 20
1.3933111729
 30
0.0
 11
5.096096161
 21
1.4149786493
 31
0.0
  0
LINE
  5
202
330
1F
100
AcDbEntity
  8
0
  6
Continuous
 62
     7
370
    15
100
AcDbLine
 10
5.139430967
 20
1.4010979096
 30
0.0
 11
5.096096161
 21
1.3933111729
 31
0.0
  0
LINE
  5
203
330
1F
100
AcDbEntity
  8
0
  6
Continuous
 62
     7
370
    15
100
AcDbLine
 10
5.139430967
 20
1.4061197916
 30
0.0
 11
5.139430967
 21
1.4010979096
 31
0.0
  0
SPLINE
  5
204
330
1F
100
AcDbEntity
  8
0
  6
Continuous
 62
     7
370
    15
100
AcDbSpline
210
0.0
220
0.0
230
1.0
 70
     8
 71
     3
 72
    11
 73
     7
 74
     0
 42
0.00000001
 43
0.00000001
 40
0.0
 40
0.0
 40
0.0
 40
0.0
 40
0.2819620180692367
 40
0.5582439003713824
 40
0.7783413827671508
 40
1.0
 40
1.0
 40
1.0
 40
1.0
 10
5.087688738107224
 20
1.454702343704977
 30
0.0
 10
5.095453946922181
 20
1.454551515664007
 30
0.0
 10
5.11082793411997
 20
1.45425289801879
 30
0.0
 10
5.132682083118448
 20
1.444728474521072
 30
0.0
 10
5.138759920321557
 20
1.424371167773067
 30
0.0
 10
5.13920675843791
 20
1.41221789992188
 30
0.0
 10
5.139430967043246
 20
1.406119791601431
 30
0.0
  0
LINE
  5
205
330
1F
100
AcDbEntity
  8
0
  6
Continuous
 62
     7
370
    15
100
AcDbLine
 10
4.9616337143
 20
1.4547023437
 30
0.0
 11
5.0876887381
 21
1.4547023437
 31
0.0
  0
SPLINE
  5
206
330
1F
100
AcDbEntity
  8
0
  6
Continuous
 62
     7
370
    15
100
AcDbSpline
210
0.0
220
0.0
230
1.0
 70
     8
 71
     3
 72
    11
 73
     7
 74
     0
 42
0.00000001
 43
0.00000001
 40
0.0
 40
0.0
 40
0.0
 40
0.0
 40
0.2819856642475458
 40
0.5572794963979022
 40
0.7781181645289478
 40
1.0
 40
1.0
 40
1.0
 40
1.0
 10
4.911922501907116
 20
1.406119791601431
 30
0.0
 10
4.912052582150111
 20
1.413773939869545
 30
0.0
 10
4.912309655687874
 20
1.428900594990795
 30
0.0
 10
4.923670283132587
 20
1.449420230942544
 30
0.0
 10
4.943738435803211
 20
1.454057024361341
 30
0.0
 10
4.955659258594376
 20
1.454486899623587
 30
0.0
 10
4.961633714305616
 20
1.454702343704977
 30
0.0
  0
LINE
  5
207
330
1F
100
AcDbEntity
  8
0
  6
Continuous
 62
     7
370
    15
100
AcDbLine
 10
4.9119225019
 20
1.3800511194
 30
0.0
 11
4.9119225019
 21
1.4061197916
 31
0.0
  0
SPLINE
  5
208
330
1F
100
AcDbEntity
  8
0
  6
Continuous
 62
     7
370
    15
100
AcDbSpline
210
0.0
220
0.0
230
1.0
 70
     8
 71
     3
 72
    11
 73
     7
 74
     0
 42
0.00000001
 43
0.00000001
 40
0.0
 40
0.0
 40
0.0
 40
0.0
 40
0.2819058640103798
 40
0.5580315479966986
 40
0.7783566965467382
 40
1.0
 40
1.0
 40
1.0
 40
1.0
 10
4.961633714305616
 20
1.331920002097064
 30
0.0
 10
4.954042387309095
 20
1.332032297809347
 30
0.0
 10
4.939015385405152
 20
1.332254586729721
 30
0.0
 10
4.918019215830873
 20
1.342347332588992
 30
0.0
 10
4.912581840042009
 20
1.362251140861021
 30
0.0
 10
4.91214271784077
 20
1.374106007660445
 30
0.0
 10
4.911922501907116
 20
1.380051119415623
 30
0.0
  0
LINE
  5
209
330
1F
100
AcDbEntity
  8
0
  6
Continuous
 62
     7
370
    15
100
AcDbLine
 10
5.0888734978
 20
1.3319200021
 30
0.0
 11
4.9616337143
 21
1.3319200021
 31
0.0
  0
LINE
  5
20A
330
1F
100
AcDbEntity
  8
0
  6
Continuous
 62
     7
370
    15
100
AcDbLine
 10
5.0888734978
 20
1.2885850494
 30
0.0
 11
5.0888734978
 21
1.3319200021
 31
0.0
  0
LINE
  5
20B
330
1F
100
AcDbEntity
  8
0
  6
Continuous
 62
     7
370
    15
100
AcDbLine
 10
4.9552576013
 20
1.2885850494
 30
0.0
 11
5.0888734978
 21
1.2885850494
 31
0.0
  0
LINE
  5
20C
330
1F
100
AcDbEntity
  8
0
  6
Continuous
 62
     7
370
    15
100
AcDbLine
 10
4.9552576013
 20
1.3102525257
 30
0.0
 11
4.9552576013
 21
1.2885850494
 31
0.0
  0
LINE
  5
20D
330
1F
100
AcDbEntity
  8
0
  6
Continuous
 62
     7
370
    15
100
AcDbLine
 10
4.9119225019
 20
1.301055092
 30
0.0
 11
4.9552576013
 21
1.3102525257
 31
0.0
  0
LINE
  5
20E
330
1F
100
AcDbEntity
  8
0
  6
Continuous
 62
     7
370
    15
100
AcDbLine
 10
4.4388493536
 20
1.2995316096
 30
0.0
 11
4.4388493536
 21
1.3046663503
 31
0.0
  0
SPLINE
  5
20F
330
1F
100
AcDbEntity
  8
0
  6
Continuous
 62
     7
370
    15
100
AcDbSpline
210
0.0
220
0.0
230
1.0
 70
     8
 71
     3
 72
    11
 73
     7
 74
     0
 42
0.00000001
 43
0.00000001
 40
0.0
 40
0.0
 40
0.0
 40
0.0
 40
0.2817960838446759
 40
0.558758795471719
 40
0.7785445196452322
 40
1.0
 40
1.0
 40
1.0
 40
1.0
 10
4.490140147706198
 20
1.252472539880927
 30
0.0
 10
4.482543920844634
 20
1.252617998727038
 30
0.0
 10
4.467481757760646
 20
1.252906421506145
 30
0.0
 10
4.446182532657327
 20
1.262022760164524
 30
0.0
 10
4.439490377146856
 20
1.281663634708563
 30
0.0
 10
4.439063566468333
 20
1.293560611012064
 30
0.0
 10
4.438849353555161
 20
1.299531609583872
 30
0.0
  0
LINE
  5
210
330
1F
100
AcDbEntity
  8
0
  6
Continuous
 62
     7
370
    15
100
AcDbLine
 10
4.6272548837
 20
1.2524725399
 30
0.0
 11
4.4901401477
 21
1.2524725399
 31
0.0
  0
SPLINE
  5
211
330
1F
100
AcDbEntity
  8
0
  6
Continuous
 62
     7
370
    15
100
AcDbSpline
210
0.0
220
0.0
230
1.0
 70
     8
 71
     3
 72
    11
 73
     7
 74
     0
 42
0.00000001
 43
0.00000001
 40
0.0
 40
0.0
 40
0.0
 40
0.0
 40
0.2820132346746595
 40
0.5574355325248673
 40
0.7780850334513632
 40
1.0
 40
1.0
 40
1.0
 40
1.0
 10
4.677191373541142
 20
1.301675778147587
 30
0.0
 10
4.677065555011101
 20
1.293958619314526
 30
0.0
 10
4.676816858458344
 20
1.278704659518457
 30
0.0
 10
4.66549543615389
 20
1.25797446557493
 30
0.0
 10
4.645301426550866
 20
1.253111380939234
 30
0.0
 10
4.633281854239574
 20
1.252685892446598
 30
0.0
 10
4.627254883745066
 20
1.252472539880927
 30
0.0
  0
LINE
  5
212
330
1F
100
AcDbEntity
  8
0
  6
Continuous
 62
     7
370
    15
100
AcDbLine
 10
4.6771913735
 20
1.406345509
 30
0.0
 11
4.6771913735
 21
1.3016757781
 31
0.0
  0
SPLINE
  5
213
330
1F
100
AcDbEntity
  8
0
  6
Continuous
 62
     7
370
    15
100
AcDbSpline
210
0.0
220
0.0
230
1.0
 70
     8
 71
     3
 72
    11
 73
     7
 74
     0
 42
0.00000001
 43
0.00000001
 40
0.0
 40
0.0
 40
0.0
 40
0.0
 40
0.2819947635772675
 40
0.5579128098220633
 40
0.7782860252556394
 40
1.0
 40
1.0
 40
1.0
 40
1.0
 10
4.627254883745066
 20
1.454702343704977
 30
0.0
 10
4.634885778338277
 20
1.454590150799567
 30
0.0
 10
4.649983129047724
 20
1.454368182638506
 30
0.0
 10
4.671118922528581
 20
1.44426768057566
 30
0.0
 10
4.676545263030928
 20
1.424240154744625
 30
0.0
 10
4.676975568361949
 20
1.412322438902588
 30
0.0
 10
4.677191373541142
 20
1.406345508993924
 30
0.0
  0
LINE
  5
214
330
1F
100
AcDbEntity
  8
0
  6
Continuous
 62
     7
370
    15
100
AcDbLine
 10
4.4901401477
 20
1.4547023437
 30
0.0
 11
4.6272548837
 21
1.4547023437
 31
0.0
  0
SPLINE
  5
215
330
1F
100
AcDbEntity
  8
0
  6
Continuous
 62
     7
370
    15
100
AcDbSpline
210
0.0
220
0.0
230
1.0
 70
     8
 71
     3
 72
    10
 73
     6
 74
     0
 42
0.00000001
 43
0.00000001
 40
0.0
 40
0.0
 40
0.0
 40
0.0
 40
0.2829209891433199
 40
0.5585448047768603
 40
1.0
 40
1.0
 40
1.0
 40
1.0
 10
4.438849353555161
 20
1.406345508993924
 30
0.0
 10
4.438904598187836
 20
1.414173388511412
 30
0.0
 10
4.439013662568904
 20
1.429627248792871
 30
0.0
 10
4.455763759512057
 20
1.455140444726021
 30
0.0
 10
4.477041151507664
 20
1.454869280486608
 30
0.0
 10
4.490140147706198
 20
1.454702343704977
 30
0.0
  0
LINE
  5
216
330
1F
100
AcDbEntity
  8
0
  6
Continuous
 62
     7
370
    15
100
AcDbLine
 10
4.4388493536
 20
1.3391424453
 30
0.0
 11
4.4388493536
 21
1.406345509
 31
0.0
  0
LINE
  5
217
330
1F
100
AcDbEntity
  8
0
  6
Continuous
 62
     7
370
    15
100
AcDbLine
 10
4.5616316952
 20
1.3391424453
 30
0.0
 11
4.4388493536
 21
1.3391424453
 31
0.0
  0
LINE
  5
218
330
1F
100
AcDbEntity
  8
0
  6
Continuous
 62
     7
370
    15
100
AcDbLine
 10
4.5616316952
 20
1.3752549548
 30
0.0
 11
4.5616316952
 21
1.3391424453
 31
0.0
  0
LINE
  5
219
330
1F
100
AcDbEntity
  8
0
  6
Continuous
 62
     7
370
    15
100
AcDbLine
 10
4.4857953446
 20
1.3752549548
 30
0.0
 11
4.5616316952
 21
1.3752549548
 31
0.0
  0
LINE
  5
21A
330
1F
100
AcDbEntity
  8
0
  6
Continuous
 62
     7
370
    15
100
AcDbLine
 10
4.4857953446
 20
1.4149786493
 30
0.0
 11
4.4857953446
 21
1.3752549548
 31
0.0
  0
LINE
  5
21B
330
1F
100
AcDbEntity
  8
0
  6
Continuous
 62
     7
370
    15
100
AcDbLine
 10
4.6302453825
 20
1.4149786493
 30
0.0
 11
4.4857953446
 21
1.4149786493
 31
0.0
  0
LINE
  5
21C
330
1F
100
AcDbEntity
  8
0
  6
Continuous
 62
     7
370
    15
100
AcDbLine
 10
4.6302453825
 20
1.2885850494
 30
0.0
 11
4.6302453825
 21
1.4149786493
 31
0.0
  0
LINE
  5
21D
330
1F
100
AcDbEntity
  8
0
  6
Continuous
 62
     7
370
    15
100
AcDbLine
 10
4.4857953446
 20
1.2885850494
 30
0.0
 11
4.6302453825
 21
1.2885850494
 31
0.0
  0
LINE
  5
21E
330
1F
100
AcDbEntity
  8
0
  6
Continuous
 62
     7
370
    15
100
AcDbLine
 10
4.4857953446
 20
1.3138637107
 30
0.0
 11
4.4857953446
 21
1.2885850494
 31
0.0
  0
LINE
  5
21F
330
1F
100
AcDbEntity
  8
0
  6
Continuous
 62
     7
370
    15
100
AcDbLine
 10
4.4388493536
 20
1.3046663503
 30
0.0
 11
4.4857953446
 21
1.3138637107
 31
0.0
  0
LINE
  5
220
330
1F
100
AcDbEntity
  8
0
  6
Continuous
 62
     7
370
    15
100
AcDbLine
 10
3.7779910678
 20
1.2970488649
 30
0.0
 11
3.7779910678
 21
1.301055092
 31
0.0
  0
SPLINE
  5
221
330
1F
100
AcDbEntity
  8
0
  6
Continuous
 62
     7
370
    15
100
AcDbSpline
210
0.0
220
0.0
230
1.0
 70
     8
 71
     3
 72
    11
 73
     7
 74
     0
 42
0.00000001
 43
0.00000001
 40
0.0
 40
0.0
 40
0.0
 40
0.0
 40
0.2816806699231796
 40
0.5596697015349235
 40
0.7788708933737576
 40
1.0
 40
1.0
 40
1.0
 40
1.0
 10
3.830015480189354
 20
1.252472539880927
 30
0.0
 10
3.822584029567913
 20
1.252651743944032
 30
0.0
 10
3.807818523108389
 20
1.2530078034654
 30
0.0
 10
3.78669356829802
 20
1.260729776556282
 30
0.0
 10
3.778660328699344
 20
1.279505127063148
 30
0.0
 10
3.778214805015156
 20
1.291183907759691
 30
0.0
 10
3.777991067846472
 20
1.297048864931416
 30
0.0
  0
LINE
  5
222
330
1F
100
AcDbEntity
  8
0
  6
Continuous
 62
     7
370
    15
100
AcDbLine
 10
3.9458576353
 20
1.2524725399
 30
0.0
 11
3.8300154802
 21
1.2524725399
 31
0.0
  0
SPLINE
  5
223
330
1F
100
AcDbEntity
  8
0
  6
Continuous
 62
     7
370
    15
100
AcDbSpline
210
0.0
220
0.0
230
1.0
 70
     8
 71
     3
 72
    11
 73
     7
 74
     0
 42
0.00000001
 43
0.00000001
 40
0.0
 40
0.0
 40
0.0
 40
0.0
 40
0.1879539960104525
 40
0.3753436065842117
 40
0.5604978334996435
 40
1.0
 40
1.0
 40
1.0
 40
1.0
 10
3.998277163082702
 20
1.300321547125112
 30
0.0
 10
3.9980918840293
 20
1.295119640409078
 30
0.0
 10
3.997721882275656
 20
1.284731447184378
 30
0.0
 10
3.994100004081067
 20
1.269154521630801
 30
0.0
 10
3.977022567757756
 20
1.252335901851768
 30
0.0
 10
3.958728889502702
 20
1.252416107773811
 30
0.0
 10
3.945857635304226
 20
1.252472539880927
 30
0.0
  0
LINE
  5
224
330
1F
100
AcDbEntity
  8
0
  6
Continuous
 62
     7
370
    15
100
AcDbLine
 10
3.9982771631
 20
1.3227790344
 30
0.0
 11
3.9982771631
 21
1.3003215471
 31
0.0
  0
SPLINE
  5
225
330
1F
100
AcDbEntity
  8
0
  6
Continuous
 62
     7
370
    15
100
AcDbSpline
210
0.0
220
0.0
230
1.0
 70
     8
 71
     3
 72
    11
 73
     7
 74
     0
 42
0.00000001
 43
0.00000001
 40
0.0
 40
0.0
 40
0.0
 40
0.0
 40
0.2819328070275707
 40
0.5582666271332274
 40
0.7783636718296204
 40
1.0
 40
1.0
 40
1.0
 40
1.0
 10
3.945857635304226
 20
1.37164369653889
 30
0.0
 10
3.953696423118957
 20
1.371494092828361
 30
0.0
 10
3.969218325944953
 20
1.371197856431599
 30
0.0
 10
3.991338663514966
 20
1.361743959505527
 30
0.0
 10
3.997631338587876
 20
1.341215365989798
 30
0.0
 10
3.998061388727238
 20
1.328938738129104
 30
0.0
 10
3.998277163082702
 20
1.32277903436097
 30
0.0
  0
LINE
  5
226
330
1F
100
AcDbEntity
  8
0
  6
Continuous
 62
     7
370
    15
100
AcDbLine
 10
3.8213261672
 20
1.3716436965
 30
0.0
 11
3.9458576353
 21
1.3716436965
 31
0.0
  0
LINE
  5
227
330
1F
100
AcDbEntity
  8
0
  6
Continuous
 62
     7
370
    15
100
AcDbLine
 10
3.8213261672
 20
1.4149786493
 30
0.0
 11
3.8213261672
 21
1.3716436965
 31
0.0
  0
LINE
  5
228
330
1F
100
AcDbEntity
  8
0
  6
Continuous
 62
     7
370
    15
100
AcDbLine
 10
3.9621647269
 20
1.4149786493
 30
0.0
 11
3.8213261672
 21
1.4149786493
 31
0.0
  0
LINE
  5
229
330
1F
100
AcDbEntity
  8
0
  6
Continuous
 62
     7
370
    15
100
AcDbLine
 10
3.9621647269
 20
1.3933111729
 30
0.0
 11
3.9621647269
 21
1.4149786493
 31
0.0
  0
LINE
  5
22A
330
1F
100
AcDbEntity
  8
0
  6
Continuous
 62
     7
370
    15
100
AcDbLine
 10
4.005499533
 20
1.4010979096
 30
0.0
 11
3.9621647269
 21
1.3933111729
 31
0.0
  0
LINE
  5
22B
330
1F
100
AcDbEntity
  8
0
  6
Continuous
 62
     7
370
    15
100
AcDbLine
 10
4.005499533
 20
1.4061197916
 30
0.0
 11
4.005499533
 21
1.4010979096
 31
0.0
  0
SPLINE
  5
22C
330
1F
100
AcDbEntity
  8
0
  6
Continuous
 62
     7
370
    15
100
AcDbSpline
210
0.0
220
0.0
230
1.0
 70
     8
 71
     3
 72
    11
 73
     7
 74
     0
 42
0.00000001
 43
0.00000001
 40
0.0
 40
0.0
 40
0.0
 40
0.0
 40
0.2819620180692367
 40
0.5582439003713824
 40
0.7783413827671508
 40
1.0
 40
1.0
 40
1.0
 40
1.0
 10
3.953757304046579
 20
1.454702343704977
 30
0.0
 10
3.961522512861535
 20
1.454551515664007
 30
0.0
 10
3.976896500059326
 20
1.45425289801879
 30
0.0
 10
3.998750649057803
 20
1.444728474521072
 30
0.0
 10
4.004828486260912
 20
1.424371167773067
 30
0.0
 10
4.005275324377265
 20
1.41221789992188
 30
0.0
 10
4.005499532982602
 20
1.406119791601431
 30
0.0
  0
LINE
  5
22D
330
1F
100
AcDbEntity
  8
0
  6
Continuous
 62
     7
370
    15
100
AcDbLine
 10
3.8277022802
 20
1.4547023437
 30
0.0
 11
3.953757304
 21
1.4547023437
 31
0.0
  0
SPLINE
  5
22E
330
1F
100
AcDbEntity
  8
0
  6
Continuous
 62
     7
370
    15
100
AcDbSpline
210
0.0
220
0.0
230
1.0
 70
     8
 71
     3
 72
    11
 73
     7
 74
     0
 42
0.00000001
 43
0.00000001
 40
0.0
 40
0.0
 40
0.0
 40
0.0
 40
0.2819844293911903
 40
0.5572774241782764
 40
0.7781188394285555
 40
1.0
 40
1.0
 40
1.0
 40
1.0
 10
3.777991067846472
 20
1.406119791601431
 30
0.0
 10
3.778121025281689
 20
1.41377394083149
 30
0.0
 10
3.778377856287952
 20
1.428900607847868
 30
0.0
 10
3.789738621238621
 20
1.449420337975706
 30
0.0
 10
3.80980691756099
 20
1.454056983916618
 30
0.0
 10
3.821727827163023
 20
1.454486887229206
 30
0.0
 10
3.827702280244971
 20
1.454702343704977
 30
0.0
  0
LINE
  5
22F
330
1F
100
AcDbEntity
  8
0
  6
Continuous
 62
     7
370
    15
100
AcDbLine
 10
3.7779910678
 20
1.3800511194
 30
0.0
 11
3.7779910678
 21
1.4061197916
 31
0.0
  0
SPLINE
  5
230
330
1F
100
AcDbEntity
  8
0
  6
Continuous
 62
     7
370
    15
100
AcDbSpline
210
0.0
220
0.0
230
1.0
 70
     8
 71
     3
 72
    11
 73
     7
 74
     0
 42
0.00000001
 43
0.00000001
 40
0.0
 40
0.0
 40
0.0
 40
0.0
 40
0.2819058640103798
 40
0.5580315479966986
 40
0.7783566965467382
 40
1.0
 40
1.0
 40
1.0
 40
1.0
 10
3.827702280244971
 20
1.331920002097064
 30
0.0
 10
3.820110953248451
 20
1.332032297809347
 30
0.0
 10
3.805083951344506
 20
1.332254586729721
 30
0.0
 10
3.784087781770229
 20
1.342347332588992
 30
0.0
 10
3.778650405981364
 20
1.362251140861021
 30
0.0
 10
3.778211283780123
 20
1.374106007660445
 30
0.0
 10
3.777991067846472
 20
1.380051119415623
 30
0.0
  0
LINE
  5
231
330
1F
100
AcDbEntity
  8
0
  6
Continuous
 62
     7
370
    15
100
AcDbLine
 10
3.9549420637
 20
1.3319200021
 30
0.0
 11
3.8277022802
 21
1.3319200021
 31
0.0
  0
LINE
  5
232
330
1F
100
AcDbEntity
  8
0
  6
Continuous
 62
     7
370
    15
100
AcDbLine
 10
3.9549420637
 20
1.2885850494
 30
0.0
 11
3.9549420637
 21
1.3319200021
 31
0.0
  0
LINE
  5
233
330
1F
100
AcDbEntity
  8
0
  6
Continuous
 62
     7
370
    15
100
AcDbLine
 10
3.8213261672
 20
1.2885850494
 30
0.0
 11
3.9549420637
 21
1.2885850494
 31
0.0
  0
LINE
  5
234
330
1F
100
AcDbEntity
  8
0
  6
Continuous
 62
     7
370
    15
100
AcDbLine
 10
3.8213261672
 20
1.3102525257
 30
0.0
 11
3.8213261672
 21
1.2885850494
 31
0.0
  0
LINE
  5
235
330
1F
100
AcDbEntity
  8
0
  6
Continuous
 62
     7
370
    15
100
AcDbLine
 10
3.7779910678
 20
1.301055092
 30
0.0
 11
3.8213261672
 21
1.3102525257
 31
0.0
  0
LINE
  5
236
330
1F
100
AcDbEntity
  8
0
  6
Continuous
 62
     7
370
    15
100
AcDbLine
 10
18.2058819956
 20
0.8769781276
 30
0.0
 11
18.2058819956
 21
0.6269781306
 31
0.0
  0
LINE
  5
237
330
1F
100
AcDbEntity
  8
0
  6
Continuous
 62
     7
370
    15
100
AcDbLine
 10
18.2058819956
 20
0.6269781306
 30
0.0
 11
18.3208825871
 21
0.6269781306
 31
0.0
  0
LINE
  5
238
330
1F
100
AcDbEntity
  8
0
  6
Continuous
 62
     7
370
    15
100
AcDbLine
 10
18.3208825871
 20
0.6269781306
 30
0.0
 11
18.3208825871
 21
0.8769781276
 31
0.0
  0
LINE
  5
239
330
1F
100
AcDbEntity
  8
0
  6
Continuous
 62
     7
370
    15
100
AcDbLine
 10
18.3208825871
 20
0.8769781276
 30
0.0
 11
18.4933828877
 21
0.8769781276
 31
0.0
  0
LINE
  5
23A
330
1F
100
AcDbEntity
  8
0
  6
Continuous
 62
     7
370
    15
100
AcDbLine
 10
18.4933828877
 20
0.8769781276
 30
0.0
 11
18.4933828877
 21
1.6769781693
 31
0.0
  0
LINE
  5
23B
330
1F
100
AcDbEntity
  8
0
  6
Continuous
 62
     7
370
    15
100
AcDbLine
 10
18.4933828877
 20
1.6769781693
 30
0.0
 11
18.3208825871
 21
1.6769781693
 31
0.0
  0
LINE
  5
23C
330
1F
100
AcDbEntity
  8
0
  6
Continuous
 62
     7
370
    15
100
AcDbLine
 10
18.3208825871
 20
1.6769781693
 30
0.0
 11
18.3208825871
 21
2.6769780839
 31
0.0
  0
LINE
  5
23D
330
1F
100
AcDbEntity
  8
0
  6
Continuous
 62
     7
370
    15
100
AcDbLine
 10
18.3208825871
 20
2.6769780839
 30
0.0
 11
18.2058819956
 21
2.6769780839
 31
0.0
  0
LINE
  5
23E
330
1F
100
AcDbEntity
  8
0
  6
Continuous
 62
     7
370
    15
100
AcDbLine
 10
18.2058819956
 20
2.6769780839
 30
0.0
 11
18.2058819956
 21
1.6769781693
 31
0.0
  0
LINE
  5
23F
330
1F
100
AcDbEntity
  8
0
  6
Continuous
 62
     7
370
    15
100
AcDbLine
 10
18.2058819956
 20
1.6769781693
 30
0.0
 11
18.0333828683
 21
1.6769781693
 31
0.0
  0
LINE
  5
240
330
1F
100
AcDbEntity
  8
0
  6
Continuous
 62
     7
370
    15
100
AcDbLine
 10
18.0333828683
 20
1.6769781693
 30
0.0
 11
18.0333828683
 21
0.8769781276
 31
0.0
  0
LINE
  5
241
330
1F
100
AcDbEntity
  8
0
  6
Continuous
 62
     7
370
    15
100
AcDbLine
 10
18.0333828683
 20
0.8769781276
 30
0.0
 11
18.2058819956
 21
0.8769781276
 31
0.0
  0
LINE
  5
242
330
1F
100
AcDbEntity
  8
0
  6
Continuous
 62
     7
370
    15
100
AcDbLine
 10
18.3208825871
 20
4.4269780811
 30
0.0
 11
18.2058819956
 21
4.4269780811
 31
0.0
  0
LINE
  5
243
330
1F
100
AcDbEntity
  8
0
  6
Continuous
 62
     7
370
    15
100
AcDbLine
 10
18.2058819956
 20
4.4269780811
 30
0.0
 11
18.2058819956
 21
3.4269781665
 31
0.0
  0
LINE
  5
244
330
1F
100
AcDbEntity
  8
0
  6
Continuous
 62
     7
370
    15
100
AcDbLine
 10
18.2058819956
 20
3.4269781665
 30
0.0
 11
18.3208825871
 21
3.4269781665
 31
0.0
  0
LINE
  5
245
330
1F
100
AcDbEntity
  8
0
  6
Continuous
 62
     7
370
    15
100
AcDbLine
 10
18.3208825871
 20
3.4269781665
 30
0.0
 11
18.3208825871
 21
4.4269780811
 31
0.0
  0
LINE
  5
246
330
1F
100
AcDbEntity
  8
0
  6
Continuous
 62
     7
370
    15
100
AcDbLine
 10
18.3208825871
 20
6.1769783716
 30
0.0
 11
18.2058819956
 21
6.1769783716
 31
0.0
  0
LINE
  5
247
330
1F
100
AcDbEntity
  8
0
  6
Continuous
 62
     7
370
    15
100
AcDbLine
 10
18.2058819956
 20
6.1769783716
 30
0.0
 11
18.2058819956
 21
5.1769781637
 31
0.0
  0
LINE
  5
248
330
1F
100
AcDbEntity
  8
0
  6
Continuous
 62
     7
370
    15
100
AcDbLine
 10
18.2058819956
 20
5.1769781637
 30
0.0
 11
18.3208825871
 21
5.1769781637
 31
0.0
  0
LINE
  5
249
330
1F
100
AcDbEntity
  8
0
  6
Continuous
 62
     7
370
    15
100
AcDbLine
 10
18.3208825871
 20
5.1769781637
 30
0.0
 11
18.3208825871
 21
6.1769783716
 31
0.0
  0
LINE
  5
24A
330
1F
100
AcDbEntity
  8
0
  6
Continuous
 62
     7
370
    15
100
AcDbLine
 10
2.5134274895
 20
2.8019781465
 30
0.0
 11
1.2634275321
 21
2.8019781465
 31
0.0
  0
LINE
  5
24B
330
1F
100
AcDbEntity
  8
0
  6
Continuous
 62
     7
370
    15
100
AcDbLine
 10
2.9228940927
 20
3.9269781238
 30
0.0
 11
2.5134274895
 21
2.8019781465
 31
0.0
  0
LINE
  5
24C
330
1F
100
AcDbEntity
  8
0
  6
Continuous
 62
     7
370
    15
100
AcDbLine
 10
17.588382569
 20
3.9269781238
 30
0.0
 11
2.9228940927
 21
3.9269781238
 31
0.0
  0
LINE
  5
24D
330
1F
100
AcDbEntity
  8
0
  6
Continuous
 62
     7
370
    15
100
AcDbLine
 10
17.588382569
 20
6.6769780355
 30
0.0
 11
17.588382569
 21
3.9269781238
 31
0.0
  0
LINE
  5
24E
330
1F
100
AcDbEntity
  8
0
  6
Continuous
 62
     7
370
    15
100
AcDbLine
 10
18.9383820137
 20
6.6769780355
 30
0.0
 11
17.588382569
 21
6.6769780355
 31
0.0
  0
LINE
  5
24F
330
1F
100
AcDbEntity
  8
0
  6
Continuous
 62
     7
370
    15
100
AcDbLine
 10
18.9383820137
 20
3.9269781238
 30
0.0
 11
18.9383820137
 21
6.6769780355
 31
0.0
  0
LINE
  5
250
330
1F
100
AcDbEntity
  8
0
  6
Continuous
 62
     7
370
    15
100
AcDbLine
 10
33.6038713701
 20
3.9269781238
 30
0.0
 11
18.9383820137
 21
3.9269781238
 31
0.0
  0
LINE
  5
251
330
1F
100
AcDbEntity
  8
0
  6
Continuous
 62
     7
370
    15
100
AcDbLine
 10
34.0133365066
 20
2.8019781465
 30
0.0
 11
33.6038713701
 21
3.9269781238
 31
0.0
  0
LINE
  5
252
330
1F
100
AcDbEntity
  8
0
  6
Continuous
 62
     7
370
    15
100
AcDbLine
 10
35.2633374264
 20
2.8019781465
 30
0.0
 11
34.0133365066
 21
2.8019781465
 31
0.0
  0
LINE
  5
253
330
1F
100
AcDbEntity
  8
0
  6
Continuous
 62
     7
370
    15
100
AcDbLine
 10
35.2633374264
 20
1.4269781173
 30
0.0
 11
35.2633374264
 21
2.8019781465
 31
0.0
  0
ARC
  5
254
330
1F
100
AcDbEntity
  8
0
  6
Continuous
 62
     7
370
    15
100
AcDbCircle
 10
34.2633375124
 20
1.4269781294
 30
0.0
 40
0.9999999999999992
100
AcDbArc
 50
270.0
 51
0.0
  0
LINE
  5
255
330
1F
100
AcDbEntity
  8
0
  6
Continuous
 62
     7
370
    15
100
AcDbLine
 10
2.2634275109
 20
0.4269781294
 30
0.0
 11
34.2633380985
 21
0.4269781294
 31
0.0
  0
ARC
  5
256
330
1F
100
AcDbEntity
  8
0
  6
Continuous
 62
     7
370
    15
100
AcDbCircle
 10
2.2634275336
 20
1.4269781294
 30
0.0
 40
1.000000000000001
100
AcDbArc
 50
180.0
 51
270.0
  0
LINE
  5
257
330
1F
100
AcDbEntity
  8
0
  6
Continuous
 62
     7
370
    15
100
AcDbLine
 10
1.2634275321
 20
2.8019781465
 30
0.0
 11
1.2634275321
 21
1.4269781173
 31
0.0
  0
SPLINE
  5
258
330
1F
100
AcDbEntity
  8
0
  6
Continuous
 62
     7
370
    15
100
AcDbSpline
210
0.0
220
0.0
230
1.0
 70
     8
 71
     3
 72
     9
 73
     5
 74
     0
 42
0.00000001
 43
0.00000001
 40
0.0
 40
0.0
 40
0.0
 40
0.0
 40
0.5599984085331132
 40
1.0
 40
1.0
 40
1.0
 40
1.0
 10
4.299985491055685
 20
1.313299490536136
 30
0.0
 10
4.299380745612459
 20
1.319289452142889
 30
0.0
 10
4.298300839966283
 20
1.329985842553076
 30
0.0
 10
4.298099215585871
 20
1.340733277275002
 30
0.0
 10
4.29801050053761
 20
1.345462165656835
 30
0.0
  0
SPLINE
  5
259
330
1F
100
AcDbEntity
  8
0
  6
Continuous
 62
     7
370
    15
100
AcDbSpline
210
0.0
220
0.0
230
1.0
 70
     8
 71
     3
 72
     9
 73
     5
 74
     0
 42
0.00000001
 43
0.00000001
 40
0.0
 40
0.0
 40
0.0
 40
0.0
 40
0.5600812165005484
 40
1.0
 40
1.0
 40
1.0
 40
1.0
 10
4.283226964651612
 20
1.329775833533349
 30
0.0
 10
4.286500403874427
 20
1.326845862402033
 30
0.0
 10
4.292344983421785
 20
1.321614529793482
 30
0.0
 10
4.297651190772821
 20
1.315839871283133
 30
0.0
 10
4.299985491055685
 20
1.313299490536136
 30
0.0
  0
LINE
  5
25A
330
1F
100
AcDbEntity
  8
0
  6
Continuous
 62
     7
370
    15
100
AcDbLine
 10
4.135053103
 20
1.4547023437
 30
0.0
 11
4.2832269647
 21
1.3297758335
 31
0.0
  0
LINE
  5
25B
330
1F
100
AcDbEntity
  8
0
  6
Continuous
 62
     7
370
    15
100
AcDbLine
 10
4.1030032866
 20
1.4547023437
 30
0.0
 11
4.135053103
 21
1.4547023437
 31
0.0
  0
LINE
  5
25C
330
1F
100
AcDbEntity
  8
0
  6
Continuous
 62
     7
370
    15
100
AcDbLine
 10
4.1030032866
 20
1.2524725399
 30
0.0
 11
4.1030032866
 21
1.4547023437
 31
0.0
  0
LINE
  5
25D
330
1F
100
AcDbEntity
  8
0
  6
Continuous
 62
     7
370
    15
100
AcDbLine
 10
4.1463380927
 20
1.2524725399
 30
0.0
 11
4.1030032866
 21
1.2524725399
 31
0.0
  0
LINE
  5
25E
330
1F
100
AcDbEntity
  8
0
  6
Continuous
 62
     7
370
    15
100
AcDbLine
 10
4.1463380927
 20
1.3586657531
 30
0.0
 11
4.1463380927
 21
1.2524725399
 31
0.0
  0
SPLINE
  5
25F
330
1F
100
AcDbEntity
  8
0
  6
Continuous
 62
     7
370
    15
100
AcDbSpline
210
0.0
220
0.0
230
1.0
 70
     8
 71
     3
 72
     9
 73
     5
 74
     0
 42
0.00000001
 43
0.00000001
 40
0.0
 40
0.0
 40
0.0
 40
0.0
 40
0.5600174078004885
 40
0.9999999999999999
 40
0.9999999999999999
 40
0.9999999999999999
 40
0.9999999999999999
 10
4.144363395482079
 20
1.393649748989761
 30
0.0
 10
4.14485665311653
 20
1.387126036388866
 30
0.0
 10
4.145737442941241
 20
1.375476911718766
 30
0.0
 10
4.146154565851075
 20
1.363802354899838
 30
0.0
 10
4.146338092670208
 20
1.358665753127866
 30
0.0
  0
SPLINE
  5
260
330
1F
100
AcDbEntity
  8
0
  6
Continuous
 62
     7
370
    15
100
AcDbSpline
210
0.0
220
0.0
230
1.0
 70
     8
 71
     3
 72
     9
 73
     5
 74
     0
 42
0.00000001
 43
0.00000001
 40
0.0
 40
0.0
 40
0.0
 40
0.0
 40
0.5600529608468325
 40
0.9999999999999999
 40
0.9999999999999999
 40
0.9999999999999999
 40
0.9999999999999999
 10
4.167159238809218
 20
1.37164369653889
 30
0.0
 10
4.162606303802459
 20
1.375447577448625
 30
0.0
 10
4.154476831547057
 20
1.38223957959068
 30
0.0
 10
4.147453353745453
 20
1.390163599772555
 30
0.0
 10
4.144363395482079
 20
1.393649748989761
 30
0.0
  0
LINE
  5
261
330
1F
100
AcDbEntity
  8
0
  6
Continuous
 62
     7
370
    15
100
AcDbLine
 10
4.3092394642
 20
1.2524725399
 30
0.0
 11
4.1671592388
 21
1.3716436965
 31
0.0
  0
LINE
  5
262
330
1F
100
AcDbEntity
  8
0
  6
Continuous
 62
     7
370
    15
100
AcDbLine
 10
4.3413455999
 20
1.2524725399
 30
0.0
 11
4.3092394642
 21
1.2524725399
 31
0.0
  0
LINE
  5
263
330
1F
100
AcDbEntity
  8
0
  6
Continuous
 62
     7
370
    15
100
AcDbLine
 10
4.3413455999
 20
1.4547023437
 30
0.0
 11
4.3413455999
 21
1.2524725399
 31
0.0
  0
LINE
  5
264
330
1F
100
AcDbEntity
  8
0
  6
Continuous
 62
     7
370
    15
100
AcDbLine
 10
4.2980105005
 20
1.4547023437
 30
0.0
 11
4.3413455999
 21
1.4547023437
 31
0.0
  0
LINE
  5
265
330
1F
100
AcDbEntity
  8
0
  6
Continuous
 62
     7
370
    15
100
AcDbLine
 10
4.2980105005
 20
1.3454621657
 30
0.0
 11
4.2980105005
 21
1.4547023437
 31
0.0
  0
LINE
  5
266
330
1F
100
AcDbEntity
  8
0
  6
Continuous
 62
     7
370
    15
100
AcDbLine
 10
4.8216414115
 20
1.2524725399
 30
0.0
 11
4.7746951272
 21
1.2524725399
 31
0.0
  0
LINE
  5
267
330
1F
100
AcDbEntity
  8
0
  6
Continuous
 62
     7
370
    15
100
AcDbLine
 10
4.8216414115
 20
1.4547023437
 30
0.0
 11
4.8216414115
 21
1.2524725399
 31
0.0
  0
LINE
  5
268
330
1F
100
AcDbEntity
  8
0
  6
Continuous
 62
     7
370
    15
100
AcDbLine
 10
4.7746951272
 20
1.4547023437
 30
0.0
 11
4.8216414115
 21
1.4547023437
 31
0.0
  0
LINE
  5
269
330
1F
100
AcDbEntity
  8
0
  6
Continuous
 62
     7
370
    15
100
AcDbLine
 10
4.7746951272
 20
1.2524725399
 30
0.0
 11
4.7746951272
 21
1.4547023437
 31
0.0
  0
LINE
  5
26A
330
1F
100
AcDbEntity
  8
0
  6
Continuous
 62
     7
370
    15
100
AcDbLine
 10
5.3849959436
 20
1.4149786493
 30
0.0
 11
5.2224896875
 21
1.4149786493
 31
0.0
  0
LINE
  5
26B
330
1F
100
AcDbEntity
  8
0
  6
Continuous
 62
     7
370
    15
100
AcDbLine
 10
5.3849959436
 20
1.36442118
 30
0.0
 11
5.3849959436
 21
1.4149786493
 31
0.0
  0
LINE
  5
26C
330
1F
100
AcDbEntity
  8
0
  6
Continuous
 62
     7
370
    15
100
AcDbLine
 10
5.2911033749
 20
1.36442118
 30
0.0
 11
5.3849959436
 21
1.36442118
 31
0.0
  0
LINE
  5
26D
330
1F
100
AcDbEntity
  8
0
  6
Continuous
 62
     7
370
    15
100
AcDbLine
 10
5.2911033749
 20
1.3283087438
 30
0.0
 11
5.2911033749
 21
1.36442118
 31
0.0
  0
LINE
  5
26E
330
1F
100
AcDbEntity
  8
0
  6
Continuous
 62
     7
370
    15
100
AcDbLine
 10
5.3849959436
 20
1.3283087438
 30
0.0
 11
5.2911033749
 21
1.3283087438
 31
0.0
  0
LINE
  5
26F
330
1F
100
AcDbEntity
  8
0
  6
Continuous
 62
     7
370
    15
100
AcDbLine
 10
5.3849959436
 20
1.2885850494
 30
0.0
 11
5.3849959436
 21
1.3283087438
 31
0.0
  0
LINE
  5
270
330
1F
100
AcDbEntity
  8
0
  6
Continuous
 62
     7
370
    15
100
AcDbLine
 10
5.2261008725
 20
1.2885850494
 30
0.0
 11
5.3849959436
 21
1.2885850494
 31
0.0
  0
LINE
  5
271
330
1F
100
AcDbEntity
  8
0
  6
Continuous
 62
     7
370
    15
100
AcDbLine
 10
5.2261008725
 20
1.2524725399
 30
0.0
 11
5.2261008725
 21
1.2885850494
 31
0.0
  0
LINE
  5
272
330
1F
100
AcDbEntity
  8
0
  6
Continuous
 62
     7
370
    15
100
AcDbLine
 10
5.4319419346
 20
1.2524725399
 30
0.0
 11
5.2261008725
 21
1.2524725399
 31
0.0
  0
LINE
  5
273
330
1F
100
AcDbEntity
  8
0
  6
Continuous
 62
     7
370
    15
100
AcDbLine
 10
5.4319419346
 20
1.4547023437
 30
0.0
 11
5.4319419346
 21
1.2524725399
 31
0.0
  0
LINE
  5
274
330
1F
100
AcDbEntity
  8
0
  6
Continuous
 62
     7
370
    15
100
AcDbLine
 10
5.2224896875
 20
1.4547023437
 30
0.0
 11
5.4319419346
 21
1.4547023437
 31
0.0
  0
LINE
  5
275
330
1F
100
AcDbEntity
  8
0
  6
Continuous
 62
     7
370
    15
100
AcDbLine
 10
5.2224896875
 20
1.4149786493
 30
0.0
 11
5.2224896875
 21
1.4547023437
 31
0.0
  0
LINE
  5
276
330
1F
100
AcDbEntity
  8
0
  6
Continuous
 62
     7
370
    15
100
AcDbLine
 10
6.0635716513
 20
1.4547023437
 30
0.0
 11
6.2125357438
 21
1.4547023437
 31
0.0
  0
SPLINE
  5
277
330
1F
100
AcDbEntity
  8
0
  6
Continuous
 62
     7
370
    15
100
AcDbSpline
210
0.0
220
0.0
230
1.0
 70
     8
 71
     3
 72
    11
 73
     7
 74
     0
 42
0.00000001
 43
0.00000001
 40
0.0
 40
0.0
 40
0.0
 40
0.0
 40
0.2820348019113678
 40
0.5572199462113046
 40
0.7780513168173298
 40
1.0
 40
1.0
 40
1.0
 40
1.0
 10
6.013352684758322
 20
1.40532985406019
 30
0.0
 10
6.013471281138598
 20
1.413087594872428
 30
0.0
 10
6.013705593600004
 20
1.428414667591185
 30
0.0
 10
6.025075577608298
 20
1.449300080574673
 30
0.0
 10
6.04542681231462
 20
1.454055590016815
 30
0.0
 10
6.057513205351643
 20
1.45448639677588
 30
0.0
 10
6.063571651291205
 20
1.454702343704977
 30
0.0
  0
LINE
  5
278
330
1F
100
AcDbEntity
  8
0
  6
Continuous
 62
     7
370
    15
100
AcDbLine
 10
6.0133526848
 20
1.3000959031
 30
0.0
 11
6.0133526848
 21
1.4053298541
 31
0.0
  0
SPLINE
  5
279
330
1F
100
AcDbEntity
  8
0
  6
Continuous
 62
     7
370
    15
100
AcDbSpline
210
0.0
220
0.0
230
1.0
 70
     8
 71
     3
 72
    11
 73
     7
 74
     0
 42
0.00000001
 43
0.00000001
 40
0.0
 40
0.0
 40
0.0
 40
0.0
 40
0.2819690388946852
 40
0.5581732528992471
 40
0.7783409899406576
 40
1.0
 40
1.0
 40
1.0
 40
1.0
 10
6.063571651291202
 20
1.252472539880927
 30
0.0
 10
6.055990803610732
 20
1.252604446432803
 30
0.0
 10
6.040984097817328
 20
1.252865562722123
 30
0.0
 10
6.019766846683738
 20
1.262418308413658
 30
0.0
 10
6.014000144115771
 20
1.282292980517503
 30
0.0
 10
6.013568989627985
 20
1.294148257399047
 30
0.0
 10
6.013352684758322
 20
1.300095903065105
 30
0.0
  0
LINE
  5
27A
330
1F
100
AcDbEntity
  8
0
  6
Continuous
 62
     7
370
    15
100
AcDbLine
 10
6.2125357438
 20
1.2524725399
 30
0.0
 11
6.0635716513
 21
1.2524725399
 31
0.0
  0
SPLINE
  5
27B
330
1F
100
AcDbEntity
  8
0
  6
Continuous
 62
     7
370
    15
100
AcDbSpline
210
0.0
220
0.0
230
1.0
 70
     8
 71
     3
 72
    10
 73
     6
 74
     0
 42
0.00000001
 43
0.00000001
 40
0.0
 40
0.0
 40
0.0
 40
0.0
 40
0.282899813278069
 40
0.5587970892162324
 40
1.0
 40
1.0
 40
1.0
 40
1.0
 10
6.262528552924096
 20
1.300095903065105
 30
0.0
 10
6.262453871035519
 20
1.292447419002193
 30
0.0
 10
6.262306355837572
 20
1.277339771592506
 30
0.0
 10
6.246218556893826
 20
1.252193687289963
 30
0.0
 10
6.225365680279542
 20
1.252366323662497
 30
0.0
 10
6.212535743778627
 20
1.252472539880927
 30
0.0
  0
LINE
  5
27C
330
1F
100
AcDbEntity
  8
0
  6
Continuous
 62
     7
370
    15
100
AcDbLine
 10
6.2625285529
 20
1.4053298541
 30
0.0
 11
6.2625285529
 21
1.3000959031
 31
0.0
  0
SPLINE
  5
27D
330
1F
100
AcDbEntity
  8
0
  6
Continuous
 62
     7
370
    15
100
AcDbSpline
210
0.0
220
0.0
230
1.0
 70
     8
 71
     3
 72
    11
 73
     7
 74
     0
 42
0.00000001
 43
0.00000001
 40
0.0
 40
0.0
 40
0.0
 40
0.0
 40
0.2820252719127666
 40
0.5577118092685925
 40
0.7782270617485806
 40
1.0
 40
1.0
 40
1.0
 40
1.0
 10
6.212535743778627
 20
1.454702343704977
 30
0.0
 10
6.220260683250262
 20
1.454591473304966
 30
0.0
 10
6.235536938246828
 20
1.454372224402321
 30
0.0
 10
6.256686886631198
 20
1.443686331492798
 30
0.0
 10
6.261879560697322
 20
1.423421173812368
 30
0.0
 10
6.2623118124664
 20
1.411371715212991
 30
0.0
 10
6.262528552924099
 20
1.40532985406019
 30
0.0
  0
LINE
  5
27E
330
1F
100
AcDbEntity
  8
0
  6
Continuous
 62
     7
370
    15
100
AcDbLine
 10
6.8222719001
 20
1.4149786493
 30
0.0
 11
6.6597659373
 21
1.4149786493
 31
0.0
  0
LINE
  5
27F
330
1F
100
AcDbEntity
  8
0
  6
Continuous
 62
     7
370
    15
100
AcDbLine
 10
6.8222719001
 20
1.36442118
 30
0.0
 11
6.8222719001
 21
1.4149786493
 31
0.0
  0
LINE
  5
280
330
1F
100
AcDbEntity
  8
0
  6
Continuous
 62
     7
370
    15
100
AcDbLine
 10
6.728379918
 20
1.36442118
 30
0.0
 11
6.8222719001
 21
1.36442118
 31
0.0
  0
LINE
  5
281
330
1F
100
AcDbEntity
  8
0
  6
Continuous
 62
     7
370
    15
100
AcDbLine
 10
6.728379918
 20
1.3283087438
 30
0.0
 11
6.728379918
 21
1.36442118
 31
0.0
  0
LINE
  5
282
330
1F
100
AcDbEntity
  8
0
  6
Continuous
 62
     7
370
    15
100
AcDbLine
 10
6.8222719001
 20
1.3283087438
 30
0.0
 11
6.728379918
 21
1.3283087438
 31
0.0
  0
LINE
  5
283
330
1F
100
AcDbEntity
  8
0
  6
Continuous
 62
     7
370
    15
100
AcDbLine
 10
6.8222719001
 20
1.2885850494
 30
0.0
 11
6.8222719001
 21
1.3283087438
 31
0.0
  0
LINE
  5
284
330
1F
100
AcDbEntity
  8
0
  6
Continuous
 62
     7
370
    15
100
AcDbLine
 10
6.6633774156
 20
1.2885850494
 30
0.0
 11
6.8222719001
 21
1.2885850494
 31
0.0
  0
LINE
  5
285
330
1F
100
AcDbEntity
  8
0
  6
Continuous
 62
     7
370
    15
100
AcDbLine
 10
6.6633774156
 20
1.2524725399
 30
0.0
 11
6.6633774156
 21
1.2885850494
 31
0.0
  0
LINE
  5
286
330
1F
100
AcDbEntity
  8
0
  6
Continuous
 62
     7
370
    15
100
AcDbLine
 10
6.8692181844
 20
1.2524725399
 30
0.0
 11
6.6633774156
 21
1.2524725399
 31
0.0
  0
LINE
  5
287
330
1F
100
AcDbEntity
  8
0
  6
Continuous
 62
     7
370
    15
100
AcDbLine
 10
6.8692181844
 20
1.4547023437
 30
0.0
 11
6.8692181844
 21
1.2524725399
 31
0.0
  0
LINE
  5
288
330
1F
100
AcDbEntity
  8
0
  6
Continuous
 62
     7
370
    15
100
AcDbLine
 10
6.6597659373
 20
1.4547023437
 30
0.0
 11
6.8692181844
 21
1.4547023437
 31
0.0
  0
LINE
  5
289
330
1F
100
AcDbEntity
  8
0
  6
Continuous
 62
     7
370
    15
100
AcDbLine
 10
6.6597659373
 20
1.4149786493
 30
0.0
 11
6.6597659373
 21
1.4547023437
 31
0.0
  0
SPLINE
  5
28A
330
1F
100
AcDbEntity
  8
0
  6
Continuous
 62
     7
370
    15
100
AcDbSpline
210
0.0
220
0.0
230
1.0
 70
     8
 71
     3
 72
     9
 73
     5
 74
     0
 42
0.00000001
 43
0.00000001
 40
0.0
 40
0.0
 40
0.0
 40
0.0
 40
0.5597652666647495
 40
1.0
 40
1.0
 40
1.0
 40
1.0
 10
7.407293835164537
 20
1.352346106132967
 30
0.0
 10
7.409440402060727
 20
1.37189525154652
 30
0.0
 10
7.41327516463716
 20
1.406819078689336
 30
0.0
 10
7.43987725336557
 20
1.429174415737481
 30
0.0
 10
7.451588416803083
 20
1.439016011581491
 30
0.0
  0
SPLINE
  5
28B
330
1F
100
AcDbEntity
  8
0
  6
Continuous
 62
     7
370
    15
100
AcDbSpline
210
0.0
220
0.0
230
1.0
 70
     8
 71
     3
 72
    11
 73
     7
 74
     0
 42
0.00000001
 43
0.00000001
 40
0.0
 40
0.0
 40
0.0
 40
0.0
 40
0.2809232278023325
 40
0.5598902852696793
 40
0.7794959985578809
 40
1.0
 40
1.0
 40
1.0
 40
1.0
 10
7.52195123063252
 20
1.252472539880927
 30
0.0
 10
7.505769772757592
 20
1.253329292619783
 30
0.0
 10
7.473519534368452
 20
1.255036832217402
 30
0.0
 10
7.432295791894057
 20
1.277443375940408
 30
0.0
 10
7.409920156108095
 20
1.314187041507307
 30
0.0
 10
7.408170465883744
 20
1.339609121969215
 30
0.0
 10
7.407293835164537
 20
1.352346106132967
 30
0.0
  0
LINE
  5
28C
330
1F
100
AcDbEntity
  8
0
  6
Continuous
 62
     7
370
    15
100
AcDbLine
 10
7.652859105
 20
1.2524725399
 30
0.0
 11
7.5219512306
 21
1.2524725399
 31
0.0
  0
LINE
  5
28D
330
1F
100
AcDbEntity
  8
0
  6
Continuous
 62
     7
370
    15
100
AcDbLine
 10
7.652859105
 20
1.4547023437
 30
0.0
 11
7.652859105
 21
1.2524725399
 31
0.0
  0
LINE
  5
28E
330
1F
100
AcDbEntity
  8
0
  6
Continuous
 62
     7
370
    15
100
AcDbLine
 10
7.5341390898
 20
1.4547023437
 30
0.0
 11
7.652859105
 21
1.4547023437
 31
0.0
  0
SPLINE
  5
28F
330
1F
100
AcDbEntity
  8
0
  6
Continuous
 62
     7
370
    15
100
AcDbSpline
210
0.0
220
0.0
230
1.0
 70
     8
 71
     3
 72
     9
 73
     5
 74
     0
 42
0.00000001
 43
0.00000001
 40
0.0
 40
0.0
 40
0.0
 40
0.0
 40
0.5581548724177178
 40
1.0
 40
1.0
 40
1.0
 40
1.0
 10
7.451588416803083
 20
1.439016011581491
 30
0.0
 10
7.466462232514663
 20
1.444704780519666
 30
0.0
 10
7.493110420045758
 20
1.454896878124285
 30
0.0
 10
7.521566090496558
 20
1.454761957656346
 30
0.0
 10
7.53413908983733
 20
1.454702343704977
 30
0.0
  0
CIRCLE
  5
290
330
1F
100
AcDbEntity
  8
0
  6
Continuous
 62
     7
370
    15
100
AcDbCircle
 10
7.263382523
 20
0.6769781294
 30
0.0
 40
0.031500000000001
  0
CIRCLE
  5
291
330
1F
100
AcDbEntity
  8
0
  6
Continuous
 62
     7
370
    15
100
AcDbCircle
 10
7.263382523
 20
3.6769781294
 30
0.0
 40
0.0314999999999999
  0
CIRCLE
  5
292
330
1F
100
AcDbEntity
  8
0
  6
Continuous
 62
     7
370
    15
100
AcDbCircle
 10
29.263382523
 20
3.6769781294
 30
0.0
 40
0.0315000000000012
  0
CIRCLE
  5
293
330
1F
100
AcDbEntity
  8
0
  6
Continuous
 62
     7
370
    15
100
AcDbCircle
 10
29.263382523
 20
0.6769781294
 30
0.0
 40
0.0315
  0
CIRCLE
  5
294
330
1F
100
AcDbEntity
  8
0
  6
Continuous
 62
     7
370
    15
100
AcDbCircle
 10
22.763382523
 20
0.6769781294
 30
0.0
 40
0.0315
  0
CIRCLE
  5
295
330
1F
100
AcDbEntity
  8
0
  6
Continuous
 62
     7
370
    15
100
AcDbCircle
 10
13.763382523
 20
0.6769781294
 30
0.0
 40
0.0314999999999989
  0
ENDSEC
  0
SECTION
  2
OBJECTS
  0
DICTIONARY
  5
C
330
0
100
AcDbDictionary
281
     1
  3
ACAD_GROUP
350
D
  3
ACAD_LAYOUT
350
1A
  3
ACAD_MLEADERSTYLE
350
297
  3
ACAD_MLINESTYLE
350
17
  3
ACAD_PLOTSETTINGS
350
19
  3
ACAD_PLOTSTYLENAME
350
E
  3
ACAD_TABLESTYLE
350
296
  3
ACAD_VISUALSTYLE
350
2A
  0
DICTIONARY
  5
D
102
{ACAD_REACTORS
330
C
102
}
330
C
100
AcDbDictionary
281
     1
  0
DICTIONARY
  5
1A
102
{ACAD_REACTORS
330
C
102
}
330
C
100
AcDbDictionary
281
     1
  3
Layout1
350
1E
  3
Layout2
350
26
  3
Model
350
22
  0
DICTIONARY
  5
297
102
{ACAD_REACTORS
330
C
102
}
330
C
100
AcDbDictionary
281
     1
  0
DICTIONARY
  5
17
102
{ACAD_REACTORS
330
C
102
}
330
C
100
AcDbDictionary
281
     1
  3
Standard
350
18
  0
DICTIONARY
  5
19
102
{ACAD_REACTORS
330
C
102
}
330
C
100
AcDbDictionary
281
     1
  0
ACDBDICTIONARYWDFLT
  5
E
102
{ACAD_REACTORS
330
C
102
}
330
C
100
AcDbDictionary
281
     1
  3
Normal
350
F
100
AcDbDictionaryWithDefault
340
F
  0
DICTIONARY
  5
296
102
{ACAD_REACTORS
330
C
102
}
330
C
100
AcDbDictionary
281
     1
  0
DICTIONARY
  5
2A
102
{ACAD_REACTORS
330
C
102
}
330
C
100
AcDbDictionary
281
     1
  3
2dWireframe
350
2F
  3
3D Hidden
350
31
  3
3dWireframe
350
30
  3
Basic
350
32
  3
Brighten
350
36
  3
ColorChange
350
3A
  3
Conceptual
350
34
  3
Dim
350
35
  3
Facepattern
350
39
  3
Flat
350
2B
  3
FlatWithEdges
350
2C
  3
Gouraud
350
2D
  3
GouraudWithEdges
350
2E
  3
Linepattern
350
38
  3
Realistic
350
33
  3
Thicken
350
37
  0
LAYOUT
  5
1E
102
{ACAD_REACTORS
330
1A
102
}
330
1A
100
AcDbPlotSettings
  1

  2
none_device
  4

  6

 40
0.0
 41
0.0
 42
0.0
 43
0.0
 44
0.0
 45
0.0
 46
0.0
 47
0.0
 48
0.0
 49
0.0
140
0.0
141
0.0
142
1.0
143
1.0
 70
   688
 72
     0
 73
     0
 74
     5
  7

 75
    16
147
1.0
148
0.0
149
0.0
100
AcDbLayout
  1
Layout1
 70
     1
 71
     1
 10
0.0
 20
0.0
 11
12.0
 21
9.0
 12
0.0
 22
0.0
 32
0.0
 14
1.0000000000E+20
 24
1.0000000000E+20
 34
1.0000000000E+20
 15
-1.0000000000E+20
 25
-1.0000000000E+20
 35
-1.0000000000E+20
146
0.0
 13
0.0
 23
0.0
 33
0.0
 16
1.0
 26
0.0
 36
0.0
 17
0.0
 27
1.0
 37
0.0
 76
     0
330
1B
  0
LAYOUT
  5
26
102
{ACAD_REACTORS
330
1A
102
}
330
1A
100
AcDbPlotSettings
  1

  2
none_device
  4

  6

 40
0.0
 41
0.0
 42
0.0
 43
0.0
 44
0.0
 45
0.0
 46
0.0
 47
0.0
 48
0.0
 49
0.0
140
0.0
141
0.0
142
1.0
143
1.0
 70
   688
 72
     0
 73
     0
 74
     5
  7

 75
    16
147
1.0
148
0.0
149
0.0
100
AcDbLayout
  1
Layout2
 70
     1
 71
     2
 10
0.0
 20
0.0
 11
0.0
 21
0.0
 12
0.0
 22
0.0
 32
0.0
 14
0.0
 24
0.0
 34
0.0
 15
0.0
 25
0.0
 35
0.0
146
0.0
 13
0.0
 23
0.0
 33
0.0
 16
1.0
 26
0.0
 36
0.0
 17
0.0
 27
1.0
 37
0.0
 76
     0
330
23
  0
LAYOUT
  5
22
102
{ACAD_REACTORS
330
1A
102
}
330
1A
100
AcDbPlotSettings
  1

  2
none_device
  4

  6

 40
0.0
 41
0.0
 42
0.0
 43
0.0
 44
0.0
 45
0.0
 46
0.0
 47
0.0
 48
0.0
 49
0.0
140
0.0
141
0.0
142
1.0
143
1.0
 70
  1712
 72
     0
 73
     0
 74
     0
  7

 75
     0
147
1.0
148
0.0
149
0.0
100
AcDbLayout
  1
Model
 70
     1
 71
     0
 10
0.0
 20
0.0
 11
39.5
 21
15.5
 12
0.0
 22
0.0
 32
0.0
 14
0.0
 24
0.0
 34
0.0
 15
39.5
 25
15.5
 35
0.0
146
0.0
 13
0.0
 23
0.0
 33
0.0
 16
1.0
 26
0.0
 36
0.0
 17
0.0
 27
1.0
 37
0.0
 76
     0
330
1F
331
29
  0
MLINESTYLE
  5
18
102
{ACAD_REACTORS
330
17
102
}
330
17
100
AcDbMlineStyle
  2
Standard
 70
     0
  3

 62
   256
 51
90.0
 52
90.0
 71
     2
 49
0.5
 62
   256
  6
BYLAYER
 49
-0.5
 62
   256
  6
BYLAYER
  0
ACDBPLACEHOLDER
  5
F
102
{ACAD_REACTORS
330
E
102
}
330
E
  0
VISUALSTYLE
  5
2F
102
{ACAD_REACTORS
330
2A
102
}
330
2A
100
AcDbVisualStyle
  2
2dWireframe
 70
     4
 71
     0
 72
     2
 73
     0
 90
        0
 40
-0.6
 41
-30.0
 62
     5
 63
     7
 74
     1
 91
        4
 64
     7
 65
   257
 75
     1
175
     1
 42
1.0
 92
        0
 66
   257
 43
1.0
 76
     1
 77
     6
 78
     2
 67
     7
 79
     5
170
     0
171
     0
290
     0
174
     0
 93
        1
 44
0.0
173
     0
291
     0
 45
0.0
1001
ACAD
1000
AcDbSavedByObjectVersion
1070
     0
  0
VISUALSTYLE
  5
31
102
{ACAD_REACTORS
330
2A
102
}
330
2A
100
AcDbVisualStyle
  2
3D Hidden
 70
     6
 71
     1
 72
     2
 73
     2
 90
        0
 40
-0.6
 41
-30.0
 62
     5
 63
     7
 74
     2
 91
        2
 64
     7
 65
   257
 75
     2
175
     1
 42
40.0
 92
        0
 66
   257
 43
1.0
 76
     1
 77
     6
 78
     2
 67
     7
 79
     3
170
     0
171
     0
290
     0
174
     0
 93
        1
 44
0.0
173
     0
291
     0
 45
0.0
1001
ACAD
1000
AcDbSavedByObjectVersion
1070
     0
  0
VISUALSTYLE
  5
30
102
{ACAD_REACTORS
330
2A
102
}
330
2A
100
AcDbVisualStyle
  2
3dWireframe
 70
     5
 71
     0
 72
     2
 73
     0
 90
        0
 40
-0.6
 41
-30.0
 62
     5
 63
     7
 74
     1
 91
        4
 64
     7
 65
   257
 75
     1
175
     1
 42
1.0
 92
        0
 66
   257
 43
1.0
 76
     1
 77
     6
 78
     2
 67
     7
 79
     5
170
     0
171
     0
290
     0
174
     0
 93
        1
 44
0.0
173
     0
291
     0
 45
0.0
1001
ACAD
1000
AcDbSavedByObjectVersion
1070
     0
  0
VISUALSTYLE
  5
32
102
{ACAD_REACTORS
330
2A
102
}
330
2A
100
AcDbVisualStyle
  2
Basic
 70
     7
 71
     1
 72
     0
 73
     1
 90
        0
 40
-0.6
 41
-30.0
 62
     5
 63
     7
 74
     0
 91
        4
 64
     7
 65
   257
 75
     1
175
     1
 42
1.0
 92
        8
 66
     7
 43
1.0
 76
     1
 77
     6
 78
     2
 67
     7
 79
     5
170
     0
171
     0
290
     0
174
     0
 93
        1
 44
0.0
173
     0
291
     1
 45
0.0
1001
ACAD
1000
AcDbSavedByObjectVersion
1070
     0
  0
VISUALSTYLE
  5
36
102
{ACAD_REACTORS
330
2A
102
}
330
2A
100
AcDbVisualStyle
  2
Brighten
 70
    12
 71
     2
 72
     2
 73
     0
 90
        0
 40
-0.6
 41
-30.0
 62
     5
 63
     7
 74
     1
 91
        4
 64
     7
 65
   257
 75
     1
175
     1
 42
1.0
 92
        8
 66
     7
 43
1.0
 76
     1
 77
     6
 78
     2
 67
     7
 79
     5
170
     0
171
     0
290
     0
174
     0
 93
        1
 44
50.0
173
     0
291
     1
 45
0.0
1001
ACAD
1000
AcDbSavedByObjectVersion
1070
     0
  0
VISUALSTYLE
  5
3A
102
{ACAD_REACTORS
330
2A
102
}
330
2A
100
AcDbVisualStyle
  2
ColorChange
 70
    16
 71
     2
 72
     2
 73
     3
 90
        0
 40
-0.6
 41
-30.0
 62
     5
 63
     8
 74
     1
 91
        4
 64
     7
 65
   257
 75
     1
175
     1
 42
1.0
 92
        8
 66
     8
 43
1.0
 76
     1
 77
     6
 78
     2
 67
     7
 79
     5
170
     0
171
     0
290
     0
174
     0
 93
        1
 44
0.0
173
     0
291
     1
 45
0.0
1001
ACAD
1000
AcDbSavedByObjectVersion
1070
     0
  0
VISUALSTYLE
  5
34
102
{ACAD_REACTORS
330
2A
102
}
330
2A
100
AcDbVisualStyle
  2
Conceptual
 70
     9
 71
     3
 72
     2
 73
     0
 90
        0
 40
-0.6
 41
-30.0
 62
     5
 63
     7
 74
     2
 91
        2
 64
     7
 65
   257
 75
     1
175
     1
 42
40.0
 92
        8
 66
     7
 43
1.0
 76
     1
 77
     6
 78
     2
 67
     7
 79
     3
170
     0
171
     0
290
     0
174
     0
 93
        1
 44
0.0
173
     0
291
     0
 45
0.0
1001
ACAD
1000
AcDbSavedByObjectVersion
1070
     0
  0
VISUALSTYLE
  5
35
102
{ACAD_REACTORS
330
2A
102
}
330
2A
100
AcDbVisualStyle
  2
Dim
 70
    11
 71
     2
 72
     2
 73
     0
 90
        0
 40
-0.6
 41
-30.0
 62
     5
 63
     7
 74
     1
 91
        4
 64
     7
 65
   257
 75
     1
175
     1
 42
1.0
 92
        8
 66
     7
 43
1.0
 76
     1
 77
     6
 78
     2
 67
     7
 79
     5
170
     0
171
     0
290
     0
174
     0
 93
        1
 44
-50.0
173
     0
291
     1
 45
0.0
1001
ACAD
1000
AcDbSavedByObjectVersion
1070
     0
  0
VISUALSTYLE
  5
39
102
{ACAD_REACTORS
330
2A
102
}
330
2A
100
AcDbVisualStyle
  2
Facepattern
 70
    15
 71
     2
 72
     2
 73
     0
 90
        0
 40
-0.6
 41
-30.0
 62
     5
 63
     7
 74
     1
 91
        4
 64
     7
 65
   257
 75
     1
175
     1
 42
1.0
 92
        8
 66
     7
 43
1.0
 76
     1
 77
     6
 78
     2
 67
     7
 79
     5
170
     0
171
     0
290
     0
174
     0
 93
        1
 44
0.0
173
     0
291
     1
 45
0.0
1001
ACAD
1000
AcDbSavedByObjectVersion
1070
     0
  0
VISUALSTYLE
  5
2B
102
{ACAD_REACTORS
330
2A
102
}
330
2A
100
AcDbVisualStyle
  2
Flat
 70
     0
 71
     2
 72
     1
 73
     1
 90
        2
 40
-0.6
 41
30.0
 62
     5
 63
     7
 74
     0
 91
        4
 64
     7
 65
   257
 75
     1
175
     1
 42
1.0
 92
        8
 66
     7
 43
1.0
 76
     1
 77
     6
 78
     2
 67
     7
 79
     5
170
     0
171
     0
290
     0
174
     0
 93
       13
 44
0.0
173
     0
291
     1
 45
0.0
1001
ACAD
1000
AcDbSavedByObjectVersion
1070
     0
  0
VISUALSTYLE
  5
2C
102
{ACAD_REACTORS
330
2A
102
}
330
2A
100
AcDbVisualStyle
  2
FlatWithEdges
 70
     1
 71
     2
 72
     1
 73
     1
 90
        2
 40
-0.6
 41
30.0
 62
     5
 63
     7
 74
     1
 91
        4
 64
     7
 65
   257
 75
     1
175
     1
 42
1.0
 92
        0
 66
   257
 43
1.0
 76
     1
 77
     6
 78
     2
 67
     7
 79
     5
170
     0
171
     0
290
     0
174
     0
 93
       13
 44
0.0
173
     0
291
     1
 45
0.0
1001
ACAD
1000
AcDbSavedByObjectVersion
1070
     0
  0
VISUALSTYLE
  5
2D
102
{ACAD_REACTORS
330
2A
102
}
330
2A
100
AcDbVisualStyle
  2
Gouraud
 70
     2
 71
     2
 72
     2
 73
     1
 90
        2
 40
-0.6
 41
30.0
 62
     5
 63
     7
 74
     0
 91
        4
 64
     7
 65
   257
 75
     1
175
     1
 42
1.0
 92
        0
 66
     7
 43
1.0
 76
     1
 77
     6
 78
     2
 67
     7
 79
     5
170
     0
171
     0
290
     0
174
     0
 93
       13
 44
0.0
173
     0
291
     1
 45
0.0
1001
ACAD
1000
AcDbSavedByObjectVersion
1070
     0
  0
VISUALSTYLE
  5
2E
102
{ACAD_REACTORS
330
2A
102
}
330
2A
100
AcDbVisualStyle
  2
GouraudWithEdges
 70
     3
 71
     2
 72
     2
 73
     1
 90
        2
 40
-0.6
 41
30.0
 62
     5
 63
     7
 74
     1
 91
        4
 64
     7
 65
   257
 75
     1
175
     1
 42
1.0
 92
        0
 66
   257
 43
1.0
 76
     1
 77
     6
 78
     2
 67
     7
 79
     5
170
     0
171
     0
290
     0
174
     0
 93
       13
 44
0.0
173
     0
291
     1
 45
0.0
1001
ACAD
1000
AcDbSavedByObjectVersion
1070
     0
  0
VISUALSTYLE
  5
38
102
{ACAD_REACTORS
330
2A
102
}
330
2A
100
AcDbVisualStyle
  2
Linepattern
 70
    14
 71
     2
 72
     2
 73
     0
 90
        0
 40
-0.6
 41
-30.0
 62
     5
 63
     7
 74
     1
 91
        4
 64
     7
 65
   257
 75
     7
175
     7
 42
1.0
 92
        8
 66
     7
 43
1.0
 76
     1
 77
     6
 78
     2
 67
     7
 79
     5
170
     0
171
     0
290
     0
174
     0
 93
        1
 44
0.0
173
     0
291
     1
 45
0.0
1001
ACAD
1000
AcDbSavedByObjectVersion
1070
     0
  0
VISUALSTYLE
  5
33
102
{ACAD_REACTORS
330
2A
102
}
330
2A
100
AcDbVisualStyle
  2
Realistic
 70
     8
 71
     2
 72
     2
 73
     0
 90
        0
 40
-0.6
 41
-30.0
 62
     5
 63
     7
 74
     1
 91
        0
 64
     7
 65
   257
 75
     1
175
     1
 42
1.0
 92
        8
 66
     8
 43
1.0
 76
     1
 77
     6
 78
     2
 67
     7
 79
     5
170
     0
171
     0
290
     0
174
     0
 93
       13
 44
0.0
173
     0
291
     0
 45
0.0
1001
ACAD
1000
AcDbSavedByObjectVersion
1070
     0
  0
VISUALSTYLE
  5
37
102
{ACAD_REACTORS
330
2A
102
}
330
2A
100
AcDbVisualStyle
  2
Thicken
 70
    13
 71
     2
 72
     2
 73
     0
 90
        0
 40
-0.6
 41
-30.0
 62
     5
 63
     7
 74
     1
 91
        4
 64
     7
 65
   257
 75
     1
175
     1
 42
1.0
 92
       12
 66
     7
 43
1.0
 76
     1
 77
     6
 78
     2
 67
     7
 79
     5
170
     0
171
     0
290
     0
174
     0
 93
        1
 44
0.0
173
     0
291
     1
 45
0.0
1001
ACAD
1000
AcDbSavedByObjectVersion
1070
     0
  0
ENDSEC
  0
EOF
