 0
SECTION
 2
ENTITIES
  0
LINE
  8
MY3DLAYER
10
5.12237793744688
20
34.843760719961
30
0.0
11
5.10014369220377
21
34.8147844874143
31
0.0
  0
LINE
  8
MY3DLAYER
10
5.15135416999365
20
34.8659949652041
30
0.0
11
5.12237793744688
21
34.843760719961
31
0.0
  0
LINE
  8
MY3DLAYER
10
5.1850977074815
20
34.8799719960741
30
0.0
11
5.15135416999365
21
34.8659949652041
31
0.0
  0
LINE
  8
MY3DLAYER
10
5.22130898359453
20
34.8847393010152
30
0.0
11
5.1850977074815
21
34.8799719960741
31
0.0
  0
LINE
  8
MY3DLAYER
10
5.25752025970755
20
34.8799719960741
30
0.0
11
5.22130898359453
21
34.8847393010152
31
0.0
  0
LINE
  8
MY3DLAYER
10
5.2912637971954
20
34.8659949652041
30
0.0
11
5.25752025970755
21
34.8799719960741
31
0.0
  0
LINE
  8
MY3DLAYER
10
5.32024002974217
20
34.843760719961
30
0.0
11
5.2912637971954
21
34.8659949652041
31
0.0
  0
LINE
  8
MY3DLAYER
10
5.34247427498528
20
34.8147844874143
30
0.0
11
5.32024002974217
21
34.843760719961
31
0.0
  0
LINE
  8
MY3DLAYER
10
5.35645130585519
20
34.7810409499264
30
0.0
11
5.34247427498528
21
34.8147844874143
31
0.0
  0
LINE
  8
MY3DLAYER
10
5.3612186107963
20
34.7448296738134
30
0.0
11
5.35645130585519
21
34.7810409499264
31
0.0
  0
LINE
  8
MY3DLAYER
10
5.35645130585519
20
34.7086183977004
30
0.0
11
5.3612186107963
21
34.7448296738134
31
0.0
  0
LINE
  8
MY3DLAYER
10
5.34247427498528
20
34.6748748602125
30
0.0
11
5.35645130585519
21
34.7086183977004
31
0.0
  0
LINE
  8
MY3DLAYER
10
5.32024002974217
20
34.6458986276658
30
0.0
11
5.34247427498528
21
34.6748748602125
31
0.0
  0
LINE
  8
MY3DLAYER
10
5.2912637971954
20
34.6236643824227
30
0.0
11
5.32024002974217
21
34.6458986276658
31
0.0
  0
LINE
  8
MY3DLAYER
10
5.25752025970755
20
34.6096873515528
30
0.0
11
5.2912637971954
21
34.6236643824227
31
0.0
  0
LINE
  8
MY3DLAYER
10
5.22130898359453
20
34.6049200466116
30
0.0
11
5.25752025970755
21
34.6096873515528
31
0.0
  0
LINE
  8
MY3DLAYER
10
5.1850977074815
20
34.6096873515528
30
0.0
11
5.22130898359453
21
34.6049200466116
31
0.0
  0
LINE
  8
MY3DLAYER
10
5.15135416999365
20
34.6236643824227
30
0.0
11
5.1850977074815
21
34.6096873515528
31
0.0
  0
LINE
  8
MY3DLAYER
10
5.12237793744688
20
34.6458986276658
30
0.0
11
5.15135416999365
21
34.6236643824227
31
0.0
  0
LINE
  8
MY3DLAYER
10
5.10014369220377
20
34.6748748602125
30
0.0
11
5.12237793744688
21
34.6458986276658
31
0.0
  0
LINE
  8
MY3DLAYER
10
5.08616666133386
20
34.7086183977004
30
0.0
11
5.10014369220377
21
34.6748748602125
31
0.0
  0
LINE
  8
MY3DLAYER
10
5.08139935639275
20
34.7448296738134
30
0.0
11
5.08616666133386
21
34.7086183977004
31
0.0
  0
LINE
  8
MY3DLAYER
10
5.08616666133386
20
34.7810409499264
30
0.0
11
5.08139935639275
21
34.7448296738134
31
0.0
  0
LINE
  8
MY3DLAYER
10
5.10014369220377
20
34.8147844874143
30
0.0
11
5.08616666133386
21
34.7810409499264
31
0.0
  0
LINE
  8
MY3DLAYER
10
5.08616666133386
20
32.9586183977004
30
0.0
11
5.10014369220377
21
32.9248748602125
31
0.0
  0
LINE
  8
MY3DLAYER
10
5.08139935639275
20
32.9948296738134
30
0.0
11
5.08616666133386
21
32.9586183977004
31
0.0
  0
LINE
  8
MY3DLAYER
10
5.08616666133386
20
33.0310409499264
30
0.0
11
5.08139935639275
21
32.9948296738134
31
0.0
  0
LINE
  8
MY3DLAYER
10
5.10014369220377
20
33.0647844874143
30
0.0
11
5.08616666133386
21
33.0310409499264
31
0.0
  0
LINE
  8
MY3DLAYER
10
5.12237793744688
20
33.093760719961
30
0.0
11
5.10014369220377
21
33.0647844874143
31
0.0
  0
LINE
  8
MY3DLAYER
10
5.15135416999365
20
33.1159949652041
30
0.0
11
5.12237793744688
21
33.093760719961
31
0.0
  0
LINE
  8
MY3DLAYER
10
5.1850977074815
20
33.1299719960741
30
0.0
11
5.15135416999365
21
33.1159949652041
31
0.0
  0
LINE
  8
MY3DLAYER
10
5.22130898359453
20
33.1347393010152
30
0.0
11
5.1850977074815
21
33.1299719960741
31
0.0
  0
LINE
  8
MY3DLAYER
10
5.25752025970755
20
33.1299719960741
30
0.0
11
5.22130898359453
21
33.1347393010152
31
0.0
  0
LINE
  8
MY3DLAYER
10
5.2912637971954
20
33.1159949652041
30
0.0
11
5.25752025970755
21
33.1299719960741
31
0.0
  0
LINE
  8
MY3DLAYER
10
5.32024002974217
20
33.093760719961
30
0.0
11
5.2912637971954
21
33.1159949652041
31
0.0
  0
LINE
  8
MY3DLAYER
10
5.34247427498528
20
33.0647844874143
30
0.0
11
5.32024002974217
21
33.093760719961
31
0.0
  0
LINE
  8
MY3DLAYER
10
5.35645130585519
20
33.0310409499264
30
0.0
11
5.34247427498528
21
33.0647844874143
31
0.0
  0
LINE
  8
MY3DLAYER
10
5.3612186107963
20
32.9948296738134
30
0.0
11
5.35645130585519
21
33.0310409499264
31
0.0
  0
LINE
  8
MY3DLAYER
10
5.35645130585519
20
32.9586183977004
30
0.0
11
5.3612186107963
21
32.9948296738134
31
0.0
  0
LINE
  8
MY3DLAYER
10
5.34247427498528
20
32.9248748602125
30
0.0
11
5.35645130585519
21
32.9586183977004
31
0.0
  0
LINE
  8
MY3DLAYER
10
5.32024002974217
20
32.8958986276658
30
0.0
11
5.34247427498528
21
32.9248748602125
31
0.0
  0
LINE
  8
MY3DLAYER
10
5.2912637971954
20
32.8736643824227
30
0.0
11
5.32024002974217
21
32.8958986276658
31
0.0
  0
LINE
  8
MY3DLAYER
10
5.25752025970755
20
32.8596873515528
30
0.0
11
5.2912637971954
21
32.8736643824227
31
0.0
  0
LINE
  8
MY3DLAYER
10
5.22130898359453
20
32.8549200466116
30
0.0
11
5.25752025970755
21
32.8596873515528
31
0.0
  0
LINE
  8
MY3DLAYER
10
5.1850977074815
20
32.8596873515528
30
0.0
11
5.22130898359453
21
32.8549200466116
31
0.0
  0
LINE
  8
MY3DLAYER
10
5.15135416999365
20
32.8736643824227
30
0.0
11
5.1850977074815
21
32.8596873515528
31
0.0
  0
LINE
  8
MY3DLAYER
10
5.12237793744688
20
32.8958986276658
30
0.0
11
5.15135416999365
21
32.8736643824227
31
0.0
  0
LINE
  8
MY3DLAYER
10
5.10014369220377
20
32.9248748602125
30
0.0
11
5.12237793744688
21
32.8958986276658
31
0.0
  0
LINE
  8
MY3DLAYER
10
6.83139935639275
20
34.7448296738134
30
0.0
11
6.83616666133386
21
34.7086183977004
31
0.0
  0
LINE
  8
MY3DLAYER
10
6.83616666133386
20
34.7810409499264
30
0.0
11
6.83139935639275
21
34.7448296738134
31
0.0
  0
LINE
  8
MY3DLAYER
10
6.85014369220377
20
34.8147844874143
30
0.0
11
6.83616666133386
21
34.7810409499264
31
0.0
  0
LINE
  8
MY3DLAYER
10
6.87237793744688
20
34.843760719961
30
0.0
11
6.85014369220377
21
34.8147844874143
31
0.0
  0
LINE
  8
MY3DLAYER
10
6.90135416999365
20
34.8659949652041
30
0.0
11
6.87237793744688
21
34.843760719961
31
0.0
  0
LINE
  8
MY3DLAYER
10
6.9350977074815
20
34.8799719960741
30
0.0
11
6.90135416999365
21
34.8659949652041
31
0.0
  0
LINE
  8
MY3DLAYER
10
6.97130898359453
20
34.8847393010152
30
0.0
11
6.9350977074815
21
34.8799719960741
31
0.0
  0
LINE
  8
MY3DLAYER
10
7.00752025970755
20
34.8799719960741
30
0.0
11
6.97130898359453
21
34.8847393010152
31
0.0
  0
LINE
  8
MY3DLAYER
10
7.0412637971954
20
34.8659949652041
30
0.0
11
7.00752025970755
21
34.8799719960741
31
0.0
  0
LINE
  8
MY3DLAYER
10
7.07024002974217
20
34.843760719961
30
0.0
11
7.0412637971954
21
34.8659949652041
31
0.0
  0
LINE
  8
MY3DLAYER
10
7.09247427498528
20
34.8147844874143
30
0.0
11
7.07024002974217
21
34.843760719961
31
0.0
  0
LINE
  8
MY3DLAYER
10
7.10645130585519
20
34.7810409499264
30
0.0
11
7.09247427498528
21
34.8147844874143
31
0.0
  0
LINE
  8
MY3DLAYER
10
7.1112186107963
20
34.7448296738134
30
0.0
11
7.10645130585519
21
34.7810409499264
31
0.0
  0
LINE
  8
MY3DLAYER
10
7.10645130585519
20
34.7086183977004
30
0.0
11
7.1112186107963
21
34.7448296738134
31
0.0
  0
LINE
  8
MY3DLAYER
10
7.09247427498528
20
34.6748748602125
30
0.0
11
7.10645130585519
21
34.7086183977004
31
0.0
  0
LINE
  8
MY3DLAYER
10
7.07024002974217
20
34.6458986276658
30
0.0
11
7.09247427498528
21
34.6748748602125
31
0.0
  0
LINE
  8
MY3DLAYER
10
7.0412637971954
20
34.6236643824227
30
0.0
11
7.07024002974217
21
34.6458986276658
31
0.0
  0
LINE
  8
MY3DLAYER
10
7.00752025970755
20
34.6096873515528
30
0.0
11
7.0412637971954
21
34.6236643824227
31
0.0
  0
LINE
  8
MY3DLAYER
10
6.97130898359453
20
34.6049200466116
30
0.0
11
7.00752025970755
21
34.6096873515528
31
0.0
  0
LINE
  8
MY3DLAYER
10
6.9350977074815
20
34.6096873515528
30
0.0
11
6.97130898359453
21
34.6049200466116
31
0.0
  0
LINE
  8
MY3DLAYER
10
6.90135416999365
20
34.6236643824227
30
0.0
11
6.9350977074815
21
34.6096873515528
31
0.0
  0
LINE
  8
MY3DLAYER
10
6.87237793744688
20
34.6458986276658
30
0.0
11
6.90135416999365
21
34.6236643824227
31
0.0
  0
LINE
  8
MY3DLAYER
10
6.85014369220377
20
34.6748748602125
30
0.0
11
6.87237793744688
21
34.6458986276658
31
0.0
  0
LINE
  8
MY3DLAYER
10
6.83616666133386
20
34.7086183977004
30
0.0
11
6.85014369220377
21
34.6748748602125
31
0.0
  0
LINE
  8
MY3DLAYER
10
7.84630898359453
20
35.6198296738134
30
0.0
11
7.84630898359453
21
32.1198296738134
31
0.0
  0
LINE
  8
MY3DLAYER
10
7.84630898359453
20
32.1198296738134
30
0.0
11
4.34630898359453
21
32.1198296738134
31
0.0
  0
LINE
  8
MY3DLAYER
10
4.34630898359453
20
32.1198296738134
30
0.0
11
4.34630898359453
21
35.6198296738134
31
0.0
  0
LINE
  8
MY3DLAYER
10
4.34630898359453
20
35.6198296738134
30
0.0
11
7.84630898359453
21
35.6198296738134
31
0.0
  0
LINE
  8
MY3DLAYER
10
7.0412637971954
20
33.1159949652041
30
0.0
11
7.00752025970755
21
33.1299719960741
31
0.0
  0
LINE
  8
MY3DLAYER
10
7.00752025970755
20
33.1299719960741
30
0.0
11
6.97130898359453
21
33.1347393010152
31
0.0
  0
LINE
  8
MY3DLAYER
10
6.97130898359453
20
33.1347393010152
30
0.0
11
6.9350977074815
21
33.1299719960741
31
0.0
  0
LINE
  8
MY3DLAYER
10
6.9350977074815
20
33.1299719960741
30
0.0
11
6.90135416999365
21
33.1159949652041
31
0.0
  0
LINE
  8
MY3DLAYER
10
6.90135416999365
20
33.1159949652041
30
0.0
11
6.87237793744688
21
33.093760719961
31
0.0
  0
LINE
  8
MY3DLAYER
10
6.87237793744688
20
33.093760719961
30
0.0
11
6.85014369220377
21
33.0647844874143
31
0.0
  0
LINE
  8
MY3DLAYER
10
6.85014369220377
20
33.0647844874143
30
0.0
11
6.83616666133386
21
33.0310409499264
31
0.0
  0
LINE
  8
MY3DLAYER
10
6.83616666133386
20
33.0310409499264
30
0.0
11
6.83139935639275
21
32.9948296738134
31
0.0
  0
LINE
  8
MY3DLAYER
10
6.83139935639275
20
32.9948296738134
30
0.0
11
6.83616666133386
21
32.9586183977004
31
0.0
  0
LINE
  8
MY3DLAYER
10
6.83616666133386
20
32.9586183977004
30
0.0
11
6.85014369220377
21
32.9248748602125
31
0.0
  0
LINE
  8
MY3DLAYER
10
6.85014369220377
20
32.9248748602125
30
0.0
11
6.87237793744688
21
32.8958986276658
31
0.0
  0
LINE
  8
MY3DLAYER
10
6.87237793744688
20
32.8958986276658
30
0.0
11
6.90135416999365
21
32.8736643824227
31
0.0
  0
LINE
  8
MY3DLAYER
10
6.90135416999365
20
32.8736643824227
30
0.0
11
6.9350977074815
21
32.8596873515528
31
0.0
  0
LINE
  8
MY3DLAYER
10
6.9350977074815
20
32.8596873515528
30
0.0
11
6.97130898359453
21
32.8549200466116
31
0.0
  0
LINE
  8
MY3DLAYER
10
6.97130898359453
20
32.8549200466116
30
0.0
11
7.00752025970755
21
32.8596873515528
31
0.0
  0
LINE
  8
MY3DLAYER
10
7.00752025970755
20
32.8596873515528
30
0.0
11
7.0412637971954
21
32.8736643824227
31
0.0
  0
LINE
  8
MY3DLAYER
10
7.0412637971954
20
32.8736643824227
30
0.0
11
7.07024002974217
21
32.8958986276658
31
0.0
  0
LINE
  8
MY3DLAYER
10
7.07024002974217
20
32.8958986276658
30
0.0
11
7.09247427498528
21
32.9248748602125
31
0.0
  0
LINE
  8
MY3DLAYER
10
7.09247427498528
20
32.9248748602125
30
0.0
11
7.10645130585519
21
32.9586183977004
31
0.0
  0
LINE
  8
MY3DLAYER
10
7.10645130585519
20
32.9586183977004
30
0.0
11
7.1112186107963
21
32.9948296738134
31
0.0
  0
LINE
  8
MY3DLAYER
10
7.1112186107963
20
32.9948296738134
30
0.0
11
7.10645130585519
21
33.0310409499264
31
0.0
  0
LINE
  8
MY3DLAYER
10
7.10645130585519
20
33.0310409499264
30
0.0
11
7.09247427498528
21
33.0647844874143
31
0.0
  0
LINE
  8
MY3DLAYER
10
7.09247427498528
20
33.0647844874143
30
0.0
11
7.07024002974217
21
33.093760719961
31
0.0
  0
LINE
  8
MY3DLAYER
10
7.07024002974217
20
33.093760719961
30
0.0
11
7.0412637971954
21
33.1159949652041
31
0.0
  0
LINE
  8
MY3DLAYER
10
0.471969806971487
20
39.9330938677029
30
0.0
11
0.376822823353535
21
39.8861725679311
31
0.0
  0
LINE
  8
MY3DLAYER
10
0.572427253547943
20
39.9671945757779
30
0.0
11
0.471969806971487
21
39.9330938677029
31
0.0
  0
LINE
  8
MY3DLAYER
10
0.676476308319963
20
39.9878912195862
30
0.0
11
0.572427253547943
21
39.9671945757779
31
0.0
  0
LINE
  8
MY3DLAYER
10
0.782336663112488
20
39.9948296738141
30
0.0
11
0.676476308319963
21
39.9878912195862
31
0.0
  0
LINE
  8
MY3DLAYER
10
0.782336663112488
20
39.9948296738141
30
0.0
11
11.4102813040773
21
39.9948296738134
31
0.0
  0
LINE
  8
MY3DLAYER
10
11.5161416588699
20
39.9878912195854
30
0.0
11
11.4102813040773
21
39.9948296738134
31
0.0
  0
LINE
  8
MY3DLAYER
10
11.6201907136418
20
39.9671945757771
30
0.0
11
11.5161416588699
21
39.9878912195854
31
0.0
  0
LINE
  8
MY3DLAYER
10
11.7206481602184
20
39.9330938677022
30
0.0
11
11.6201907136418
21
39.9671945757771
31
0.0
  0
LINE
  8
MY3DLAYER
10
11.8157951438363
20
39.8861725679303
30
0.0
11
11.7206481602184
21
39.9330938677022
31
0.0
  0
LINE
  8
MY3DLAYER
10
11.9040036732263
20
39.8272335129096
30
0.0
11
11.8157951438363
21
39.8861725679303
31
0.0
  0
LINE
  8
MY3DLAYER
10
11.9837644759944
20
39.7572851662126
30
0.0
11
11.9040036732263
21
39.8272335129096
31
0.0
  0
LINE
  8
MY3DLAYER
10
12.0537128226915
20
39.6775243634444
30
0.0
11
11.9837644759944
21
39.7572851662126
31
0.0
  0
LINE
  8
MY3DLAYER
10
12.1126518777122
20
39.5893158340544
30
0.0
11
12.0537128226915
21
39.6775243634444
31
0.0
  0
LINE
  8
MY3DLAYER
10
12.1595731774841
20
39.4941688504365
30
0.0
11
12.1126518777122
21
39.5893158340544
31
0.0
  0
LINE
  8
MY3DLAYER
10
12.193673885559
20
39.39371140386
30
0.0
11
12.1595731774841
21
39.4941688504365
31
0.0
  0
LINE
  8
MY3DLAYER
10
12.2143705293673
20
39.289662349088
30
0.0
11
12.193673885559
21
39.39371140386
31
0.0
  0
LINE
  8
MY3DLAYER
10
12.2213089835953
20
39.1838019942955
30
0.0
11
12.2143705293673
21
39.289662349088
31
0.0
  0
LINE
  8
MY3DLAYER
10
12.2213089835953
20
39.1838019942955
30
0.0
11
12.2213089835945
21
28.5558573533306
31
0.0
  0
LINE
  8
MY3DLAYER
10
12.2143705293666
20
28.4499969985381
30
0.0
11
12.2213089835945
21
28.5558573533306
31
0.0
  0
LINE
  8
MY3DLAYER
10
12.1936738855582
20
28.3459479437661
30
0.0
11
12.2143705293666
21
28.4499969985381
31
0.0
  0
LINE
  8
MY3DLAYER
10
12.1595731774833
20
28.2454904971896
30
0.0
11
12.1936738855582
21
28.3459479437661
31
0.0
  0
LINE
  8
MY3DLAYER
10
12.1126518777114
20
28.1503435135716
30
0.0
11
12.1595731774833
21
28.2454904971896
31
0.0
  0
LINE
  8
MY3DLAYER
10
12.0537128226908
20
28.0621349841817
30
0.0
11
12.1126518777114
21
28.1503435135716
31
0.0
  0
LINE
  8
MY3DLAYER
10
11.9837644759937
20
27.9823741814135
30
0.0
11
12.0537128226908
21
28.0621349841817
31
0.0
  0
LINE
  8
MY3DLAYER
10
11.9040036732255
20
27.9124258347164
30
0.0
11
11.9837644759937
21
27.9823741814135
31
0.0
  0
LINE
  8
MY3DLAYER
10
11.8157951438355
20
27.8534867796957
30
0.0
11
11.9040036732255
21
27.9124258347164
31
0.0
  0
LINE
  8
MY3DLAYER
10
11.7206481602176
20
27.8065654799239
30
0.0
11
11.8157951438355
21
27.8534867796957
31
0.0
  0
LINE
  8
MY3DLAYER
10
11.6201907136411
20
27.772464771849
30
0.0
11
11.7206481602176
21
27.8065654799239
31
0.0
  0
LINE
  8
MY3DLAYER
10
11.5161416588691
20
27.7517681280406
30
0.0
11
11.6201907136411
21
27.772464771849
31
0.0
  0
LINE
  8
MY3DLAYER
10
11.4102813040766
20
27.7448296738127
30
0.0
11
11.5161416588691
21
27.7517681280406
31
0.0
  0
LINE
  8
MY3DLAYER
10
11.4102813040766
20
27.7448296738127
30
0.0
11
0.782336663111749
21
27.7448296738134
31
0.0
  0
LINE
  8
MY3DLAYER
10
0.676476308319167
20
27.7517681280414
30
0.0
11
0.782336663111749
21
27.7448296738134
31
0.0
  0
LINE
  8
MY3DLAYER
10
0.572427253547204
20
27.7724647718497
30
0.0
11
0.676476308319167
21
27.7517681280414
31
0.0
  0
LINE
  8
MY3DLAYER
10
0.471969806970691
20
27.8065654799246
30
0.0
11
0.572427253547204
21
27.7724647718497
31
0.0
  0
LINE
  8
MY3DLAYER
10
0.37682282335274
20
27.8534867796965
30
0.0
11
0.471969806970691
21
27.8065654799246
31
0.0
  0
LINE
  8
MY3DLAYER
10
0.288614293962752
20
27.9124258347172
30
0.0
11
0.37682282335274
21
27.8534867796965
31
0.0
  0
LINE
  8
MY3DLAYER
10
0.208853491194617
20
27.9823741814143
30
0.0
11
0.288614293962752
21
27.9124258347172
31
0.0
  0
LINE
  8
MY3DLAYER
10
0.138905144497528
20
28.0621349841824
30
0.0
11
0.208853491194617
21
27.9823741814143
31
0.0
  0
LINE
  8
MY3DLAYER
10
0.0799660894768692
20
28.1503435135724
30
0.0
11
0.138905144497528
21
28.0621349841824
31
0.0
  0
LINE
  8
MY3DLAYER
10
0.0330447897049737
20
28.2454904971904
30
0.0
11
0.0799660894768692
21
28.1503435135724
31
0.0
  0
LINE
  8
MY3DLAYER
10
-0.00105591836992858
20
28.3459479437668
30
0.0
11
0.0330447897049737
21
28.2454904971904
31
0.0
  0
LINE
  8
MY3DLAYER
10
-0.0217525621782499
20
28.4499969985388
30
0.0
11
-0.00105591836992858
21
28.3459479437668
31
0.0
  0
LINE
  8
MY3DLAYER
10
-0.0286910164062135
20
28.5558573533314
30
0.0
11
-0.0217525621782499
21
28.4499969985388
31
0.0
  0
LINE
  8
MY3DLAYER
10
-0.0286910164062135
20
28.5558573533314
30
0.0
11
-0.0286910164054461
21
39.1838019942962
31
0.0
  0
LINE
  8
MY3DLAYER
10
-0.021752562177511
20
39.2896623490887
30
0.0
11
-0.0286910164054461
21
39.1838019942962
31
0.0
  0
LINE
  8
MY3DLAYER
10
-0.00105591836918961
20
39.3937114038607
30
0.0
11
-0.021752562177511
21
39.2896623490887
31
0.0
  0
LINE
  8
MY3DLAYER
10
0.0330447897057411
20
39.4941688504372
30
0.0
11
-0.00105591836918961
21
39.3937114038607
31
0.0
  0
LINE
  8
MY3DLAYER
10
0.0799660894776082
20
39.5893158340552
30
0.0
11
0.0330447897057411
21
39.4941688504372
31
0.0
  0
LINE
  8
MY3DLAYER
10
0.138905144498295
20
39.6775243634452
30
0.0
11
0.0799660894776082
21
39.5893158340552
31
0.0
  0
LINE
  8
MY3DLAYER
10
0.208853491195356
20
39.7572851662133
30
0.0
11
0.138905144498295
21
39.6775243634452
31
0.0
  0
LINE
  8
MY3DLAYER
10
0.288614293963519
20
39.8272335129104
30
0.0
11
0.208853491195356
21
39.7572851662133
31
0.0
  0
LINE
  8
MY3DLAYER
10
0.376822823353535
20
39.8861725679311
30
0.0
11
0.288614293963519
21
39.8272335129104
31
0.0
  0
LINE
  8
MY3DLAYER
10
10.3963089835948
20
30.4948296738134
30
0.0
11
10.4092531574189
21
30.484897259901
31
0.0
  0
LINE
  8
MY3DLAYER
10
10.4092531574189
20
30.484897259901
30
0.0
11
10.4243269671
21
30.4786534834945
31
0.0
  0
LINE
  8
MY3DLAYER
10
10.4243269671
20
30.4786534834945
30
0.0
11
10.4405031574189
21
30.4765238476376
31
0.0
  0
LINE
  8
MY3DLAYER
10
10.4405031574189
20
30.4765238476376
30
0.0
11
10.4566793477378
21
30.4786534834945
31
0.0
  0
LINE
  8
MY3DLAYER
10
10.4566793477378
20
30.4786534834945
30
0.0
11
10.4717531574189
21
30.484897259901
31
0.0
  0
LINE
  8
MY3DLAYER
10
10.4846973312431
20
30.4948296738134
30
0.0
11
10.5079206359464
21
30.4948296738134
31
0.0
  0
LINE
  8
MY3DLAYER
10
10.4717531574189
20
30.484897259901
30
0.0
11
10.4846973312431
21
30.4948296738134
31
0.0
  0
LINE
  8
MY3DLAYER
10
10.3963089835948
20
30.5832180214617
30
0.0
11
10.3863765696824
21
30.5702738476376
31
0.0
  0
LINE
  8
MY3DLAYER
10
10.3863765696824
20
30.5702738476376
30
0.0
11
10.3801327932759
21
30.5552000379565
31
0.0
  0
LINE
  8
MY3DLAYER
10
10.3801327932759
20
30.5552000379565
30
0.0
11
10.3780031574189
21
30.5390238476376
31
0.0
  0
LINE
  8
MY3DLAYER
10
10.3780031574189
20
30.5390238476376
30
0.0
11
10.3801327932759
21
30.5228476573187
31
0.0
  0
LINE
  8
MY3DLAYER
10
10.3801327932759
20
30.5228476573187
30
0.0
11
10.3863765696824
21
30.5077738476376
31
0.0
  0
LINE
  8
MY3DLAYER
10
10.3863765696824
20
30.5077738476376
30
0.0
11
10.3963089835948
21
30.4948296738134
31
0.0
  0
LINE
  8
MY3DLAYER
10
10.3963089835947
20
31.6198296738134
30
0.0
11
10.3863765696823
21
31.6068854999892
31
0.0
  0
LINE
  8
MY3DLAYER
10
10.3863765696823
20
31.6068854999892
30
0.0
11
10.3801327932758
21
31.5918116903081
31
0.0
  0
LINE
  8
MY3DLAYER
10
10.3801327932758
20
31.5918116903081
30
0.0
11
10.3780031574189
21
31.5756354999892
31
0.0
  0
LINE
  8
MY3DLAYER
10
10.3780031574189
20
31.5756354999892
30
0.0
11
10.3801327932758
21
31.5594593096703
31
0.0
  0
LINE
  8
MY3DLAYER
10
10.3801327932758
20
31.5594593096703
30
0.0
11
10.3863765696823
21
31.5443854999892
31
0.0
  0
LINE
  8
MY3DLAYER
10
10.3963089835947
20
31.5314413261651
30
0.0
11
10.3963089835948
21
30.5832180214617
31
0.0
  0
LINE
  8
MY3DLAYER
10
10.3863765696823
20
31.5443854999892
30
0.0
11
10.3963089835947
21
31.5314413261651
31
0.0
  0
LINE
  8
MY3DLAYER
10
10.484697331243
20
31.6198296738134
30
0.0
11
10.4717531574189
21
31.6297620877258
31
0.0
  0
LINE
  8
MY3DLAYER
10
10.4717531574189
20
31.6297620877258
30
0.0
11
10.4566793477378
21
31.6360058641323
31
0.0
  0
LINE
  8
MY3DLAYER
10
10.4566793477378
20
31.6360058641323
30
0.0
11
10.4405031574189
21
31.6381354999892
31
0.0
  0
LINE
  8
MY3DLAYER
10
10.4405031574189
20
31.6381354999892
30
0.0
11
10.4243269671
21
31.6360058641323
31
0.0
  0
LINE
  8
MY3DLAYER
10
10.4243269671
20
31.6360058641323
30
0.0
11
10.4092531574189
21
31.6297620877258
31
0.0
  0
LINE
  8
MY3DLAYER
10
10.4092531574189
20
31.6297620877258
30
0.0
11
10.3963089835947
21
31.6198296738134
31
0.0
  0
LINE
  8
MY3DLAYER
10
10.5963089835948
20
30.4948296738134
30
0.0
11
10.6062413975071
21
30.5077738476376
31
0.0
  0
LINE
  8
MY3DLAYER
10
10.6062413975071
20
30.5077738476376
30
0.0
11
10.6124851739137
21
30.5228476573187
31
0.0
  0
LINE
  8
MY3DLAYER
10
10.6124851739137
20
30.5228476573187
30
0.0
11
10.6146148097706
21
30.5390238476376
31
0.0
  0
LINE
  8
MY3DLAYER
10
10.6146148097706
20
30.5390238476376
30
0.0
11
10.6124851739137
21
30.5552000379565
31
0.0
  0
LINE
  8
MY3DLAYER
10
10.6124851739137
20
30.5552000379565
30
0.0
11
10.6062413975071
21
30.5702738476376
31
0.0
  0
LINE
  8
MY3DLAYER
10
10.5963089835948
20
30.5832180214617
30
0.0
11
10.5963089835947
21
31.5314413261651
31
0.0
  0
LINE
  8
MY3DLAYER
10
10.6062413975071
20
30.5702738476376
30
0.0
11
10.5963089835948
21
30.5832180214617
31
0.0
  0
LINE
  8
MY3DLAYER
10
10.5079206359464
20
30.4948296738134
30
0.0
11
10.5208648097706
21
30.484897259901
31
0.0
  0
LINE
  8
MY3DLAYER
10
10.5208648097706
20
30.484897259901
30
0.0
11
10.5359386194517
21
30.4786534834945
31
0.0
  0
LINE
  8
MY3DLAYER
10
10.5359386194517
20
30.4786534834945
30
0.0
11
10.5521148097706
21
30.4765238476376
31
0.0
  0
LINE
  8
MY3DLAYER
10
10.5521148097706
20
30.4765238476376
30
0.0
11
10.5682910000895
21
30.4786534834945
31
0.0
  0
LINE
  8
MY3DLAYER
10
10.5682910000895
20
30.4786534834945
30
0.0
11
10.5833648097706
21
30.484897259901
31
0.0
  0
LINE
  8
MY3DLAYER
10
10.5833648097706
20
30.484897259901
30
0.0
11
10.5963089835948
21
30.4948296738134
31
0.0
  0
LINE
  8
MY3DLAYER
10
10.5963089835947
20
31.6198296738134
30
0.0
11
10.5833648097705
21
31.6297620877258
31
0.0
  0
LINE
  8
MY3DLAYER
10
10.5833648097705
20
31.6297620877258
30
0.0
11
10.5682910000894
21
31.6360058641323
31
0.0
  0
LINE
  8
MY3DLAYER
10
10.5682910000894
20
31.6360058641323
30
0.0
11
10.5521148097705
21
31.6381354999892
31
0.0
  0
LINE
  8
MY3DLAYER
10
10.5521148097705
20
31.6381354999892
30
0.0
11
10.5359386194516
21
31.6360058641323
31
0.0
  0
LINE
  8
MY3DLAYER
10
10.5359386194516
20
31.6360058641323
30
0.0
11
10.5208648097705
21
31.6297620877258
31
0.0
  0
LINE
  8
MY3DLAYER
10
10.5079206359464
20
31.6198296738134
30
0.0
11
10.484697331243
21
31.6198296738134
31
0.0
  0
LINE
  8
MY3DLAYER
10
10.5208648097705
20
31.6297620877258
30
0.0
11
10.5079206359464
21
31.6198296738134
31
0.0
  0
LINE
  8
MY3DLAYER
10
10.5963089835947
20
31.5314413261651
30
0.0
11
10.6062413975071
21
31.5443854999892
31
0.0
  0
LINE
  8
MY3DLAYER
10
10.6062413975071
20
31.5443854999892
30
0.0
11
10.6124851739136
21
31.5594593096703
31
0.0
  0
LINE
  8
MY3DLAYER
10
10.6124851739136
20
31.5594593096703
30
0.0
11
10.6146148097705
21
31.5756354999892
31
0.0
  0
LINE
  8
MY3DLAYER
10
10.6146148097705
20
31.5756354999892
30
0.0
11
10.6124851739136
21
31.5918116903081
31
0.0
  0
LINE
  8
MY3DLAYER
10
10.6124851739136
20
31.5918116903081
30
0.0
11
10.6062413975071
21
31.6068854999892
31
0.0
  0
LINE
  8
MY3DLAYER
10
10.6062413975071
20
31.6068854999892
30
0.0
11
10.5963089835947
21
31.6198296738134
31
0.0
  0
LINE
  8
MY3DLAYER
10
7.84630898359453
20
29.3698296738133
30
0.0
11
7.85925315741869
21
29.359897259901
31
0.0
  0
LINE
  8
MY3DLAYER
10
7.85925315741869
20
29.359897259901
30
0.0
11
7.87432696709979
21
29.3536534834944
31
0.0
  0
LINE
  8
MY3DLAYER
10
7.87432696709979
20
29.3536534834944
30
0.0
11
7.89050315741869
21
29.3515238476375
31
0.0
  0
LINE
  8
MY3DLAYER
10
7.89050315741869
20
29.3515238476375
30
0.0
11
7.90667934773759
21
29.3536534834944
31
0.0
  0
LINE
  8
MY3DLAYER
10
7.90667934773759
20
29.3536534834944
30
0.0
11
7.92175315741869
21
29.359897259901
31
0.0
  0
LINE
  8
MY3DLAYER
10
7.93469733124286
20
29.3698296738133
30
0.0
11
9.38292063594619
21
29.3698296738134
31
0.0
  0
LINE
  8
MY3DLAYER
10
7.92175315741869
20
29.359897259901
30
0.0
11
7.93469733124286
21
29.3698296738133
31
0.0
  0
LINE
  8
MY3DLAYER
10
7.84630898359453
20
29.4582180214617
30
0.0
11
7.83637656968216
21
29.4452738476375
31
0.0
  0
LINE
  8
MY3DLAYER
10
7.83637656968216
20
29.4452738476375
30
0.0
11
7.83013279327562
21
29.4302000379564
31
0.0
  0
LINE
  8
MY3DLAYER
10
7.83013279327562
20
29.4302000379564
30
0.0
11
7.82800315741869
21
29.4140238476375
31
0.0
  0
LINE
  8
MY3DLAYER
10
7.82800315741869
20
29.4140238476375
30
0.0
11
7.83013279327562
21
29.3978476573186
31
0.0
  0
LINE
  8
MY3DLAYER
10
7.83013279327562
20
29.3978476573186
30
0.0
11
7.83637656968216
21
29.3827738476375
31
0.0
  0
LINE
  8
MY3DLAYER
10
7.83637656968216
20
29.3827738476375
30
0.0
11
7.84630898359453
21
29.3698296738133
31
0.0
  0
LINE
  8
MY3DLAYER
10
7.84630898359453
20
29.5698296738133
30
0.0
11
7.83637656968216
21
29.5568854999892
31
0.0
  0
LINE
  8
MY3DLAYER
10
7.83637656968216
20
29.5568854999892
30
0.0
11
7.83013279327562
21
29.5418116903081
31
0.0
  0
LINE
  8
MY3DLAYER
10
7.83013279327562
20
29.5418116903081
30
0.0
11
7.82800315741869
21
29.5256354999892
31
0.0
  0
LINE
  8
MY3DLAYER
10
7.82800315741869
20
29.5256354999892
30
0.0
11
7.83013279327562
21
29.5094593096703
31
0.0
  0
LINE
  8
MY3DLAYER
10
7.83013279327562
20
29.5094593096703
30
0.0
11
7.83637656968216
21
29.4943854999892
31
0.0
  0
LINE
  8
MY3DLAYER
10
7.84630898359453
20
29.481441326165
30
0.0
11
7.84630898359453
21
29.4582180214617
31
0.0
  0
LINE
  8
MY3DLAYER
10
7.83637656968216
20
29.4943854999892
30
0.0
11
7.84630898359453
21
29.481441326165
31
0.0
  0
LINE
  8
MY3DLAYER
10
7.93469733124286
20
29.5698296738133
30
0.0
11
7.92175315741869
21
29.5797620877257
31
0.0
  0
LINE
  8
MY3DLAYER
10
7.92175315741869
20
29.5797620877257
30
0.0
11
7.90667934773759
21
29.5860058641323
31
0.0
  0
LINE
  8
MY3DLAYER
10
7.90667934773759
20
29.5860058641323
30
0.0
11
7.89050315741869
21
29.5881354999892
31
0.0
  0
LINE
  8
MY3DLAYER
10
7.89050315741869
20
29.5881354999892
30
0.0
11
7.87432696709979
21
29.5860058641323
31
0.0
  0
LINE
  8
MY3DLAYER
10
7.87432696709979
20
29.5860058641323
30
0.0
11
7.85925315741869
21
29.5797620877257
31
0.0
  0
LINE
  8
MY3DLAYER
10
7.85925315741869
20
29.5797620877257
30
0.0
11
7.84630898359453
21
29.5698296738133
31
0.0
  0
LINE
  8
MY3DLAYER
10
9.47130898359453
20
29.3698296738134
30
0.0
11
9.48124139750689
21
29.3827738476375
31
0.0
  0
LINE
  8
MY3DLAYER
10
9.48124139750689
20
29.3827738476375
30
0.0
11
9.48748517391343
21
29.3978476573186
31
0.0
  0
LINE
  8
MY3DLAYER
10
9.48748517391343
20
29.3978476573186
30
0.0
11
9.48961480977036
21
29.4140238476375
31
0.0
  0
LINE
  8
MY3DLAYER
10
9.48961480977036
20
29.4140238476375
30
0.0
11
9.48748517391343
21
29.4302000379564
31
0.0
  0
LINE
  8
MY3DLAYER
10
9.48748517391343
20
29.4302000379564
30
0.0
11
9.48124139750689
21
29.4452738476375
31
0.0
  0
LINE
  8
MY3DLAYER
10
9.47130898359453
20
29.4582180214617
30
0.0
11
9.47130898359453
21
29.4814413261651
31
0.0
  0
LINE
  8
MY3DLAYER
10
9.48124139750689
20
29.4452738476375
30
0.0
11
9.47130898359453
21
29.4582180214617
31
0.0
  0
LINE
  8
MY3DLAYER
10
9.38292063594619
20
29.3698296738134
30
0.0
11
9.39586480977036
21
29.359897259901
31
0.0
  0
LINE
  8
MY3DLAYER
10
9.39586480977036
20
29.359897259901
30
0.0
11
9.41093861945146
21
29.3536534834945
31
0.0
  0
LINE
  8
MY3DLAYER
10
9.41093861945146
20
29.3536534834945
30
0.0
11
9.42711480977036
21
29.3515238476375
31
0.0
  0
LINE
  8
MY3DLAYER
10
9.42711480977036
20
29.3515238476375
30
0.0
11
9.44329100008926
21
29.3536534834945
31
0.0
  0
LINE
  8
MY3DLAYER
10
9.44329100008926
20
29.3536534834945
30
0.0
11
9.45836480977036
21
29.359897259901
31
0.0
  0
LINE
  8
MY3DLAYER
10
9.45836480977036
20
29.359897259901
30
0.0
11
9.47130898359453
21
29.3698296738134
31
0.0
  0
LINE
  8
MY3DLAYER
10
9.47130898359453
20
29.5698296738134
30
0.0
11
9.45836480977036
21
29.5797620877257
31
0.0
  0
LINE
  8
MY3DLAYER
10
9.45836480977036
20
29.5797620877257
30
0.0
11
9.44329100008926
21
29.5860058641323
31
0.0
  0
LINE
  8
MY3DLAYER
10
9.44329100008926
20
29.5860058641323
30
0.0
11
9.42711480977036
21
29.5881354999892
31
0.0
  0
LINE
  8
MY3DLAYER
10
9.42711480977036
20
29.5881354999892
30
0.0
11
9.41093861945146
21
29.5860058641323
31
0.0
  0
LINE
  8
MY3DLAYER
10
9.41093861945146
20
29.5860058641323
30
0.0
11
9.39586480977036
21
29.5797620877257
31
0.0
  0
LINE
  8
MY3DLAYER
10
9.38292063594619
20
29.5698296738134
30
0.0
11
7.93469733124286
21
29.5698296738133
31
0.0
  0
LINE
  8
MY3DLAYER
10
9.39586480977036
20
29.5797620877257
30
0.0
11
9.38292063594619
21
29.5698296738134
31
0.0
  0
LINE
  8
MY3DLAYER
10
9.47130898359453
20
29.4814413261651
30
0.0
11
9.48124139750689
21
29.4943854999892
31
0.0
  0
LINE
  8
MY3DLAYER
10
9.48124139750689
20
29.4943854999892
30
0.0
11
9.48748517391343
21
29.5094593096703
31
0.0
  0
LINE
  8
MY3DLAYER
10
9.48748517391343
20
29.5094593096703
30
0.0
11
9.48961480977036
21
29.5256354999892
31
0.0
  0
LINE
  8
MY3DLAYER
10
9.48961480977036
20
29.5256354999892
30
0.0
11
9.48748517391343
21
29.5418116903081
31
0.0
  0
LINE
  8
MY3DLAYER
10
9.48748517391343
20
29.5418116903081
30
0.0
11
9.48124139750689
21
29.5568854999892
31
0.0
  0
LINE
  8
MY3DLAYER
10
9.48124139750689
20
29.5568854999892
30
0.0
11
9.47130898359453
21
29.5698296738134
31
0.0
  0
LINE
  8
MY3DLAYER
10
2.72130898359453
20
29.3698296738132
30
0.0
11
2.73425315741869
21
29.3598972599008
31
0.0
  0
LINE
  8
MY3DLAYER
10
2.73425315741869
20
29.3598972599008
30
0.0
11
2.74932696709979
21
29.3536534834943
31
0.0
  0
LINE
  8
MY3DLAYER
10
2.74932696709979
20
29.3536534834943
30
0.0
11
2.76550315741869
21
29.3515238476373
31
0.0
  0
LINE
  8
MY3DLAYER
10
2.76550315741869
20
29.3515238476373
30
0.0
11
2.78167934773759
21
29.3536534834943
31
0.0
  0
LINE
  8
MY3DLAYER
10
2.78167934773759
20
29.3536534834943
30
0.0
11
2.79675315741869
21
29.3598972599008
31
0.0
  0
LINE
  8
MY3DLAYER
10
2.80969733124286
20
29.3698296738132
30
0.0
11
3.75792063594619
21
29.3698296738132
31
0.0
  0
LINE
  8
MY3DLAYER
10
2.79675315741869
20
29.3598972599008
30
0.0
11
2.80969733124286
21
29.3698296738132
31
0.0
  0
LINE
  8
MY3DLAYER
10
2.72130898359453
20
29.4582180214615
30
0.0
11
2.71137656968216
21
29.4452738476373
31
0.0
  0
LINE
  8
MY3DLAYER
10
2.71137656968216
20
29.4452738476373
30
0.0
11
2.70513279327562
21
29.4302000379563
31
0.0
  0
LINE
  8
MY3DLAYER
10
2.70513279327562
20
29.4302000379563
30
0.0
11
2.70300315741869
21
29.4140238476373
31
0.0
  0
LINE
  8
MY3DLAYER
10
2.70300315741869
20
29.4140238476373
30
0.0
11
2.70513279327562
21
29.3978476573184
31
0.0
  0
LINE
  8
MY3DLAYER
10
2.70513279327562
20
29.3978476573184
30
0.0
11
2.71137656968216
21
29.3827738476373
31
0.0
  0
LINE
  8
MY3DLAYER
10
2.71137656968216
20
29.3827738476373
30
0.0
11
2.72130898359453
21
29.3698296738132
31
0.0
  0
LINE
  8
MY3DLAYER
10
2.72130898359453
20
29.5698296738132
30
0.0
11
2.71137656968216
21
29.556885499989
31
0.0
  0
LINE
  8
MY3DLAYER
10
2.71137656968216
20
29.556885499989
30
0.0
11
2.70513279327562
21
29.5418116903079
31
0.0
  0
LINE
  8
MY3DLAYER
10
2.70513279327562
20
29.5418116903079
30
0.0
11
2.70300315741869
21
29.525635499989
31
0.0
  0
LINE
  8
MY3DLAYER
10
2.70300315741869
20
29.525635499989
30
0.0
11
2.70513279327562
21
29.5094593096701
31
0.0
  0
LINE
  8
MY3DLAYER
10
2.70513279327562
20
29.5094593096701
30
0.0
11
2.71137656968216
21
29.494385499989
31
0.0
  0
LINE
  8
MY3DLAYER
10
2.72130898359453
20
29.4814413261649
30
0.0
11
2.72130898359453
21
29.4582180214615
31
0.0
  0
LINE
  8
MY3DLAYER
10
2.71137656968216
20
29.494385499989
30
0.0
11
2.72130898359453
21
29.4814413261649
31
0.0
  0
LINE
  8
MY3DLAYER
10
2.80969733124286
20
29.5698296738132
30
0.0
11
2.79675315741869
21
29.5797620877256
31
0.0
  0
LINE
  8
MY3DLAYER
10
2.79675315741869
20
29.5797620877256
30
0.0
11
2.78167934773759
21
29.5860058641321
31
0.0
  0
LINE
  8
MY3DLAYER
10
2.78167934773759
20
29.5860058641321
30
0.0
11
2.76550315741869
21
29.588135499989
31
0.0
  0
LINE
  8
MY3DLAYER
10
2.76550315741869
20
29.588135499989
30
0.0
11
2.74932696709979
21
29.5860058641321
31
0.0
  0
LINE
  8
MY3DLAYER
10
2.74932696709979
20
29.5860058641321
30
0.0
11
2.73425315741869
21
29.5797620877256
31
0.0
  0
LINE
  8
MY3DLAYER
10
2.73425315741869
20
29.5797620877256
30
0.0
11
2.72130898359453
21
29.5698296738132
31
0.0
  0
LINE
  8
MY3DLAYER
10
3.84630898359453
20
29.3698296738132
30
0.0
11
3.85624139750689
21
29.3827738476374
31
0.0
  0
LINE
  8
MY3DLAYER
10
3.85624139750689
20
29.3827738476374
30
0.0
11
3.86248517391343
21
29.3978476573185
31
0.0
  0
LINE
  8
MY3DLAYER
10
3.86248517391343
20
29.3978476573185
30
0.0
11
3.86461480977036
21
29.4140238476374
31
0.0
  0
LINE
  8
MY3DLAYER
10
3.86461480977036
20
29.4140238476374
30
0.0
11
3.86248517391343
21
29.4302000379563
31
0.0
  0
LINE
  8
MY3DLAYER
10
3.86248517391343
20
29.4302000379563
30
0.0
11
3.85624139750689
21
29.4452738476374
31
0.0
  0
LINE
  8
MY3DLAYER
10
3.84630898359453
20
29.4582180214615
30
0.0
11
3.84630898359453
21
29.4814413261649
31
0.0
  0
LINE
  8
MY3DLAYER
10
3.85624139750689
20
29.4452738476374
30
0.0
11
3.84630898359453
21
29.4582180214615
31
0.0
  0
LINE
  8
MY3DLAYER
10
3.75792063594619
20
29.3698296738132
30
0.0
11
3.77086480977036
21
29.3598972599009
31
0.0
  0
LINE
  8
MY3DLAYER
10
3.77086480977036
20
29.3598972599009
30
0.0
11
3.78593861945146
21
29.3536534834943
31
0.0
  0
LINE
  8
MY3DLAYER
10
3.78593861945146
20
29.3536534834943
30
0.0
11
3.80211480977036
21
29.3515238476374
31
0.0
  0
LINE
  8
MY3DLAYER
10
3.80211480977036
20
29.3515238476374
30
0.0
11
3.81829100008926
21
29.3536534834943
31
0.0
  0
LINE
  8
MY3DLAYER
10
3.81829100008926
20
29.3536534834943
30
0.0
11
3.83336480977036
21
29.3598972599009
31
0.0
  0
LINE
  8
MY3DLAYER
10
3.83336480977036
20
29.3598972599009
30
0.0
11
3.84630898359453
21
29.3698296738132
31
0.0
  0
LINE
  8
MY3DLAYER
10
3.84630898359453
20
29.5698296738132
30
0.0
11
3.83336480977036
21
29.5797620877256
31
0.0
  0
LINE
  8
MY3DLAYER
10
3.83336480977036
20
29.5797620877256
30
0.0
11
3.81829100008926
21
29.5860058641321
31
0.0
  0
LINE
  8
MY3DLAYER
10
3.81829100008926
20
29.5860058641321
30
0.0
11
3.80211480977036
21
29.5881354999891
31
0.0
  0
LINE
  8
MY3DLAYER
10
3.80211480977036
20
29.5881354999891
30
0.0
11
3.78593861945146
21
29.5860058641321
31
0.0
  0
LINE
  8
MY3DLAYER
10
3.78593861945146
20
29.5860058641321
30
0.0
11
3.77086480977036
21
29.5797620877256
31
0.0
  0
LINE
  8
MY3DLAYER
10
3.75792063594619
20
29.5698296738132
30
0.0
11
2.80969733124286
21
29.5698296738132
31
0.0
  0
LINE
  8
MY3DLAYER
10
3.77086480977036
20
29.5797620877256
30
0.0
11
3.75792063594619
21
29.5698296738132
31
0.0
  0
LINE
  8
MY3DLAYER
10
3.84630898359453
20
29.4814413261649
30
0.0
11
3.85624139750689
21
29.4943854999891
31
0.0
  0
LINE
  8
MY3DLAYER
10
3.85624139750689
20
29.4943854999891
30
0.0
11
3.86248517391343
21
29.5094593096702
31
0.0
  0
LINE
  8
MY3DLAYER
10
3.86248517391343
20
29.5094593096702
30
0.0
11
3.86461480977036
21
29.5256354999891
31
0.0
  0
LINE
  8
MY3DLAYER
10
3.86461480977036
20
29.5256354999891
30
0.0
11
3.86248517391343
21
29.541811690308
31
0.0
  0
LINE
  8
MY3DLAYER
10
3.86248517391343
20
29.541811690308
30
0.0
11
3.85624139750689
21
29.5568854999891
31
0.0
  0
LINE
  8
MY3DLAYER
10
3.85624139750689
20
29.5568854999891
30
0.0
11
3.84630898359453
21
29.5698296738132
31
0.0
  0
LINE
  8
MY3DLAYER
10
1.59630898359447
20
30.4948296738134
30
0.0
11
1.60925315741864
21
30.4848972599011
31
0.0
  0
LINE
  8
MY3DLAYER
10
1.60925315741864
20
30.4848972599011
30
0.0
11
1.62432696709973
21
30.4786534834945
31
0.0
  0
LINE
  8
MY3DLAYER
10
1.62432696709973
20
30.4786534834945
30
0.0
11
1.64050315741864
21
30.4765238476376
31
0.0
  0
LINE
  8
MY3DLAYER
10
1.64050315741864
20
30.4765238476376
30
0.0
11
1.65667934773754
21
30.4786534834945
31
0.0
  0
LINE
  8
MY3DLAYER
10
1.65667934773754
20
30.4786534834945
30
0.0
11
1.67175315741864
21
30.4848972599011
31
0.0
  0
LINE
  8
MY3DLAYER
10
1.6846973312428
20
30.4948296738134
30
0.0
11
1.70792063594615
21
30.4948296738134
31
0.0
  0
LINE
  8
MY3DLAYER
10
1.67175315741864
20
30.4848972599011
30
0.0
11
1.6846973312428
21
30.4948296738134
31
0.0
  0
LINE
  8
MY3DLAYER
10
1.59630898359447
20
30.5832180214617
30
0.0
11
1.5863765696821
21
30.5702738476376
31
0.0
  0
LINE
  8
MY3DLAYER
10
1.5863765696821
20
30.5702738476376
30
0.0
11
1.58013279327557
21
30.5552000379565
31
0.0
  0
LINE
  8
MY3DLAYER
10
1.58013279327557
20
30.5552000379565
30
0.0
11
1.57800315741864
21
30.5390238476376
31
0.0
  0
LINE
  8
MY3DLAYER
10
1.57800315741864
20
30.5390238476376
30
0.0
11
1.58013279327557
21
30.5228476573187
31
0.0
  0
LINE
  8
MY3DLAYER
10
1.58013279327557
20
30.5228476573187
30
0.0
11
1.5863765696821
21
30.5077738476376
31
0.0
  0
LINE
  8
MY3DLAYER
10
1.5863765696821
20
30.5077738476376
30
0.0
11
1.59630898359447
21
30.4948296738134
31
0.0
  0
LINE
  8
MY3DLAYER
10
1.59630898359447
20
32.1198296738134
30
0.0
11
1.5863765696821
21
32.1068854999893
31
0.0
  0
LINE
  8
MY3DLAYER
10
1.5863765696821
20
32.1068854999893
30
0.0
11
1.58013279327557
21
32.0918116903082
31
0.0
  0
LINE
  8
MY3DLAYER
10
1.58013279327557
20
32.0918116903082
30
0.0
11
1.57800315741864
21
32.0756354999893
31
0.0
  0
LINE
  8
MY3DLAYER
10
1.57800315741864
20
32.0756354999893
30
0.0
11
1.58013279327557
21
32.0594593096704
31
0.0
  0
LINE
  8
MY3DLAYER
10
1.58013279327557
20
32.0594593096704
30
0.0
11
1.5863765696821
21
32.0443854999893
31
0.0
  0
LINE
  8
MY3DLAYER
10
1.59630898359447
20
32.0314413261651
30
0.0
11
1.59630898359447
21
30.5832180214617
31
0.0
  0
LINE
  8
MY3DLAYER
10
1.5863765696821
20
32.0443854999893
30
0.0
11
1.59630898359447
21
32.0314413261651
31
0.0
  0
LINE
  8
MY3DLAYER
10
1.6846973312428
20
32.1198296738134
30
0.0
11
1.67175315741864
21
32.1297620877258
31
0.0
  0
LINE
  8
MY3DLAYER
10
1.67175315741864
20
32.1297620877258
30
0.0
11
1.65667934773754
21
32.1360058641323
31
0.0
  0
LINE
  8
MY3DLAYER
10
1.65667934773754
20
32.1360058641323
30
0.0
11
1.64050315741864
21
32.1381354999893
31
0.0
  0
LINE
  8
MY3DLAYER
10
1.64050315741864
20
32.1381354999893
30
0.0
11
1.62432696709973
21
32.1360058641323
31
0.0
  0
LINE
  8
MY3DLAYER
10
1.62432696709973
20
32.1360058641323
30
0.0
11
1.60925315741864
21
32.1297620877258
31
0.0
  0
LINE
  8
MY3DLAYER
10
1.60925315741864
20
32.1297620877258
30
0.0
11
1.59630898359447
21
32.1198296738134
31
0.0
  0
LINE
  8
MY3DLAYER
10
1.79630898359449
20
30.4948296738134
30
0.0
11
1.80624139750685
21
30.5077738476376
31
0.0
  0
LINE
  8
MY3DLAYER
10
1.80624139750685
20
30.5077738476376
30
0.0
11
1.81248517391339
21
30.5228476573187
31
0.0
  0
LINE
  8
MY3DLAYER
10
1.81248517391339
20
30.5228476573187
30
0.0
11
1.81461480977032
21
30.5390238476376
31
0.0
  0
LINE
  8
MY3DLAYER
10
1.81461480977032
20
30.5390238476376
30
0.0
11
1.81248517391339
21
30.5552000379565
31
0.0
  0
LINE
  8
MY3DLAYER
10
1.81248517391339
20
30.5552000379565
30
0.0
11
1.80624139750685
21
30.5702738476376
31
0.0
  0
LINE
  8
MY3DLAYER
10
1.79630898359449
20
30.5832180214617
30
0.0
11
1.79630898359446
21
32.0314413261651
31
0.0
  0
LINE
  8
MY3DLAYER
10
1.80624139750685
20
30.5702738476376
30
0.0
11
1.79630898359449
21
30.5832180214617
31
0.0
  0
LINE
  8
MY3DLAYER
10
1.70792063594615
20
30.4948296738134
30
0.0
11
1.72086480977032
21
30.4848972599011
31
0.0
  0
LINE
  8
MY3DLAYER
10
1.72086480977032
20
30.4848972599011
30
0.0
11
1.73593861945142
21
30.4786534834945
31
0.0
  0
LINE
  8
MY3DLAYER
10
1.73593861945142
20
30.4786534834945
30
0.0
11
1.75211480977032
21
30.4765238476376
31
0.0
  0
LINE
  8
MY3DLAYER
10
1.75211480977032
20
30.4765238476376
30
0.0
11
1.76829100008922
21
30.4786534834945
31
0.0
  0
LINE
  8
MY3DLAYER
10
1.76829100008922
20
30.4786534834945
30
0.0
11
1.78336480977032
21
30.4848972599011
31
0.0
  0
LINE
  8
MY3DLAYER
10
1.78336480977032
20
30.4848972599011
30
0.0
11
1.79630898359449
21
30.4948296738134
31
0.0
  0
LINE
  8
MY3DLAYER
10
1.79630898359446
20
32.1198296738134
30
0.0
11
1.78336480977029
21
32.1297620877258
31
0.0
  0
LINE
  8
MY3DLAYER
10
1.78336480977029
20
32.1297620877258
30
0.0
11
1.76829100008919
21
32.1360058641323
31
0.0
  0
LINE
  8
MY3DLAYER
10
1.76829100008919
20
32.1360058641323
30
0.0
11
1.75211480977029
21
32.1381354999893
31
0.0
  0
LINE
  8
MY3DLAYER
10
1.75211480977029
20
32.1381354999893
30
0.0
11
1.73593861945139
21
32.1360058641323
31
0.0
  0
LINE
  8
MY3DLAYER
10
1.73593861945139
20
32.1360058641323
30
0.0
11
1.72086480977029
21
32.1297620877258
31
0.0
  0
LINE
  8
MY3DLAYER
10
1.70792063594612
20
32.1198296738134
30
0.0
11
1.6846973312428
21
32.1198296738134
31
0.0
  0
LINE
  8
MY3DLAYER
10
1.72086480977029
20
32.1297620877258
30
0.0
11
1.70792063594612
21
32.1198296738134
31
0.0
  0
LINE
  8
MY3DLAYER
10
1.79630898359446
20
32.0314413261651
30
0.0
11
1.80624139750682
21
32.0443854999893
31
0.0
  0
LINE
  8
MY3DLAYER
10
1.80624139750682
20
32.0443854999893
30
0.0
11
1.81248517391336
21
32.0594593096704
31
0.0
  0
LINE
  8
MY3DLAYER
10
1.81248517391336
20
32.0594593096704
30
0.0
11
1.81461480977029
21
32.0756354999893
31
0.0
  0
LINE
  8
MY3DLAYER
10
1.81461480977029
20
32.0756354999893
30
0.0
11
1.81248517391336
21
32.0918116903082
31
0.0
  0
LINE
  8
MY3DLAYER
10
1.81248517391336
20
32.0918116903082
30
0.0
11
1.80624139750682
21
32.1068854999893
31
0.0
  0
LINE
  8
MY3DLAYER
10
1.80624139750682
20
32.1068854999893
30
0.0
11
1.79630898359446
21
32.1198296738134
31
0.0
  0
LINE
  8
MY3DLAYER
10
1.59630898359435
20
36.1198296738134
30
0.0
11
1.60925315741852
21
36.1098972599011
31
0.0
  0
LINE
  8
MY3DLAYER
10
1.60925315741852
20
36.1098972599011
30
0.0
11
1.62432696709962
21
36.1036534834945
31
0.0
  0
LINE
  8
MY3DLAYER
10
1.62432696709962
20
36.1036534834945
30
0.0
11
1.64050315741852
21
36.1015238476376
31
0.0
  0
LINE
  8
MY3DLAYER
10
1.64050315741852
20
36.1015238476376
30
0.0
11
1.65667934773742
21
36.1036534834945
31
0.0
  0
LINE
  8
MY3DLAYER
10
1.65667934773742
20
36.1036534834945
30
0.0
11
1.67175315741852
21
36.1098972599011
31
0.0
  0
LINE
  8
MY3DLAYER
10
1.68469733124269
20
36.1198296738134
30
0.0
11
1.70792063594601
21
36.1198296738134
31
0.0
  0
LINE
  8
MY3DLAYER
10
1.67175315741852
20
36.1098972599011
30
0.0
11
1.68469733124269
21
36.1198296738134
31
0.0
  0
LINE
  8
MY3DLAYER
10
1.59630898359435
20
36.2082180214617
30
0.0
11
1.58637656968199
21
36.1952738476376
31
0.0
  0
LINE
  8
MY3DLAYER
10
1.58637656968199
20
36.1952738476376
30
0.0
11
1.58013279327545
21
36.1802000379565
31
0.0
  0
LINE
  8
MY3DLAYER
10
1.58013279327545
20
36.1802000379565
30
0.0
11
1.57800315741852
21
36.1640238476376
31
0.0
  0
LINE
  8
MY3DLAYER
10
1.57800315741852
20
36.1640238476376
30
0.0
11
1.58013279327545
21
36.1478476573187
31
0.0
  0
LINE
  8
MY3DLAYER
10
1.58013279327545
20
36.1478476573187
30
0.0
11
1.58637656968199
21
36.1327738476376
31
0.0
  0
LINE
  8
MY3DLAYER
10
1.58637656968199
20
36.1327738476376
30
0.0
11
1.59630898359435
21
36.1198296738134
31
0.0
  0
LINE
  8
MY3DLAYER
10
1.5963089835943
20
37.2448296738134
30
0.0
11
1.58637656968193
21
37.2318854999893
31
0.0
  0
LINE
  8
MY3DLAYER
10
1.58637656968193
20
37.2318854999893
30
0.0
11
1.5801327932754
21
37.2168116903082
31
0.0
  0
LINE
  8
MY3DLAYER
10
1.5801327932754
20
37.2168116903082
30
0.0
11
1.57800315741846
21
37.2006354999893
31
0.0
  0
LINE
  8
MY3DLAYER
10
1.57800315741846
20
37.2006354999893
30
0.0
11
1.5801327932754
21
37.1844593096704
31
0.0
  0
LINE
  8
MY3DLAYER
10
1.5801327932754
20
37.1844593096704
30
0.0
11
1.58637656968193
21
37.1693854999893
31
0.0
  0
LINE
  8
MY3DLAYER
10
1.5963089835943
20
37.1564413261651
30
0.0
11
1.59630898359435
21
36.2082180214617
31
0.0
  0
LINE
  8
MY3DLAYER
10
1.58637656968193
20
37.1693854999893
30
0.0
11
1.5963089835943
21
37.1564413261651
31
0.0
  0
LINE
  8
MY3DLAYER
10
1.68469733124263
20
37.2448296738134
30
0.0
11
1.67175315741846
21
37.2547620877258
31
0.0
  0
LINE
  8
MY3DLAYER
10
1.67175315741846
20
37.2547620877258
30
0.0
11
1.65667934773737
21
37.2610058641323
31
0.0
  0
LINE
  8
MY3DLAYER
10
1.65667934773737
20
37.2610058641323
30
0.0
11
1.64050315741846
21
37.2631354999893
31
0.0
  0
LINE
  8
MY3DLAYER
10
1.64050315741846
20
37.2631354999893
30
0.0
11
1.62432696709956
21
37.2610058641323
31
0.0
  0
LINE
  8
MY3DLAYER
10
1.62432696709956
20
37.2610058641323
30
0.0
11
1.60925315741846
21
37.2547620877258
31
0.0
  0
LINE
  8
MY3DLAYER
10
1.60925315741846
20
37.2547620877258
30
0.0
11
1.5963089835943
21
37.2448296738134
31
0.0
  0
LINE
  8
MY3DLAYER
10
1.79630898359434
20
36.1198296738134
30
0.0
11
1.80624139750671
21
36.1327738476376
31
0.0
  0
LINE
  8
MY3DLAYER
10
1.80624139750671
20
36.1327738476376
30
0.0
11
1.81248517391325
21
36.1478476573187
31
0.0
  0
LINE
  8
MY3DLAYER
10
1.81248517391325
20
36.1478476573187
30
0.0
11
1.81461480977018
21
36.1640238476376
31
0.0
  0
LINE
  8
MY3DLAYER
10
1.81461480977018
20
36.1640238476376
30
0.0
11
1.81248517391325
21
36.1802000379565
31
0.0
  0
LINE
  8
MY3DLAYER
10
1.81248517391325
20
36.1802000379565
30
0.0
11
1.80624139750671
21
36.1952738476376
31
0.0
  0
LINE
  8
MY3DLAYER
10
1.79630898359434
20
36.2082180214617
30
0.0
11
1.79630898359429
21
37.1564413261651
31
0.0
  0
LINE
  8
MY3DLAYER
10
1.80624139750671
20
36.1952738476376
30
0.0
11
1.79630898359434
21
36.2082180214617
31
0.0
  0
LINE
  8
MY3DLAYER
10
1.70792063594601
20
36.1198296738134
30
0.0
11
1.72086480977018
21
36.1098972599011
31
0.0
  0
LINE
  8
MY3DLAYER
10
1.72086480977018
20
36.1098972599011
30
0.0
11
1.73593861945128
21
36.1036534834945
31
0.0
  0
LINE
  8
MY3DLAYER
10
1.73593861945128
20
36.1036534834945
30
0.0
11
1.75211480977018
21
36.1015238476376
31
0.0
  0
LINE
  8
MY3DLAYER
10
1.75211480977018
20
36.1015238476376
30
0.0
11
1.76829100008908
21
36.1036534834945
31
0.0
  0
LINE
  8
MY3DLAYER
10
1.76829100008908
20
36.1036534834945
30
0.0
11
1.78336480977018
21
36.1098972599011
31
0.0
  0
LINE
  8
MY3DLAYER
10
1.78336480977018
20
36.1098972599011
30
0.0
11
1.79630898359434
21
36.1198296738134
31
0.0
  0
LINE
  8
MY3DLAYER
10
1.79630898359429
20
37.2448296738134
30
0.0
11
1.78336480977012
21
37.2547620877258
31
0.0
  0
LINE
  8
MY3DLAYER
10
1.78336480977012
20
37.2547620877258
30
0.0
11
1.76829100008902
21
37.2610058641323
31
0.0
  0
LINE
  8
MY3DLAYER
10
1.76829100008902
20
37.2610058641323
30
0.0
11
1.75211480977012
21
37.2631354999893
31
0.0
  0
LINE
  8
MY3DLAYER
10
1.75211480977012
20
37.2631354999893
30
0.0
11
1.73593861945122
21
37.2610058641323
31
0.0
  0
LINE
  8
MY3DLAYER
10
1.73593861945122
20
37.2610058641323
30
0.0
11
1.72086480977012
21
37.2547620877258
31
0.0
  0
LINE
  8
MY3DLAYER
10
1.70792063594595
20
37.2448296738134
30
0.0
11
1.68469733124263
21
37.2448296738134
31
0.0
  0
LINE
  8
MY3DLAYER
10
1.72086480977012
20
37.2547620877258
30
0.0
11
1.70792063594595
21
37.2448296738134
31
0.0
  0
LINE
  8
MY3DLAYER
10
1.79630898359429
20
37.1564413261651
30
0.0
11
1.80624139750665
21
37.1693854999893
31
0.0
  0
LINE
  8
MY3DLAYER
10
1.80624139750665
20
37.1693854999893
30
0.0
11
1.81248517391319
21
37.1844593096704
31
0.0
  0
LINE
  8
MY3DLAYER
10
1.81248517391319
20
37.1844593096704
30
0.0
11
1.81461480977012
21
37.2006354999893
31
0.0
  0
LINE
  8
MY3DLAYER
10
1.81461480977012
20
37.2006354999893
30
0.0
11
1.81248517391319
21
37.2168116903082
31
0.0
  0
LINE
  8
MY3DLAYER
10
1.81248517391319
20
37.2168116903082
30
0.0
11
1.80624139750665
21
37.2318854999893
31
0.0
  0
LINE
  8
MY3DLAYER
10
1.80624139750665
20
37.2318854999893
30
0.0
11
1.79630898359429
21
37.2448296738134
31
0.0
  0
LINE
  8
MY3DLAYER
10
4.34630898359453
20
38.3698296738135
30
0.0
11
4.33336480977036
21
38.3797620877258
31
0.0
  0
LINE
  8
MY3DLAYER
10
4.33336480977036
20
38.3797620877258
30
0.0
11
4.31829100008926
21
38.3860058641324
31
0.0
  0
LINE
  8
MY3DLAYER
10
4.31829100008926
20
38.3860058641324
30
0.0
11
4.30211480977036
21
38.3881354999893
31
0.0
  0
LINE
  8
MY3DLAYER
10
4.30211480977036
20
38.3881354999893
30
0.0
11
4.28593861945146
21
38.3860058641324
31
0.0
  0
LINE
  8
MY3DLAYER
10
4.28593861945146
20
38.3860058641324
30
0.0
11
4.27086480977036
21
38.3797620877258
31
0.0
  0
LINE
  8
MY3DLAYER
10
4.25792063594619
20
38.3698296738135
30
0.0
11
2.80969733124286
21
38.3698296738134
31
0.0
  0
LINE
  8
MY3DLAYER
10
4.27086480977036
20
38.3797620877258
30
0.0
11
4.25792063594619
21
38.3698296738135
31
0.0
  0
LINE
  8
MY3DLAYER
10
4.34630898359453
20
38.2814413261652
30
0.0
11
4.35624139750689
21
38.2943854999893
31
0.0
  0
LINE
  8
MY3DLAYER
10
4.35624139750689
20
38.2943854999893
30
0.0
11
4.36248517391343
21
38.3094593096704
31
0.0
  0
LINE
  8
MY3DLAYER
10
4.36248517391343
20
38.3094593096704
30
0.0
11
4.36461480977036
21
38.3256354999893
31
0.0
  0
LINE
  8
MY3DLAYER
10
4.36461480977036
20
38.3256354999893
30
0.0
11
4.36248517391343
21
38.3418116903082
31
0.0
  0
LINE
  8
MY3DLAYER
10
4.36248517391343
20
38.3418116903082
30
0.0
11
4.35624139750689
21
38.3568854999893
31
0.0
  0
LINE
  8
MY3DLAYER
10
4.35624139750689
20
38.3568854999893
30
0.0
11
4.34630898359453
21
38.3698296738135
31
0.0
  0
LINE
  8
MY3DLAYER
10
4.34630898359453
20
38.1698296738135
30
0.0
11
4.35624139750689
21
38.1827738476376
31
0.0
  0
LINE
  8
MY3DLAYER
10
4.35624139750689
20
38.1827738476376
30
0.0
11
4.36248517391343
21
38.1978476573187
31
0.0
  0
LINE
  8
MY3DLAYER
10
4.36248517391343
20
38.1978476573187
30
0.0
11
4.36461480977036
21
38.2140238476376
31
0.0
  0
LINE
  8
MY3DLAYER
10
4.36461480977036
20
38.2140238476376
30
0.0
11
4.36248517391343
21
38.2302000379566
31
0.0
  0
LINE
  8
MY3DLAYER
10
4.36248517391343
20
38.2302000379566
30
0.0
11
4.35624139750689
21
38.2452738476376
31
0.0
  0
LINE
  8
MY3DLAYER
10
4.34630898359453
20
38.2582180214618
30
0.0
11
4.34630898359453
21
38.2814413261652
31
0.0
  0
LINE
  8
MY3DLAYER
10
4.35624139750689
20
38.2452738476376
30
0.0
11
4.34630898359453
21
38.2582180214618
31
0.0
  0
LINE
  8
MY3DLAYER
10
4.25792063594619
20
38.1698296738135
30
0.0
11
4.27086480977036
21
38.1598972599011
31
0.0
  0
LINE
  8
MY3DLAYER
10
4.27086480977036
20
38.1598972599011
30
0.0
11
4.28593861945146
21
38.1536534834946
31
0.0
  0
LINE
  8
MY3DLAYER
10
4.28593861945146
20
38.1536534834946
30
0.0
11
4.30211480977036
21
38.1515238476376
31
0.0
  0
LINE
  8
MY3DLAYER
10
4.30211480977036
20
38.1515238476376
30
0.0
11
4.31829100008926
21
38.1536534834946
31
0.0
  0
LINE
  8
MY3DLAYER
10
4.31829100008926
20
38.1536534834946
30
0.0
11
4.33336480977036
21
38.1598972599011
31
0.0
  0
LINE
  8
MY3DLAYER
10
4.33336480977036
20
38.1598972599011
30
0.0
11
4.34630898359453
21
38.1698296738135
31
0.0
  0
LINE
  8
MY3DLAYER
10
2.72130898359453
20
38.3698296738134
30
0.0
11
2.71137656968216
21
38.3568854999893
31
0.0
  0
LINE
  8
MY3DLAYER
10
2.71137656968216
20
38.3568854999893
30
0.0
11
2.70513279327562
21
38.3418116903082
31
0.0
  0
LINE
  8
MY3DLAYER
10
2.70513279327562
20
38.3418116903082
30
0.0
11
2.70300315741869
21
38.3256354999893
31
0.0
  0
LINE
  8
MY3DLAYER
10
2.70300315741869
20
38.3256354999893
30
0.0
11
2.70513279327562
21
38.3094593096704
31
0.0
  0
LINE
  8
MY3DLAYER
10
2.70513279327562
20
38.3094593096704
30
0.0
11
2.71137656968216
21
38.2943854999893
31
0.0
  0
LINE
  8
MY3DLAYER
10
2.72130898359453
20
38.2814413261651
30
0.0
11
2.72130898359453
21
38.2582180214618
31
0.0
  0
LINE
  8
MY3DLAYER
10
2.71137656968216
20
38.2943854999893
30
0.0
11
2.72130898359453
21
38.2814413261651
31
0.0
  0
LINE
  8
MY3DLAYER
10
2.80969733124286
20
38.3698296738134
30
0.0
11
2.79675315741869
21
38.3797620877258
31
0.0
  0
LINE
  8
MY3DLAYER
10
2.79675315741869
20
38.3797620877258
30
0.0
11
2.78167934773759
21
38.3860058641324
31
0.0
  0
LINE
  8
MY3DLAYER
10
2.78167934773759
20
38.3860058641324
30
0.0
11
2.76550315741869
21
38.3881354999893
31
0.0
  0
LINE
  8
MY3DLAYER
10
2.76550315741869
20
38.3881354999893
30
0.0
11
2.74932696709979
21
38.3860058641324
31
0.0
  0
LINE
  8
MY3DLAYER
10
2.74932696709979
20
38.3860058641324
30
0.0
11
2.73425315741869
21
38.3797620877258
31
0.0
  0
LINE
  8
MY3DLAYER
10
2.73425315741869
20
38.3797620877258
30
0.0
11
2.72130898359453
21
38.3698296738134
31
0.0
  0
LINE
  8
MY3DLAYER
10
2.72130898359453
20
38.1698296738134
30
0.0
11
2.73425315741869
21
38.1598972599011
31
0.0
  0
LINE
  8
MY3DLAYER
10
2.73425315741869
20
38.1598972599011
30
0.0
11
2.74932696709979
21
38.1536534834945
31
0.0
  0
LINE
  8
MY3DLAYER
10
2.74932696709979
20
38.1536534834945
30
0.0
11
2.76550315741869
21
38.1515238476376
31
0.0
  0
LINE
  8
MY3DLAYER
10
2.76550315741869
20
38.1515238476376
30
0.0
11
2.78167934773759
21
38.1536534834945
31
0.0
  0
LINE
  8
MY3DLAYER
10
2.78167934773759
20
38.1536534834945
30
0.0
11
2.79675315741869
21
38.1598972599011
31
0.0
  0
LINE
  8
MY3DLAYER
10
2.80969733124286
20
38.1698296738134
30
0.0
11
4.25792063594619
21
38.1698296738135
31
0.0
  0
LINE
  8
MY3DLAYER
10
2.79675315741869
20
38.1598972599011
30
0.0
11
2.80969733124286
21
38.1698296738134
31
0.0
  0
LINE
  8
MY3DLAYER
10
2.72130898359453
20
38.2582180214618
30
0.0
11
2.71137656968216
21
38.2452738476376
31
0.0
  0
LINE
  8
MY3DLAYER
10
2.71137656968216
20
38.2452738476376
30
0.0
11
2.70513279327562
21
38.2302000379565
31
0.0
  0
LINE
  8
MY3DLAYER
10
2.70513279327562
20
38.2302000379565
30
0.0
11
2.70300315741869
21
38.2140238476376
31
0.0
  0
LINE
  8
MY3DLAYER
10
2.70300315741869
20
38.2140238476376
30
0.0
11
2.70513279327562
21
38.1978476573187
31
0.0
  0
LINE
  8
MY3DLAYER
10
2.70513279327562
20
38.1978476573187
30
0.0
11
2.71137656968216
21
38.1827738476376
31
0.0
  0
LINE
  8
MY3DLAYER
10
2.71137656968216
20
38.1827738476376
30
0.0
11
2.72130898359453
21
38.1698296738134
31
0.0
  0
LINE
  8
MY3DLAYER
10
8.34630898359453
20
38.1698296738136
30
0.0
11
8.35925315741869
21
38.1598972599012
31
0.0
  0
LINE
  8
MY3DLAYER
10
8.35925315741869
20
38.1598972599012
30
0.0
11
8.37432696709979
21
38.1536534834947
31
0.0
  0
LINE
  8
MY3DLAYER
10
8.37432696709979
20
38.1536534834947
30
0.0
11
8.39050315741869
21
38.1515238476378
31
0.0
  0
LINE
  8
MY3DLAYER
10
8.39050315741869
20
38.1515238476378
30
0.0
11
8.40667934773759
21
38.1536534834947
31
0.0
  0
LINE
  8
MY3DLAYER
10
8.40667934773759
20
38.1536534834947
30
0.0
11
8.42175315741869
21
38.1598972599012
31
0.0
  0
LINE
  8
MY3DLAYER
10
8.43469733124286
20
38.1698296738136
30
0.0
11
9.38292063594619
21
38.1698296738136
31
0.0
  0
LINE
  8
MY3DLAYER
10
8.42175315741869
20
38.1598972599012
30
0.0
11
8.43469733124286
21
38.1698296738136
31
0.0
  0
LINE
  8
MY3DLAYER
10
8.34630898359453
20
38.2582180214619
30
0.0
11
8.33637656968216
21
38.2452738476378
31
0.0
  0
LINE
  8
MY3DLAYER
10
8.33637656968216
20
38.2452738476378
30
0.0
11
8.33013279327562
21
38.2302000379567
31
0.0
  0
LINE
  8
MY3DLAYER
10
8.33013279327562
20
38.2302000379567
30
0.0
11
8.32800315741869
21
38.2140238476378
31
0.0
  0
LINE
  8
MY3DLAYER
10
8.32800315741869
20
38.2140238476378
30
0.0
11
8.33013279327562
21
38.1978476573189
31
0.0
  0
LINE
  8
MY3DLAYER
10
8.33013279327562
20
38.1978476573189
30
0.0
11
8.33637656968216
21
38.1827738476378
31
0.0
  0
LINE
  8
MY3DLAYER
10
8.33637656968216
20
38.1827738476378
30
0.0
11
8.34630898359453
21
38.1698296738136
31
0.0
  0
LINE
  8
MY3DLAYER
10
8.34630898359453
20
38.3698296738136
30
0.0
11
8.33637656968216
21
38.3568854999894
31
0.0
  0
LINE
  8
MY3DLAYER
10
8.33637656968216
20
38.3568854999894
30
0.0
11
8.33013279327562
21
38.3418116903083
31
0.0
  0
LINE
  8
MY3DLAYER
10
8.33013279327562
20
38.3418116903083
30
0.0
11
8.32800315741869
21
38.3256354999894
31
0.0
  0
LINE
  8
MY3DLAYER
10
8.32800315741869
20
38.3256354999894
30
0.0
11
8.33013279327562
21
38.3094593096705
31
0.0
  0
LINE
  8
MY3DLAYER
10
8.33013279327562
20
38.3094593096705
30
0.0
11
8.33637656968216
21
38.2943854999894
31
0.0
  0
LINE
  8
MY3DLAYER
10
8.34630898359453
20
38.2814413261653
30
0.0
11
8.34630898359453
21
38.2582180214619
31
0.0
  0
LINE
  8
MY3DLAYER
10
8.33637656968216
20
38.2943854999894
30
0.0
11
8.34630898359453
21
38.2814413261653
31
0.0
  0
LINE
  8
MY3DLAYER
10
8.43469733124286
20
38.3698296738136
30
0.0
11
8.42175315741869
21
38.379762087726
31
0.0
  0
LINE
  8
MY3DLAYER
10
8.42175315741869
20
38.379762087726
30
0.0
11
8.40667934773759
21
38.3860058641325
31
0.0
  0
LINE
  8
MY3DLAYER
10
8.40667934773759
20
38.3860058641325
30
0.0
11
8.39050315741869
21
38.3881354999894
31
0.0
  0
LINE
  8
MY3DLAYER
10
8.39050315741869
20
38.3881354999894
30
0.0
11
8.37432696709979
21
38.3860058641325
31
0.0
  0
LINE
  8
MY3DLAYER
10
8.37432696709979
20
38.3860058641325
30
0.0
11
8.35925315741869
21
38.379762087726
31
0.0
  0
LINE
  8
MY3DLAYER
10
8.35925315741869
20
38.379762087726
30
0.0
11
8.34630898359453
21
38.3698296738136
31
0.0
  0
LINE
  8
MY3DLAYER
10
9.47130898359453
20
38.1698296738136
30
0.0
11
9.48124139750689
21
38.1827738476378
31
0.0
  0
LINE
  8
MY3DLAYER
10
9.48124139750689
20
38.1827738476378
30
0.0
11
9.48748517391343
21
38.1978476573189
31
0.0
  0
LINE
  8
MY3DLAYER
10
9.48748517391343
20
38.1978476573189
30
0.0
11
9.48961480977036
21
38.2140238476378
31
0.0
  0
LINE
  8
MY3DLAYER
10
9.48961480977036
20
38.2140238476378
30
0.0
11
9.48748517391343
21
38.2302000379567
31
0.0
  0
LINE
  8
MY3DLAYER
10
9.48748517391343
20
38.2302000379567
30
0.0
11
9.48124139750689
21
38.2452738476378
31
0.0
  0
LINE
  8
MY3DLAYER
10
9.47130898359453
20
38.258218021462
30
0.0
11
9.47130898359453
21
38.2814413261653
31
0.0
  0
LINE
  8
MY3DLAYER
10
9.48124139750689
20
38.2452738476378
30
0.0
11
9.47130898359453
21
38.258218021462
31
0.0
  0
LINE
  8
MY3DLAYER
10
9.38292063594619
20
38.1698296738136
30
0.0
11
9.39586480977036
21
38.1598972599013
31
0.0
  0
LINE
  8
MY3DLAYER
10
9.39586480977036
20
38.1598972599013
30
0.0
11
9.41093861945146
21
38.1536534834947
31
0.0
  0
LINE
  8
MY3DLAYER
10
9.41093861945146
20
38.1536534834947
30
0.0
11
9.42711480977036
21
38.1515238476378
31
0.0
  0
LINE
  8
MY3DLAYER
10
9.42711480977036
20
38.1515238476378
30
0.0
11
9.44329100008926
21
38.1536534834947
31
0.0
  0
LINE
  8
MY3DLAYER
10
9.44329100008926
20
38.1536534834947
30
0.0
11
9.45836480977036
21
38.1598972599013
31
0.0
  0
LINE
  8
MY3DLAYER
10
9.45836480977036
20
38.1598972599013
30
0.0
11
9.47130898359453
21
38.1698296738136
31
0.0
  0
LINE
  8
MY3DLAYER
10
9.47130898359453
20
38.3698296738136
30
0.0
11
9.45836480977036
21
38.379762087726
31
0.0
  0
LINE
  8
MY3DLAYER
10
9.45836480977036
20
38.379762087726
30
0.0
11
9.44329100008926
21
38.3860058641325
31
0.0
  0
LINE
  8
MY3DLAYER
10
9.44329100008926
20
38.3860058641325
30
0.0
11
9.42711480977036
21
38.3881354999895
31
0.0
  0
LINE
  8
MY3DLAYER
10
9.42711480977036
20
38.3881354999895
30
0.0
11
9.41093861945146
21
38.3860058641325
31
0.0
  0
LINE
  8
MY3DLAYER
10
9.41093861945146
20
38.3860058641325
30
0.0
11
9.39586480977036
21
38.379762087726
31
0.0
  0
LINE
  8
MY3DLAYER
10
9.38292063594619
20
38.3698296738136
30
0.0
11
8.43469733124286
21
38.3698296738136
31
0.0
  0
LINE
  8
MY3DLAYER
10
9.39586480977036
20
38.379762087726
30
0.0
11
9.38292063594619
21
38.3698296738136
31
0.0
  0
LINE
  8
MY3DLAYER
10
9.47130898359453
20
38.2814413261653
30
0.0
11
9.48124139750689
21
38.2943854999895
31
0.0
  0
LINE
  8
MY3DLAYER
10
9.48124139750689
20
38.2943854999895
30
0.0
11
9.48748517391343
21
38.3094593096706
31
0.0
  0
LINE
  8
MY3DLAYER
10
9.48748517391343
20
38.3094593096706
30
0.0
11
9.48961480977036
21
38.3256354999895
31
0.0
  0
LINE
  8
MY3DLAYER
10
9.48961480977036
20
38.3256354999895
30
0.0
11
9.48748517391343
21
38.3418116903084
31
0.0
  0
LINE
  8
MY3DLAYER
10
9.48748517391343
20
38.3418116903084
30
0.0
11
9.48124139750689
21
38.3568854999895
31
0.0
  0
LINE
  8
MY3DLAYER
10
9.48124139750689
20
38.3568854999895
30
0.0
11
9.47130898359453
21
38.3698296738136
31
0.0
  0
LINE
  8
MY3DLAYER
10
10.3963089835946
20
37.2448296738134
30
0.0
11
10.3863765696822
21
37.2318854999892
31
0.0
  0
LINE
  8
MY3DLAYER
10
10.3863765696822
20
37.2318854999892
30
0.0
11
10.3801327932757
21
37.2168116903082
31
0.0
  0
LINE
  8
MY3DLAYER
10
10.3801327932757
20
37.2168116903082
30
0.0
11
10.3780031574187
21
37.2006354999892
31
0.0
  0
LINE
  8
MY3DLAYER
10
10.3780031574187
20
37.2006354999892
30
0.0
11
10.3801327932757
21
37.1844593096703
31
0.0
  0
LINE
  8
MY3DLAYER
10
10.3801327932757
20
37.1844593096703
30
0.0
11
10.3863765696822
21
37.1693854999892
31
0.0
  0
LINE
  8
MY3DLAYER
10
10.3963089835946
20
37.1564413261651
30
0.0
11
10.3963089835946
21
35.7082180214617
31
0.0
  0
LINE
  8
MY3DLAYER
10
10.3863765696822
20
37.1693854999892
30
0.0
11
10.3963089835946
21
37.1564413261651
31
0.0
  0
LINE
  8
MY3DLAYER
10
10.4846973312429
20
37.2448296738134
30
0.0
11
10.4717531574187
21
37.2547620877258
31
0.0
  0
LINE
  8
MY3DLAYER
10
10.4717531574187
20
37.2547620877258
30
0.0
11
10.4566793477376
21
37.2610058641323
31
0.0
  0
LINE
  8
MY3DLAYER
10
10.4566793477376
20
37.2610058641323
30
0.0
11
10.4405031574187
21
37.2631354999892
31
0.0
  0
LINE
  8
MY3DLAYER
10
10.4405031574187
20
37.2631354999892
30
0.0
11
10.4243269670998
21
37.2610058641323
31
0.0
  0
LINE
  8
MY3DLAYER
10
10.4243269670998
20
37.2610058641323
30
0.0
11
10.4092531574187
21
37.2547620877258
31
0.0
  0
LINE
  8
MY3DLAYER
10
10.4092531574187
20
37.2547620877258
30
0.0
11
10.3963089835946
21
37.2448296738134
31
0.0
  0
LINE
  8
MY3DLAYER
10
10.5963089835946
20
37.2448296738134
30
0.0
11
10.5833648097704
21
37.2547620877258
31
0.0
  0
LINE
  8
MY3DLAYER
10
10.5833648097704
20
37.2547620877258
30
0.0
11
10.5682910000893
21
37.2610058641323
31
0.0
  0
LINE
  8
MY3DLAYER
10
10.5682910000893
20
37.2610058641323
30
0.0
11
10.5521148097704
21
37.2631354999892
31
0.0
  0
LINE
  8
MY3DLAYER
10
10.5521148097704
20
37.2631354999892
30
0.0
11
10.5359386194515
21
37.2610058641323
31
0.0
  0
LINE
  8
MY3DLAYER
10
10.5359386194515
20
37.2610058641323
30
0.0
11
10.5208648097704
21
37.2547620877258
31
0.0
  0
LINE
  8
MY3DLAYER
10
10.5079206359462
20
37.2448296738134
30
0.0
11
10.4846973312429
21
37.2448296738134
31
0.0
  0
LINE
  8
MY3DLAYER
10
10.5208648097704
20
37.2547620877258
30
0.0
11
10.5079206359462
21
37.2448296738134
31
0.0
  0
LINE
  8
MY3DLAYER
10
10.5963089835946
20
37.1564413261651
30
0.0
11
10.6062413975069
21
37.1693854999892
31
0.0
  0
LINE
  8
MY3DLAYER
10
10.6062413975069
20
37.1693854999892
30
0.0
11
10.6124851739135
21
37.1844593096703
31
0.0
  0
LINE
  8
MY3DLAYER
10
10.6124851739135
20
37.1844593096703
30
0.0
11
10.6146148097704
21
37.2006354999892
31
0.0
  0
LINE
  8
MY3DLAYER
10
10.6146148097704
20
37.2006354999892
30
0.0
11
10.6124851739135
21
37.2168116903082
31
0.0
  0
LINE
  8
MY3DLAYER
10
10.6124851739135
20
37.2168116903082
30
0.0
11
10.6062413975069
21
37.2318854999892
31
0.0
  0
LINE
  8
MY3DLAYER
10
10.6062413975069
20
37.2318854999892
30
0.0
11
10.5963089835946
21
37.2448296738134
31
0.0
  0
LINE
  8
MY3DLAYER
10
10.3963089835946
20
35.6198296738134
30
0.0
11
10.4092531574188
21
35.609897259901
31
0.0
  0
LINE
  8
MY3DLAYER
10
10.4092531574188
20
35.609897259901
30
0.0
11
10.4243269670999
21
35.6036534834945
31
0.0
  0
LINE
  8
MY3DLAYER
10
10.4243269670999
20
35.6036534834945
30
0.0
11
10.4405031574188
21
35.6015238476376
31
0.0
  0
LINE
  8
MY3DLAYER
10
10.4405031574188
20
35.6015238476376
30
0.0
11
10.4566793477377
21
35.6036534834945
31
0.0
  0
LINE
  8
MY3DLAYER
10
10.4566793477377
20
35.6036534834945
30
0.0
11
10.4717531574188
21
35.609897259901
31
0.0
  0
LINE
  8
MY3DLAYER
10
10.4846973312429
20
35.6198296738134
30
0.0
11
10.5079206359462
21
35.6198296738134
31
0.0
  0
LINE
  8
MY3DLAYER
10
10.4717531574188
20
35.609897259901
30
0.0
11
10.4846973312429
21
35.6198296738134
31
0.0
  0
LINE
  8
MY3DLAYER
10
10.3963089835946
20
35.7082180214617
30
0.0
11
10.3863765696822
21
35.6952738476376
31
0.0
  0
LINE
  8
MY3DLAYER
10
10.3863765696822
20
35.6952738476376
30
0.0
11
10.3801327932757
21
35.6802000379565
31
0.0
  0
LINE
  8
MY3DLAYER
10
10.3801327932757
20
35.6802000379565
30
0.0
11
10.3780031574188
21
35.6640238476376
31
0.0
  0
LINE
  8
MY3DLAYER
10
10.3780031574188
20
35.6640238476376
30
0.0
11
10.3801327932757
21
35.6478476573187
31
0.0
  0
LINE
  8
MY3DLAYER
10
10.3801327932757
20
35.6478476573187
30
0.0
11
10.3863765696822
21
35.6327738476376
31
0.0
  0
LINE
  8
MY3DLAYER
10
10.3863765696822
20
35.6327738476376
30
0.0
11
10.3963089835946
21
35.6198296738134
31
0.0
  0
LINE
  8
MY3DLAYER
10
10.5963089835946
20
35.6198296738134
30
0.0
11
10.6062413975069
21
35.6327738476376
31
0.0
  0
LINE
  8
MY3DLAYER
10
10.6062413975069
20
35.6327738476376
30
0.0
11
10.6124851739135
21
35.6478476573187
31
0.0
  0
LINE
  8
MY3DLAYER
10
10.6124851739135
20
35.6478476573187
30
0.0
11
10.6146148097704
21
35.6640238476376
31
0.0
  0
LINE
  8
MY3DLAYER
10
10.6146148097704
20
35.6640238476376
30
0.0
11
10.6124851739135
21
35.6802000379565
31
0.0
  0
LINE
  8
MY3DLAYER
10
10.6124851739135
20
35.6802000379565
30
0.0
11
10.6062413975069
21
35.6952738476376
31
0.0
  0
LINE
  8
MY3DLAYER
10
10.5963089835946
20
35.7082180214617
30
0.0
11
10.5963089835946
21
37.1564413261651
31
0.0
  0
LINE
  8
MY3DLAYER
10
10.6062413975069
20
35.6952738476376
30
0.0
11
10.5963089835946
21
35.7082180214617
31
0.0
  0
LINE
  8
MY3DLAYER
10
10.5079206359462
20
35.6198296738134
30
0.0
11
10.5208648097704
21
35.609897259901
31
0.0
  0
LINE
  8
MY3DLAYER
10
10.5208648097704
20
35.609897259901
30
0.0
11
10.5359386194515
21
35.6036534834945
31
0.0
  0
LINE
  8
MY3DLAYER
10
10.5359386194515
20
35.6036534834945
30
0.0
11
10.5521148097704
21
35.6015238476376
31
0.0
  0
LINE
  8
MY3DLAYER
10
10.5521148097704
20
35.6015238476376
30
0.0
11
10.5682910000893
21
35.6036534834945
31
0.0
  0
LINE
  8
MY3DLAYER
10
10.5682910000893
20
35.6036534834945
30
0.0
11
10.5833648097704
21
35.609897259901
31
0.0
  0
LINE
  8
MY3DLAYER
10
10.5833648097704
20
35.609897259901
30
0.0
11
10.5963089835946
21
35.6198296738134
31
0.0
  0
LINE
  8
MY3DLAYER
10
23.5979589527407
20
30.4848972599009
30
0.0
11
23.6130327624218
21
30.4786534834944
31
0.0
  0
LINE
  8
MY3DLAYER
10
23.6130327624218
20
30.4786534834944
30
0.0
11
23.6292089527407
21
30.4765238476375
31
0.0
  0
LINE
  8
MY3DLAYER
10
23.6734031265648
20
30.4948296738133
30
0.0
11
23.6966264312682
21
30.4948296738133
31
0.0
  0
LINE
  8
MY3DLAYER
10
23.6292089527407
20
30.4765238476375
30
0.0
11
23.6453851430596
21
30.4786534834944
31
0.0
  0
LINE
  8
MY3DLAYER
10
23.6604589527407
20
30.4848972599009
30
0.0
11
23.6734031265648
21
30.4948296738133
31
0.0
  0
LINE
  8
MY3DLAYER
10
23.6453851430596
20
30.4786534834944
30
0.0
11
23.6604589527407
21
30.4848972599009
31
0.0
  0
LINE
  8
MY3DLAYER
10
23.5979589527406
20
31.6297620877257
30
0.0
11
23.5850147789165
21
31.6198296738133
31
0.0
  0
LINE
  8
MY3DLAYER
10
23.5850147789165
20
30.5832180214616
30
0.0
11
23.5750823650041
21
30.5702738476375
31
0.0
  0
LINE
  8
MY3DLAYER
10
23.5750823650041
20
30.5702738476375
30
0.0
11
23.5688385885976
21
30.5552000379564
31
0.0
  0
LINE
  8
MY3DLAYER
10
23.5688385885976
20
30.5552000379564
30
0.0
11
23.5667089527407
21
30.5390238476375
31
0.0
  0
LINE
  8
MY3DLAYER
10
23.5667089527407
20
30.5390238476375
30
0.0
11
23.5688385885976
21
30.5228476573186
31
0.0
  0
LINE
  8
MY3DLAYER
10
23.5688385885976
20
30.5228476573186
30
0.0
11
23.5750823650041
21
30.5077738476375
31
0.0
  0
LINE
  8
MY3DLAYER
10
23.5750823650041
20
30.5077738476375
30
0.0
11
23.5850147789165
21
30.4948296738133
31
0.0
  0
LINE
  8
MY3DLAYER
10
17.0350147789163
20
29.3698296738131
30
0.0
11
17.0449471928286
21
29.3827738476373
31
0.0
  0
LINE
  8
MY3DLAYER
10
17.0220706050921
20
29.3598972599008
30
0.0
11
17.0350147789163
21
29.3698296738131
31
0.0
  0
LINE
  8
MY3DLAYER
10
17.006996795411
20
29.3536534834942
30
0.0
11
17.0220706050921
21
29.3598972599008
31
0.0
  0
LINE
  8
MY3DLAYER
10
16.9908206050921
20
29.3515238476373
30
0.0
11
17.006996795411
21
29.3536534834942
31
0.0
  0
LINE
  8
MY3DLAYER
10
16.9746444147732
20
29.3536534834942
30
0.0
11
16.9908206050921
21
29.3515238476373
31
0.0
  0
LINE
  8
MY3DLAYER
10
16.9595706050921
20
29.3598972599008
30
0.0
11
16.9746444147732
21
29.3536534834942
31
0.0
  0
LINE
  8
MY3DLAYER
10
16.9466264312679
20
29.3698296738131
30
0.0
11
16.9595706050921
21
29.3598972599008
31
0.0
  0
LINE
  8
MY3DLAYER
10
15.9984031265646
20
29.3698296738131
30
0.0
11
16.9466264312679
21
29.3698296738131
31
0.0
  0
LINE
  8
MY3DLAYER
10
15.9854589527404
20
29.3598972599007
30
0.0
11
15.9984031265646
21
29.3698296738131
31
0.0
  0
LINE
  8
MY3DLAYER
10
15.9703851430593
20
29.3536534834942
30
0.0
11
15.9854589527404
21
29.3598972599007
31
0.0
  0
LINE
  8
MY3DLAYER
10
15.9542089527404
20
29.3515238476373
30
0.0
11
15.9703851430593
21
29.3536534834942
31
0.0
  0
LINE
  8
MY3DLAYER
10
15.9380327624215
20
29.3536534834942
30
0.0
11
15.9542089527404
21
29.3515238476373
31
0.0
  0
LINE
  8
MY3DLAYER
10
15.9229589527404
20
29.3598972599007
30
0.0
11
15.9380327624215
21
29.3536534834942
31
0.0
  0
LINE
  8
MY3DLAYER
10
15.9100147789163
20
29.3698296738131
30
0.0
11
15.9229589527404
21
29.3598972599007
31
0.0
  0
LINE
  8
MY3DLAYER
10
15.9000823650039
20
29.3827738476373
30
0.0
11
15.9100147789163
21
29.3698296738131
31
0.0
  0
LINE
  8
MY3DLAYER
10
15.8938385885974
20
29.3978476573184
30
0.0
11
15.9000823650039
21
29.3827738476373
31
0.0
  0
LINE
  8
MY3DLAYER
10
15.8917089527404
20
29.4140238476373
30
0.0
11
15.8938385885974
21
29.3978476573184
31
0.0
  0
LINE
  8
MY3DLAYER
10
15.8938385885974
20
29.4302000379562
30
0.0
11
15.8917089527404
21
29.4140238476373
31
0.0
  0
LINE
  8
MY3DLAYER
10
15.9000823650039
20
29.4452738476373
30
0.0
11
15.8938385885974
21
29.4302000379562
31
0.0
  0
LINE
  8
MY3DLAYER
10
15.9100147789163
20
29.4582180214614
30
0.0
11
15.9000823650039
21
29.4452738476373
31
0.0
  0
LINE
  8
MY3DLAYER
10
15.9100147789163
20
29.4814413261648
30
0.0
11
15.9100147789163
21
29.4582180214614
31
0.0
  0
LINE
  8
MY3DLAYER
10
15.9000823650039
20
29.4943854999889
30
0.0
11
15.9100147789163
21
29.4814413261648
31
0.0
  0
LINE
  8
MY3DLAYER
10
15.8938385885974
20
29.50945930967
30
0.0
11
15.9000823650039
21
29.4943854999889
31
0.0
  0
LINE
  8
MY3DLAYER
10
15.8917089527404
20
29.5256354999889
30
0.0
11
15.8938385885974
21
29.50945930967
31
0.0
  0
LINE
  8
MY3DLAYER
10
15.8938385885974
20
29.5418116903078
30
0.0
11
15.8917089527404
21
29.5256354999889
31
0.0
  0
LINE
  8
MY3DLAYER
10
15.9000823650039
20
29.5568854999889
30
0.0
11
15.8938385885974
21
29.5418116903078
31
0.0
  0
LINE
  8
MY3DLAYER
10
15.9100147789163
20
29.5698296738131
30
0.0
11
15.9000823650039
21
29.5568854999889
31
0.0
  0
LINE
  8
MY3DLAYER
10
15.9229589527404
20
29.5797620877255
30
0.0
11
15.9100147789163
21
29.5698296738131
31
0.0
  0
LINE
  8
MY3DLAYER
10
15.9380327624215
20
29.586005864132
30
0.0
11
15.9229589527404
21
29.5797620877255
31
0.0
  0
LINE
  8
MY3DLAYER
10
15.9542089527404
20
29.5881354999889
30
0.0
11
15.9380327624215
21
29.586005864132
31
0.0
  0
LINE
  8
MY3DLAYER
10
15.9703851430593
20
29.586005864132
30
0.0
11
15.9542089527404
21
29.5881354999889
31
0.0
  0
LINE
  8
MY3DLAYER
10
15.9854589527404
20
29.5797620877255
30
0.0
11
15.9703851430593
21
29.586005864132
31
0.0
  0
LINE
  8
MY3DLAYER
10
15.9984031265646
20
29.5698296738131
30
0.0
11
15.9854589527404
21
29.5797620877255
31
0.0
  0
LINE
  8
MY3DLAYER
10
16.9466264312679
20
29.5698296738131
30
0.0
11
15.9984031265646
21
29.5698296738131
31
0.0
  0
LINE
  8
MY3DLAYER
10
16.9595706050921
20
29.5797620877255
30
0.0
11
16.9466264312679
21
29.5698296738131
31
0.0
  0
LINE
  8
MY3DLAYER
10
16.9746444147732
20
29.586005864132
30
0.0
11
16.9595706050921
21
29.5797620877255
31
0.0
  0
LINE
  8
MY3DLAYER
10
16.9908206050921
20
29.588135499989
30
0.0
11
16.9746444147732
21
29.586005864132
31
0.0
  0
LINE
  8
MY3DLAYER
10
17.006996795411
20
29.586005864132
30
0.0
11
16.9908206050921
21
29.588135499989
31
0.0
  0
LINE
  8
MY3DLAYER
10
17.0220706050921
20
29.5797620877255
30
0.0
11
17.006996795411
21
29.586005864132
31
0.0
  0
LINE
  8
MY3DLAYER
10
17.0350147789163
20
29.5698296738131
30
0.0
11
17.0220706050921
21
29.5797620877255
31
0.0
  0
LINE
  8
MY3DLAYER
10
17.0449471928287
20
29.556885499989
30
0.0
11
17.0350147789163
21
29.5698296738131
31
0.0
  0
LINE
  8
MY3DLAYER
10
17.0511909692352
20
29.5418116903079
30
0.0
11
17.0449471928287
21
29.556885499989
31
0.0
  0
LINE
  8
MY3DLAYER
10
17.0533206050921
20
29.525635499989
30
0.0
11
17.0511909692352
21
29.5418116903079
31
0.0
  0
LINE
  8
MY3DLAYER
10
17.0511909692352
20
29.5094593096701
30
0.0
11
17.0533206050921
21
29.525635499989
31
0.0
  0
LINE
  8
MY3DLAYER
10
17.0449471928287
20
29.494385499989
30
0.0
11
17.0511909692352
21
29.5094593096701
31
0.0
  0
LINE
  8
MY3DLAYER
10
17.0350147789163
20
29.4814413261648
30
0.0
11
17.0449471928287
21
29.494385499989
31
0.0
  0
LINE
  8
MY3DLAYER
10
17.0350147789163
20
29.4582180214614
30
0.0
11
17.0350147789163
21
29.4814413261648
31
0.0
  0
LINE
  8
MY3DLAYER
10
17.0449471928287
20
29.4452738476373
30
0.0
11
17.0350147789163
21
29.4582180214614
31
0.0
  0
LINE
  8
MY3DLAYER
10
17.0511909692352
20
29.4302000379562
30
0.0
11
17.0449471928287
21
29.4452738476373
31
0.0
  0
LINE
  8
MY3DLAYER
10
17.0533206050921
20
29.4140238476373
30
0.0
11
17.0511909692352
21
29.4302000379562
31
0.0
  0
LINE
  8
MY3DLAYER
10
17.0511909692352
20
29.3978476573184
30
0.0
11
17.0533206050921
21
29.4140238476373
31
0.0
  0
LINE
  8
MY3DLAYER
10
17.0449471928286
20
29.3827738476373
30
0.0
11
17.0511909692352
21
29.3978476573184
31
0.0
  0
LINE
  8
MY3DLAYER
10
22.6600147789163
20
29.3698296738133
30
0.0
11
22.6699471928286
21
29.3827738476374
31
0.0
  0
LINE
  8
MY3DLAYER
10
22.6470706050921
20
29.3598972599009
30
0.0
11
22.6600147789163
21
29.3698296738133
31
0.0
  0
LINE
  8
MY3DLAYER
10
22.631996795411
20
29.3536534834944
30
0.0
11
22.6470706050921
21
29.3598972599009
31
0.0
  0
LINE
  8
MY3DLAYER
10
22.6158206050921
20
29.3515238476374
30
0.0
11
22.631996795411
21
29.3536534834944
31
0.0
  0
LINE
  8
MY3DLAYER
10
22.5996444147732
20
29.3536534834944
30
0.0
11
22.6158206050921
21
29.3515238476374
31
0.0
  0
LINE
  8
MY3DLAYER
10
22.5845706050921
20
29.3598972599009
30
0.0
11
22.5996444147732
21
29.3536534834944
31
0.0
  0
LINE
  8
MY3DLAYER
10
22.5716264312679
20
29.3698296738133
30
0.0
11
22.5845706050921
21
29.3598972599009
31
0.0
  0
LINE
  8
MY3DLAYER
10
21.1234031265646
20
29.3698296738133
30
0.0
11
22.5716264312679
21
29.3698296738133
31
0.0
  0
LINE
  8
MY3DLAYER
10
21.1104589527404
20
29.3598972599009
30
0.0
11
21.1234031265646
21
29.3698296738133
31
0.0
  0
LINE
  8
MY3DLAYER
10
21.0953851430593
20
29.3536534834943
30
0.0
11
21.1104589527404
21
29.3598972599009
31
0.0
  0
LINE
  8
MY3DLAYER
10
21.0792089527404
20
29.3515238476374
30
0.0
11
21.0953851430593
21
29.3536534834943
31
0.0
  0
LINE
  8
MY3DLAYER
10
21.0630327624215
20
29.3536534834943
30
0.0
11
21.0792089527404
21
29.3515238476374
31
0.0
  0
LINE
  8
MY3DLAYER
10
21.0479589527404
20
29.3598972599009
30
0.0
11
21.0630327624215
21
29.3536534834943
31
0.0
  0
LINE
  8
MY3DLAYER
10
21.0350147789163
20
29.3698296738133
30
0.0
11
21.0479589527404
21
29.3598972599009
31
0.0
  0
LINE
  8
MY3DLAYER
10
21.0250823650039
20
29.3827738476374
30
0.0
11
21.0350147789163
21
29.3698296738133
31
0.0
  0
LINE
  8
MY3DLAYER
10
21.0188385885974
20
29.3978476573185
30
0.0
11
21.0250823650039
21
29.3827738476374
31
0.0
  0
LINE
  8
MY3DLAYER
10
21.0167089527404
20
29.4140238476374
30
0.0
11
21.0188385885974
21
29.3978476573185
31
0.0
  0
LINE
  8
MY3DLAYER
10
21.0188385885974
20
29.4302000379563
30
0.0
11
21.0167089527404
21
29.4140238476374
31
0.0
  0
LINE
  8
MY3DLAYER
10
21.0250823650039
20
29.4452738476374
30
0.0
11
21.0188385885974
21
29.4302000379563
31
0.0
  0
LINE
  8
MY3DLAYER
10
21.0350147789163
20
29.4582180214616
30
0.0
11
21.0250823650039
21
29.4452738476374
31
0.0
  0
LINE
  8
MY3DLAYER
10
21.0350147789163
20
29.4814413261649
30
0.0
11
21.0350147789163
21
29.4582180214616
31
0.0
  0
LINE
  8
MY3DLAYER
10
21.0250823650039
20
29.4943854999891
30
0.0
11
21.0350147789163
21
29.4814413261649
31
0.0
  0
LINE
  8
MY3DLAYER
10
21.0188385885974
20
29.5094593096702
30
0.0
11
21.0250823650039
21
29.4943854999891
31
0.0
  0
LINE
  8
MY3DLAYER
10
21.0167089527404
20
29.5256354999891
30
0.0
11
21.0188385885974
21
29.5094593096702
31
0.0
  0
LINE
  8
MY3DLAYER
10
21.0188385885974
20
29.541811690308
30
0.0
11
21.0167089527404
21
29.5256354999891
31
0.0
  0
LINE
  8
MY3DLAYER
10
21.0250823650039
20
29.5568854999891
30
0.0
11
21.0188385885974
21
29.541811690308
31
0.0
  0
LINE
  8
MY3DLAYER
10
21.0350147789163
20
29.5698296738132
30
0.0
11
21.0250823650039
21
29.5568854999891
31
0.0
  0
LINE
  8
MY3DLAYER
10
21.0479589527404
20
29.5797620877256
30
0.0
11
21.0350147789163
21
29.5698296738132
31
0.0
  0
LINE
  8
MY3DLAYER
10
21.0630327624215
20
29.5860058641322
30
0.0
11
21.0479589527404
21
29.5797620877256
31
0.0
  0
LINE
  8
MY3DLAYER
10
21.0792089527404
20
29.5881354999891
30
0.0
11
21.0630327624215
21
29.5860058641322
31
0.0
  0
LINE
  8
MY3DLAYER
10
21.0953851430593
20
29.5860058641322
30
0.0
11
21.0792089527404
21
29.5881354999891
31
0.0
  0
LINE
  8
MY3DLAYER
10
21.1104589527404
20
29.5797620877256
30
0.0
11
21.0953851430593
21
29.5860058641322
31
0.0
  0
LINE
  8
MY3DLAYER
10
21.1234031265646
20
29.5698296738132
30
0.0
11
21.1104589527404
21
29.5797620877256
31
0.0
  0
LINE
  8
MY3DLAYER
10
22.5716264312679
20
29.5698296738133
30
0.0
11
21.1234031265646
21
29.5698296738132
31
0.0
  0
LINE
  8
MY3DLAYER
10
22.5845706050921
20
29.5797620877256
30
0.0
11
22.5716264312679
21
29.5698296738133
31
0.0
  0
LINE
  8
MY3DLAYER
10
22.5996444147732
20
29.5860058641322
30
0.0
11
22.5845706050921
21
29.5797620877256
31
0.0
  0
LINE
  8
MY3DLAYER
10
22.6158206050921
20
29.5881354999891
30
0.0
11
22.5996444147732
21
29.5860058641322
31
0.0
  0
LINE
  8
MY3DLAYER
10
22.631996795411
20
29.5860058641322
30
0.0
11
22.6158206050921
21
29.5881354999891
31
0.0
  0
LINE
  8
MY3DLAYER
10
22.6470706050921
20
29.5797620877256
30
0.0
11
22.631996795411
21
29.5860058641322
31
0.0
  0
LINE
  8
MY3DLAYER
10
22.6600147789163
20
29.5698296738133
30
0.0
11
22.6470706050921
21
29.5797620877256
31
0.0
  0
LINE
  8
MY3DLAYER
10
22.6699471928286
20
29.5568854999891
30
0.0
11
22.6600147789163
21
29.5698296738133
31
0.0
  0
LINE
  8
MY3DLAYER
10
22.6761909692352
20
29.541811690308
30
0.0
11
22.6699471928286
21
29.5568854999891
31
0.0
  0
LINE
  8
MY3DLAYER
10
22.6783206050921
20
29.5256354999891
30
0.0
11
22.6761909692352
21
29.541811690308
31
0.0
  0
LINE
  8
MY3DLAYER
10
22.6761909692352
20
29.5094593096702
30
0.0
11
22.6783206050921
21
29.5256354999891
31
0.0
  0
LINE
  8
MY3DLAYER
10
22.6699471928286
20
29.4943854999891
30
0.0
11
22.6761909692352
21
29.5094593096702
31
0.0
  0
LINE
  8
MY3DLAYER
10
22.6600147789163
20
29.481441326165
30
0.0
11
22.6699471928286
21
29.4943854999891
31
0.0
  0
LINE
  8
MY3DLAYER
10
22.6600147789163
20
29.4582180214616
30
0.0
11
22.6600147789163
21
29.481441326165
31
0.0
  0
LINE
  8
MY3DLAYER
10
22.6699471928286
20
29.4452738476374
30
0.0
11
22.6600147789163
21
29.4582180214616
31
0.0
  0
LINE
  8
MY3DLAYER
10
22.6761909692352
20
29.4302000379563
30
0.0
11
22.6699471928286
21
29.4452738476374
31
0.0
  0
LINE
  8
MY3DLAYER
10
22.6783206050921
20
29.4140238476374
30
0.0
11
22.6761909692352
21
29.4302000379563
31
0.0
  0
LINE
  8
MY3DLAYER
10
22.6761909692352
20
29.3978476573185
30
0.0
11
22.6783206050921
21
29.4140238476374
31
0.0
  0
LINE
  8
MY3DLAYER
10
22.6699471928286
20
29.3827738476374
30
0.0
11
22.6761909692352
21
29.3978476573185
31
0.0
  0
LINE
  8
MY3DLAYER
10
23.7850147789163
20
37.2448296738133
30
0.0
11
23.7720706050922
21
37.2547620877257
31
0.0
  0
LINE
  8
MY3DLAYER
10
23.7949471928287
20
37.2318854999892
30
0.0
11
23.7850147789163
21
37.2448296738133
31
0.0
  0
LINE
  8
MY3DLAYER
10
23.8011909692352
20
37.2168116903081
30
0.0
11
23.7949471928287
21
37.2318854999892
31
0.0
  0
LINE
  8
MY3DLAYER
10
23.8033206050922
20
37.2006354999892
30
0.0
11
23.8011909692352
21
37.2168116903081
31
0.0
  0
LINE
  8
MY3DLAYER
10
23.8011909692352
20
37.1844593096702
30
0.0
11
23.8033206050922
21
37.2006354999892
31
0.0
  0
LINE
  8
MY3DLAYER
10
23.7949471928287
20
37.1693854999892
30
0.0
11
23.8011909692352
21
37.1844593096702
31
0.0
  0
LINE
  8
MY3DLAYER
10
23.7850147789163
20
37.156441326165
30
0.0
11
23.7949471928287
21
37.1693854999892
31
0.0
  0
LINE
  8
MY3DLAYER
10
23.7850147789163
20
35.7082180214616
30
0.0
11
23.7850147789163
21
37.156441326165
31
0.0
  0
LINE
  8
MY3DLAYER
10
23.7949471928287
20
35.6952738476375
30
0.0
11
23.7850147789163
21
35.7082180214616
31
0.0
  0
LINE
  8
MY3DLAYER
10
23.8011909692353
20
35.6802000379564
30
0.0
11
23.7949471928287
21
35.6952738476375
31
0.0
  0
LINE
  8
MY3DLAYER
10
23.8033206050922
20
35.6640238476375
30
0.0
11
23.8011909692353
21
35.6802000379564
31
0.0
  0
LINE
  8
MY3DLAYER
10
23.8011909692353
20
35.6478476573186
30
0.0
11
23.8033206050922
21
35.6640238476375
31
0.0
  0
LINE
  8
MY3DLAYER
10
23.7949471928287
20
35.6327738476375
30
0.0
11
23.8011909692353
21
35.6478476573186
31
0.0
  0
LINE
  8
MY3DLAYER
10
23.7850147789163
20
35.6198296738133
30
0.0
11
23.7949471928287
21
35.6327738476375
31
0.0
  0
LINE
  8
MY3DLAYER
10
23.7720706050922
20
35.6098972599009
30
0.0
11
23.7850147789163
21
35.6198296738133
31
0.0
  0
LINE
  8
MY3DLAYER
10
23.7569967954111
20
35.6036534834944
30
0.0
11
23.7720706050922
21
35.6098972599009
31
0.0
  0
LINE
  8
MY3DLAYER
10
23.7408206050922
20
35.6015238476375
30
0.0
11
23.7569967954111
21
35.6036534834944
31
0.0
  0
LINE
  8
MY3DLAYER
10
23.7246444147733
20
35.6036534834944
30
0.0
11
23.7408206050922
21
35.6015238476375
31
0.0
  0
LINE
  8
MY3DLAYER
10
23.7095706050922
20
35.6098972599009
30
0.0
11
23.7246444147733
21
35.6036534834944
31
0.0
  0
LINE
  8
MY3DLAYER
10
23.696626431268
20
35.6198296738133
30
0.0
11
23.7095706050922
21
35.6098972599009
31
0.0
  0
LINE
  8
MY3DLAYER
10
23.6734031265647
20
35.6198296738133
30
0.0
11
23.696626431268
21
35.6198296738133
31
0.0
  0
LINE
  8
MY3DLAYER
10
23.6604589527405
20
35.6098972599009
30
0.0
11
23.6734031265647
21
35.6198296738133
31
0.0
  0
LINE
  8
MY3DLAYER
10
23.6453851430594
20
35.6036534834944
30
0.0
11
23.6604589527405
21
35.6098972599009
31
0.0
  0
LINE
  8
MY3DLAYER
10
23.6292089527405
20
35.6015238476375
30
0.0
11
23.6453851430594
21
35.6036534834944
31
0.0
  0
LINE
  8
MY3DLAYER
10
23.6130327624216
20
35.6036534834944
30
0.0
11
23.6292089527405
21
35.6015238476375
31
0.0
  0
LINE
  8
MY3DLAYER
10
23.5979589527405
20
35.6098972599009
30
0.0
11
23.6130327624216
21
35.6036534834944
31
0.0
  0
LINE
  8
MY3DLAYER
10
23.5850147789164
20
35.6198296738133
30
0.0
11
23.5979589527405
21
35.6098972599009
31
0.0
  0
LINE
  8
MY3DLAYER
10
23.575082365004
20
35.6327738476375
30
0.0
11
23.5850147789164
21
35.6198296738133
31
0.0
  0
LINE
  8
MY3DLAYER
10
23.5688385885975
20
35.6478476573186
30
0.0
11
23.575082365004
21
35.6327738476375
31
0.0
  0
LINE
  8
MY3DLAYER
10
23.5667089527405
20
35.6640238476375
30
0.0
11
23.5688385885975
21
35.6478476573186
31
0.0
  0
LINE
  8
MY3DLAYER
10
23.5688385885975
20
35.6802000379564
30
0.0
11
23.5667089527405
21
35.6640238476375
31
0.0
  0
LINE
  8
MY3DLAYER
10
23.575082365004
20
35.6952738476375
30
0.0
11
23.5688385885975
21
35.6802000379564
31
0.0
  0
LINE
  8
MY3DLAYER
10
23.5850147789164
20
35.7082180214616
30
0.0
11
23.575082365004
21
35.6952738476375
31
0.0
  0
LINE
  8
MY3DLAYER
10
23.5850147789163
20
37.156441326165
30
0.0
11
23.5850147789164
21
35.7082180214616
31
0.0
  0
LINE
  8
MY3DLAYER
10
23.5750823650039
20
37.1693854999892
30
0.0
11
23.5850147789163
21
37.156441326165
31
0.0
  0
LINE
  8
MY3DLAYER
10
23.5688385885974
20
37.1844593096702
30
0.0
11
23.5750823650039
21
37.1693854999892
31
0.0
  0
LINE
  8
MY3DLAYER
10
23.5667089527405
20
37.2006354999892
30
0.0
11
23.5688385885974
21
37.1844593096702
31
0.0
  0
LINE
  8
MY3DLAYER
10
23.5688385885974
20
37.2168116903081
30
0.0
11
23.5667089527405
21
37.2006354999892
31
0.0
  0
LINE
  8
MY3DLAYER
10
23.5750823650039
20
37.2318854999892
30
0.0
11
23.5688385885974
21
37.2168116903081
31
0.0
  0
LINE
  8
MY3DLAYER
10
23.5850147789163
20
37.2448296738133
30
0.0
11
23.5750823650039
21
37.2318854999892
31
0.0
  0
LINE
  8
MY3DLAYER
10
23.5979589527405
20
37.2547620877257
30
0.0
11
23.5850147789163
21
37.2448296738133
31
0.0
  0
LINE
  8
MY3DLAYER
10
23.6130327624216
20
37.2610058641322
30
0.0
11
23.5979589527405
21
37.2547620877257
31
0.0
  0
LINE
  8
MY3DLAYER
10
23.6292089527405
20
37.2631354999892
30
0.0
11
23.6130327624216
21
37.2610058641322
31
0.0
  0
LINE
  8
MY3DLAYER
10
23.6453851430594
20
37.2610058641322
30
0.0
11
23.6292089527405
21
37.2631354999892
31
0.0
  0
LINE
  8
MY3DLAYER
10
23.6604589527405
20
37.2547620877257
30
0.0
11
23.6453851430594
21
37.2610058641322
31
0.0
  0
LINE
  8
MY3DLAYER
10
23.6734031265646
20
37.2448296738133
30
0.0
11
23.6604589527405
21
37.2547620877257
31
0.0
  0
LINE
  8
MY3DLAYER
10
23.696626431268
20
37.2448296738133
30
0.0
11
23.6734031265646
21
37.2448296738133
31
0.0
  0
LINE
  8
MY3DLAYER
10
23.7095706050922
20
37.2547620877257
30
0.0
11
23.696626431268
21
37.2448296738133
31
0.0
  0
LINE
  8
MY3DLAYER
10
23.7246444147733
20
37.2610058641322
30
0.0
11
23.7095706050922
21
37.2547620877257
31
0.0
  0
LINE
  8
MY3DLAYER
10
23.7408206050922
20
37.2631354999892
30
0.0
11
23.7246444147733
21
37.2610058641322
31
0.0
  0
LINE
  8
MY3DLAYER
10
23.7569967954111
20
37.2610058641322
30
0.0
11
23.7408206050922
21
37.2631354999892
31
0.0
  0
LINE
  8
MY3DLAYER
10
23.7720706050922
20
37.2547620877257
30
0.0
11
23.7569967954111
21
37.2610058641322
31
0.0
  0
LINE
  8
MY3DLAYER
10
21.5350147789163
20
38.3698296738135
30
0.0
11
21.5250823650039
21
38.3568854999893
31
0.0
  0
LINE
  8
MY3DLAYER
10
21.5479589527405
20
38.3797620877259
30
0.0
11
21.5350147789163
21
38.3698296738135
31
0.0
  0
LINE
  8
MY3DLAYER
10
21.5630327624216
20
38.3860058641324
30
0.0
11
21.5479589527405
21
38.3797620877259
31
0.0
  0
LINE
  8
MY3DLAYER
10
21.5792089527405
20
38.3881354999893
30
0.0
11
21.5630327624216
21
38.3860058641324
31
0.0
  0
LINE
  8
MY3DLAYER
10
21.5953851430594
20
38.3860058641324
30
0.0
11
21.5792089527405
21
38.3881354999893
31
0.0
  0
LINE
  8
MY3DLAYER
10
21.6104589527405
20
38.3797620877259
30
0.0
11
21.5953851430594
21
38.3860058641324
31
0.0
  0
LINE
  8
MY3DLAYER
10
21.6234031265646
20
38.3698296738135
30
0.0
11
21.6104589527405
21
38.3797620877259
31
0.0
  0
LINE
  8
MY3DLAYER
10
22.571626431268
20
38.3698296738135
30
0.0
11
21.6234031265646
21
38.3698296738135
31
0.0
  0
LINE
  8
MY3DLAYER
10
22.5845706050921
20
38.3797620877259
30
0.0
11
22.571626431268
21
38.3698296738135
31
0.0
  0
LINE
  8
MY3DLAYER
10
22.5996444147732
20
38.3860058641324
30
0.0
11
22.5845706050921
21
38.3797620877259
31
0.0
  0
LINE
  8
MY3DLAYER
10
22.6158206050921
20
38.3881354999894
30
0.0
11
22.5996444147732
21
38.3860058641324
31
0.0
  0
LINE
  8
MY3DLAYER
10
22.631996795411
20
38.3860058641324
30
0.0
11
22.6158206050921
21
38.3881354999894
31
0.0
  0
LINE
  8
MY3DLAYER
10
22.6470706050921
20
38.3797620877259
30
0.0
11
22.631996795411
21
38.3860058641324
31
0.0
  0
LINE
  8
MY3DLAYER
10
22.6600147789163
20
38.3698296738135
30
0.0
11
22.6470706050921
21
38.3797620877259
31
0.0
  0
LINE
  8
MY3DLAYER
10
22.6699471928287
20
38.3568854999894
30
0.0
11
22.6600147789163
21
38.3698296738135
31
0.0
  0
LINE
  8
MY3DLAYER
10
22.6761909692352
20
38.3418116903083
30
0.0
11
22.6699471928287
21
38.3568854999894
31
0.0
  0
LINE
  8
MY3DLAYER
10
22.6783206050921
20
38.3256354999894
30
0.0
11
22.6761909692352
21
38.3418116903083
31
0.0
  0
LINE
  8
MY3DLAYER
10
22.6761909692352
20
38.3094593096705
30
0.0
11
22.6783206050921
21
38.3256354999894
31
0.0
  0
LINE
  8
MY3DLAYER
10
22.6699471928287
20
38.2943854999894
30
0.0
11
22.6761909692352
21
38.3094593096705
31
0.0
  0
LINE
  8
MY3DLAYER
10
22.6600147789163
20
38.2814413261652
30
0.0
11
22.6699471928287
21
38.2943854999894
31
0.0
  0
LINE
  8
MY3DLAYER
10
22.6600147789163
20
38.2582180214619
30
0.0
11
22.6600147789163
21
38.2814413261652
31
0.0
  0
LINE
  8
MY3DLAYER
10
22.6699471928287
20
38.2452738476377
30
0.0
11
22.6600147789163
21
38.2582180214619
31
0.0
  0
LINE
  8
MY3DLAYER
10
22.6761909692352
20
38.2302000379566
30
0.0
11
22.6699471928287
21
38.2452738476377
31
0.0
  0
LINE
  8
MY3DLAYER
10
22.6783206050921
20
38.2140238476377
30
0.0
11
22.6761909692352
21
38.2302000379566
31
0.0
  0
LINE
  8
MY3DLAYER
10
22.6761909692352
20
38.1978476573188
30
0.0
11
22.6783206050921
21
38.2140238476377
31
0.0
  0
LINE
  8
MY3DLAYER
10
22.6699471928287
20
38.1827738476377
30
0.0
11
22.6761909692352
21
38.1978476573188
31
0.0
  0
LINE
  8
MY3DLAYER
10
22.6600147789163
20
38.1698296738135
30
0.0
11
22.6699471928287
21
38.1827738476377
31
0.0
  0
LINE
  8
MY3DLAYER
10
22.6470706050921
20
38.1598972599012
30
0.0
11
22.6600147789163
21
38.1698296738135
31
0.0
  0
LINE
  8
MY3DLAYER
10
22.631996795411
20
38.1536534834946
30
0.0
11
22.6470706050921
21
38.1598972599012
31
0.0
  0
LINE
  8
MY3DLAYER
10
22.6158206050921
20
38.1515238476377
30
0.0
11
22.631996795411
21
38.1536534834946
31
0.0
  0
LINE
  8
MY3DLAYER
10
22.5996444147732
20
38.1536534834946
30
0.0
11
22.6158206050921
21
38.1515238476377
31
0.0
  0
LINE
  8
MY3DLAYER
10
22.5845706050921
20
38.1598972599012
30
0.0
11
22.5996444147732
21
38.1536534834946
31
0.0
  0
LINE
  8
MY3DLAYER
10
22.571626431268
20
38.1698296738135
30
0.0
11
22.5845706050921
21
38.1598972599012
31
0.0
  0
LINE
  8
MY3DLAYER
10
21.6234031265646
20
38.1698296738135
30
0.0
11
22.571626431268
21
38.1698296738135
31
0.0
  0
LINE
  8
MY3DLAYER
10
21.6104589527405
20
38.1598972599011
30
0.0
11
21.6234031265646
21
38.1698296738135
31
0.0
  0
LINE
  8
MY3DLAYER
10
21.5953851430594
20
38.1536534834946
30
0.0
11
21.6104589527405
21
38.1598972599011
31
0.0
  0
LINE
  8
MY3DLAYER
10
21.5792089527405
20
38.1515238476377
30
0.0
11
21.5953851430594
21
38.1536534834946
31
0.0
  0
LINE
  8
MY3DLAYER
10
21.5630327624216
20
38.1536534834946
30
0.0
11
21.5792089527405
21
38.1515238476377
31
0.0
  0
LINE
  8
MY3DLAYER
10
21.5479589527405
20
38.1598972599011
30
0.0
11
21.5630327624216
21
38.1536534834946
31
0.0
  0
LINE
  8
MY3DLAYER
10
21.5350147789163
20
38.1698296738135
30
0.0
11
21.5479589527405
21
38.1598972599011
31
0.0
  0
LINE
  8
MY3DLAYER
10
21.5250823650039
20
38.1827738476377
30
0.0
11
21.5350147789163
21
38.1698296738135
31
0.0
  0
LINE
  8
MY3DLAYER
10
21.5188385885974
20
38.1978476573188
30
0.0
11
21.5250823650039
21
38.1827738476377
31
0.0
  0
LINE
  8
MY3DLAYER
10
21.5167089527405
20
38.2140238476377
30
0.0
11
21.5188385885974
21
38.1978476573188
31
0.0
  0
LINE
  8
MY3DLAYER
10
21.5188385885974
20
38.2302000379566
30
0.0
11
21.5167089527405
21
38.2140238476377
31
0.0
  0
LINE
  8
MY3DLAYER
10
21.5250823650039
20
38.2452738476377
30
0.0
11
21.5188385885974
21
38.2302000379566
31
0.0
  0
LINE
  8
MY3DLAYER
10
21.5350147789163
20
38.2582180214618
30
0.0
11
21.5250823650039
21
38.2452738476377
31
0.0
  0
LINE
  8
MY3DLAYER
10
21.5350147789163
20
38.2814413261652
30
0.0
11
21.5350147789163
21
38.2582180214618
31
0.0
  0
LINE
  8
MY3DLAYER
10
21.5250823650039
20
38.2943854999893
30
0.0
11
21.5350147789163
21
38.2814413261652
31
0.0
  0
LINE
  8
MY3DLAYER
10
21.5188385885974
20
38.3094593096704
30
0.0
11
21.5250823650039
21
38.2943854999893
31
0.0
  0
LINE
  8
MY3DLAYER
10
21.5167089527405
20
38.3256354999893
30
0.0
11
21.5188385885974
21
38.3094593096704
31
0.0
  0
LINE
  8
MY3DLAYER
10
21.5188385885974
20
38.3418116903083
30
0.0
11
21.5167089527405
21
38.3256354999893
31
0.0
  0
LINE
  8
MY3DLAYER
10
21.5250823650039
20
38.3568854999893
30
0.0
11
21.5188385885974
21
38.3418116903083
31
0.0
  0
LINE
  8
MY3DLAYER
10
14.9850147789163
20
30.4948296738133
30
0.0
11
14.9949471928286
21
30.5077738476375
31
0.0
  0
LINE
  8
MY3DLAYER
10
14.9720706050921
20
30.484897259901
30
0.0
11
14.9850147789163
21
30.4948296738133
31
0.0
  0
LINE
  8
MY3DLAYER
10
14.956996795411
20
30.4786534834944
30
0.0
11
14.9720706050921
21
30.484897259901
31
0.0
  0
LINE
  8
MY3DLAYER
10
14.9408206050921
20
30.4765238476375
30
0.0
11
14.956996795411
21
30.4786534834944
31
0.0
  0
LINE
  8
MY3DLAYER
10
14.9246444147732
20
30.4786534834944
30
0.0
11
14.9408206050921
21
30.4765238476375
31
0.0
  0
LINE
  8
MY3DLAYER
10
14.9095706050921
20
30.484897259901
30
0.0
11
14.9246444147732
21
30.4786534834944
31
0.0
  0
LINE
  8
MY3DLAYER
10
14.8966264312679
20
30.4948296738133
30
0.0
11
14.9095706050921
21
30.484897259901
31
0.0
  0
LINE
  8
MY3DLAYER
10
14.8734031265645
20
30.4948296738133
30
0.0
11
14.8966264312679
21
30.4948296738133
31
0.0
  0
LINE
  8
MY3DLAYER
10
14.8604589527404
20
30.484897259901
30
0.0
11
14.8734031265645
21
30.4948296738133
31
0.0
  0
LINE
  8
MY3DLAYER
10
14.8453851430593
20
30.4786534834944
30
0.0
11
14.8604589527404
21
30.484897259901
31
0.0
  0
LINE
  8
MY3DLAYER
10
14.8292089527404
20
30.4765238476375
30
0.0
11
14.8453851430593
21
30.4786534834944
31
0.0
  0
LINE
  8
MY3DLAYER
10
14.8130327624215
20
30.4786534834944
30
0.0
11
14.8292089527404
21
30.4765238476375
31
0.0
  0
LINE
  8
MY3DLAYER
10
14.7979589527404
20
30.484897259901
30
0.0
11
14.8130327624215
21
30.4786534834944
31
0.0
  0
LINE
  8
MY3DLAYER
10
14.7850147789162
20
30.4948296738133
30
0.0
11
14.7979589527404
21
30.484897259901
31
0.0
  0
LINE
  8
MY3DLAYER
10
14.7750823650039
20
30.5077738476375
30
0.0
11
14.7850147789162
21
30.4948296738133
31
0.0
  0
LINE
  8
MY3DLAYER
10
14.7688385885973
20
30.5228476573186
30
0.0
11
14.7750823650039
21
30.5077738476375
31
0.0
  0
LINE
  8
MY3DLAYER
10
14.7667089527404
20
30.5390238476375
30
0.0
11
14.7688385885973
21
30.5228476573186
31
0.0
  0
LINE
  8
MY3DLAYER
10
14.7688385885973
20
30.5552000379564
30
0.0
11
14.7667089527404
21
30.5390238476375
31
0.0
  0
LINE
  8
MY3DLAYER
10
14.7750823650039
20
30.5702738476375
30
0.0
11
14.7688385885973
21
30.5552000379564
31
0.0
  0
LINE
  8
MY3DLAYER
10
14.7850147789162
20
30.5832180214616
30
0.0
11
14.7750823650039
21
30.5702738476375
31
0.0
  0
LINE
  8
MY3DLAYER
10
14.7850147789162
20
32.031441326165
30
0.0
11
14.7850147789162
21
30.5832180214616
31
0.0
  0
LINE
  8
MY3DLAYER
10
14.7750823650038
20
32.0443854999892
30
0.0
11
14.7850147789162
21
32.031441326165
31
0.0
  0
LINE
  8
MY3DLAYER
10
14.7688385885973
20
32.0594593096703
30
0.0
11
14.7750823650038
21
32.0443854999892
31
0.0
  0
LINE
  8
MY3DLAYER
10
14.7667089527404
20
32.0756354999892
30
0.0
11
14.7688385885973
21
32.0594593096703
31
0.0
  0
LINE
  8
MY3DLAYER
10
14.7688385885973
20
32.0918116903081
30
0.0
11
14.7667089527404
21
32.0756354999892
31
0.0
  0
LINE
  8
MY3DLAYER
10
14.7750823650038
20
32.1068854999892
30
0.0
11
14.7688385885973
21
32.0918116903081
31
0.0
  0
LINE
  8
MY3DLAYER
10
14.7850147789162
20
32.1198296738133
30
0.0
11
14.7750823650038
21
32.1068854999892
31
0.0
  0
LINE
  8
MY3DLAYER
10
14.7979589527404
20
32.1297620877257
30
0.0
11
14.7850147789162
21
32.1198296738133
31
0.0
  0
LINE
  8
MY3DLAYER
10
14.8130327624215
20
32.1360058641322
30
0.0
11
14.7979589527404
21
32.1297620877257
31
0.0
  0
LINE
  8
MY3DLAYER
10
14.8292089527404
20
32.1381354999892
30
0.0
11
14.8130327624215
21
32.1360058641322
31
0.0
  0
LINE
  8
MY3DLAYER
10
14.8453851430593
20
32.1360058641322
30
0.0
11
14.8292089527404
21
32.1381354999892
31
0.0
  0
LINE
  8
MY3DLAYER
10
14.8604589527404
20
32.1297620877257
30
0.0
11
14.8453851430593
21
32.1360058641322
31
0.0
  0
LINE
  8
MY3DLAYER
10
14.8734031265645
20
32.1198296738133
30
0.0
11
14.8604589527404
21
32.1297620877257
31
0.0
  0
LINE
  8
MY3DLAYER
10
14.8966264312679
20
32.1198296738133
30
0.0
11
14.8734031265645
21
32.1198296738133
31
0.0
  0
LINE
  8
MY3DLAYER
10
14.9095706050921
20
32.1297620877257
30
0.0
11
14.8966264312679
21
32.1198296738133
31
0.0
  0
LINE
  8
MY3DLAYER
10
14.9246444147732
20
32.1360058641322
30
0.0
11
14.9095706050921
21
32.1297620877257
31
0.0
  0
LINE
  8
MY3DLAYER
10
14.9408206050921
20
32.1381354999892
30
0.0
11
14.9246444147732
21
32.1360058641322
31
0.0
  0
LINE
  8
MY3DLAYER
10
14.956996795411
20
32.1360058641322
30
0.0
11
14.9408206050921
21
32.1381354999892
31
0.0
  0
LINE
  8
MY3DLAYER
10
14.9720706050921
20
32.1297620877257
30
0.0
11
14.956996795411
21
32.1360058641322
31
0.0
  0
LINE
  8
MY3DLAYER
10
14.9850147789162
20
32.1198296738133
30
0.0
11
14.9720706050921
21
32.1297620877257
31
0.0
  0
LINE
  8
MY3DLAYER
10
14.9949471928286
20
32.1068854999892
30
0.0
11
14.9850147789162
21
32.1198296738133
31
0.0
  0
LINE
  8
MY3DLAYER
10
15.0011909692351
20
32.0918116903081
30
0.0
11
14.9949471928286
21
32.1068854999892
31
0.0
  0
LINE
  8
MY3DLAYER
10
15.0033206050921
20
32.0756354999892
30
0.0
11
15.0011909692351
21
32.0918116903081
31
0.0
  0
LINE
  8
MY3DLAYER
10
15.0011909692351
20
32.0594593096703
30
0.0
11
15.0033206050921
21
32.0756354999892
31
0.0
  0
LINE
  8
MY3DLAYER
10
14.9949471928286
20
32.0443854999892
30
0.0
11
15.0011909692351
21
32.0594593096703
31
0.0
  0
LINE
  8
MY3DLAYER
10
14.9850147789162
20
32.031441326165
30
0.0
11
14.9949471928286
21
32.0443854999892
31
0.0
  0
LINE
  8
MY3DLAYER
10
14.9850147789163
20
30.5832180214616
30
0.0
11
14.9850147789162
21
32.031441326165
31
0.0
  0
LINE
  8
MY3DLAYER
10
14.9949471928286
20
30.5702738476375
30
0.0
11
14.9850147789163
21
30.5832180214616
31
0.0
  0
LINE
  8
MY3DLAYER
10
15.0011909692352
20
30.5552000379564
30
0.0
11
14.9949471928286
21
30.5702738476375
31
0.0
  0
LINE
  8
MY3DLAYER
10
15.0033206050921
20
30.5390238476375
30
0.0
11
15.0011909692352
21
30.5552000379564
31
0.0
  0
LINE
  8
MY3DLAYER
10
15.0011909692352
20
30.5228476573186
30
0.0
11
15.0033206050921
21
30.5390238476375
31
0.0
  0
LINE
  8
MY3DLAYER
10
14.9949471928286
20
30.5077738476375
30
0.0
11
15.0011909692352
21
30.5228476573186
31
0.0
  0
LINE
  8
MY3DLAYER
10
14.7850147789161
20
36.1198296738133
30
0.0
11
14.7979589527403
21
36.109897259901
31
0.0
  0
LINE
  8
MY3DLAYER
10
14.7750823650037
20
36.1327738476375
30
0.0
11
14.7850147789161
21
36.1198296738133
31
0.0
  0
LINE
  8
MY3DLAYER
10
14.7688385885972
20
36.1478476573186
30
0.0
11
14.7750823650037
21
36.1327738476375
31
0.0
  0
LINE
  8
MY3DLAYER
10
14.7667089527403
20
36.1640238476375
30
0.0
11
14.7688385885972
21
36.1478476573186
31
0.0
  0
LINE
  8
MY3DLAYER
10
14.7688385885972
20
36.1802000379564
30
0.0
11
14.7667089527403
21
36.1640238476375
31
0.0
  0
LINE
  8
MY3DLAYER
10
14.7750823650037
20
36.1952738476375
30
0.0
11
14.7688385885972
21
36.1802000379564
31
0.0
  0
LINE
  8
MY3DLAYER
10
14.7850147789161
20
36.2082180214616
30
0.0
11
14.7750823650037
21
36.1952738476375
31
0.0
  0
LINE
  8
MY3DLAYER
10
14.7850147789161
20
37.156441326165
30
0.0
11
14.7850147789161
21
36.2082180214616
31
0.0
  0
LINE
  8
MY3DLAYER
10
14.7750823650037
20
37.1693854999892
30
0.0
11
14.7850147789161
21
37.156441326165
31
0.0
  0
LINE
  8
MY3DLAYER
10
14.7688385885971
20
37.1844593096703
30
0.0
11
14.7750823650037
21
37.1693854999892
31
0.0
  0
LINE
  8
MY3DLAYER
10
14.7667089527402
20
37.2006354999892
30
0.0
11
14.7688385885971
21
37.1844593096703
31
0.0
  0
LINE
  8
MY3DLAYER
10
14.7688385885971
20
37.2168116903081
30
0.0
11
14.7667089527402
21
37.2006354999892
31
0.0
  0
LINE
  8
MY3DLAYER
10
14.7750823650037
20
37.2318854999892
30
0.0
11
14.7688385885971
21
37.2168116903081
31
0.0
  0
LINE
  8
MY3DLAYER
10
14.7850147789161
20
37.2448296738133
30
0.0
11
14.7750823650037
21
37.2318854999892
31
0.0
  0
LINE
  8
MY3DLAYER
10
14.7979589527402
20
37.2547620877257
30
0.0
11
14.7850147789161
21
37.2448296738133
31
0.0
  0
LINE
  8
MY3DLAYER
10
14.8130327624213
20
37.2610058641322
30
0.0
11
14.7979589527402
21
37.2547620877257
31
0.0
  0
LINE
  8
MY3DLAYER
10
14.8292089527402
20
37.2631354999892
30
0.0
11
14.8130327624213
21
37.2610058641322
31
0.0
  0
LINE
  8
MY3DLAYER
10
14.8453851430591
20
37.2610058641322
30
0.0
11
14.8292089527402
21
37.2631354999892
31
0.0
  0
LINE
  8
MY3DLAYER
10
14.8604589527402
20
37.2547620877257
30
0.0
11
14.8453851430591
21
37.2610058641322
31
0.0
  0
LINE
  8
MY3DLAYER
10
14.8734031265644
20
37.2448296738133
30
0.0
11
14.8604589527402
21
37.2547620877257
31
0.0
  0
LINE
  8
MY3DLAYER
10
14.8966264312677
20
37.2448296738133
30
0.0
11
14.8734031265644
21
37.2448296738133
31
0.0
  0
LINE
  8
MY3DLAYER
10
14.9095706050919
20
37.2547620877257
30
0.0
11
14.8966264312677
21
37.2448296738133
31
0.0
  0
LINE
  8
MY3DLAYER
10
14.924644414773
20
37.2610058641322
30
0.0
11
14.9095706050919
21
37.2547620877257
31
0.0
  0
LINE
  8
MY3DLAYER
10
14.9408206050919
20
37.2631354999892
30
0.0
11
14.924644414773
21
37.2610058641322
31
0.0
  0
LINE
  8
MY3DLAYER
10
14.9569967954108
20
37.2610058641322
30
0.0
11
14.9408206050919
21
37.2631354999892
31
0.0
  0
LINE
  8
MY3DLAYER
10
14.9720706050919
20
37.2547620877257
30
0.0
11
14.9569967954108
21
37.2610058641322
31
0.0
  0
LINE
  8
MY3DLAYER
10
14.9850147789161
20
37.2448296738133
30
0.0
11
14.9720706050919
21
37.2547620877257
31
0.0
  0
LINE
  8
MY3DLAYER
10
14.9949471928284
20
37.2318854999892
30
0.0
11
14.9850147789161
21
37.2448296738133
31
0.0
  0
LINE
  8
MY3DLAYER
10
15.001190969235
20
37.2168116903081
30
0.0
11
14.9949471928284
21
37.2318854999892
31
0.0
  0
LINE
  8
MY3DLAYER
10
15.0033206050919
20
37.2006354999892
30
0.0
11
15.001190969235
21
37.2168116903081
31
0.0
  0
LINE
  8
MY3DLAYER
10
15.001190969235
20
37.1844593096703
30
0.0
11
15.0033206050919
21
37.2006354999892
31
0.0
  0
LINE
  8
MY3DLAYER
10
14.9949471928284
20
37.1693854999892
30
0.0
11
15.001190969235
21
37.1844593096703
31
0.0
  0
LINE
  8
MY3DLAYER
10
14.9850147789161
20
37.156441326165
30
0.0
11
14.9949471928284
21
37.1693854999892
31
0.0
  0
LINE
  8
MY3DLAYER
10
14.9850147789161
20
36.2082180214617
30
0.0
11
14.9850147789161
21
37.156441326165
31
0.0
  0
LINE
  8
MY3DLAYER
10
14.9949471928285
20
36.1952738476375
30
0.0
11
14.9850147789161
21
36.2082180214617
31
0.0
  0
LINE
  8
MY3DLAYER
10
15.001190969235
20
36.1802000379564
30
0.0
11
14.9949471928285
21
36.1952738476375
31
0.0
  0
LINE
  8
MY3DLAYER
10
15.0033206050919
20
36.1640238476375
30
0.0
11
15.001190969235
21
36.1802000379564
31
0.0
  0
LINE
  8
MY3DLAYER
10
15.001190969235
20
36.1478476573186
30
0.0
11
15.0033206050919
21
36.1640238476375
31
0.0
  0
LINE
  8
MY3DLAYER
10
14.9949471928285
20
36.1327738476375
30
0.0
11
15.001190969235
21
36.1478476573186
31
0.0
  0
LINE
  8
MY3DLAYER
10
14.9850147789161
20
36.1198296738133
30
0.0
11
14.9949471928285
21
36.1327738476375
31
0.0
  0
LINE
  8
MY3DLAYER
10
14.9720706050919
20
36.109897259901
30
0.0
11
14.9850147789161
21
36.1198296738133
31
0.0
  0
LINE
  8
MY3DLAYER
10
14.9569967954108
20
36.1036534834944
30
0.0
11
14.9720706050919
21
36.109897259901
31
0.0
  0
LINE
  8
MY3DLAYER
10
14.9408206050919
20
36.1015238476375
30
0.0
11
14.9569967954108
21
36.1036534834944
31
0.0
  0
LINE
  8
MY3DLAYER
10
14.924644414773
20
36.1036534834944
30
0.0
11
14.9408206050919
21
36.1015238476375
31
0.0
  0
LINE
  8
MY3DLAYER
10
14.9095706050919
20
36.109897259901
30
0.0
11
14.924644414773
21
36.1036534834944
31
0.0
  0
LINE
  8
MY3DLAYER
10
14.8966264312678
20
36.1198296738133
30
0.0
11
14.9095706050919
21
36.109897259901
31
0.0
  0
LINE
  8
MY3DLAYER
10
14.8734031265644
20
36.1198296738133
30
0.0
11
14.8966264312678
21
36.1198296738133
31
0.0
  0
LINE
  8
MY3DLAYER
10
14.8604589527403
20
36.109897259901
30
0.0
11
14.8734031265644
21
36.1198296738133
31
0.0
  0
LINE
  8
MY3DLAYER
10
14.8453851430592
20
36.1036534834944
30
0.0
11
14.8604589527403
21
36.109897259901
31
0.0
  0
LINE
  8
MY3DLAYER
10
14.8292089527403
20
36.1015238476375
30
0.0
11
14.8453851430592
21
36.1036534834944
31
0.0
  0
LINE
  8
MY3DLAYER
10
14.8130327624214
20
36.1036534834944
30
0.0
11
14.8292089527403
21
36.1015238476375
31
0.0
  0
LINE
  8
MY3DLAYER
10
14.7979589527403
20
36.109897259901
30
0.0
11
14.8130327624214
21
36.1036534834944
31
0.0
  0
LINE
  8
MY3DLAYER
10
23.5850147789165
20
30.4948296738133
30
0.0
11
23.5979589527407
21
30.4848972599009
31
0.0
  0
LINE
  8
MY3DLAYER
10
23.5850147789165
20
31.531441326165
30
0.0
11
23.5850147789165
21
30.5832180214616
31
0.0
  0
LINE
  8
MY3DLAYER
10
23.5750823650041
20
31.5443854999891
30
0.0
11
23.5850147789165
21
31.531441326165
31
0.0
  0
LINE
  8
MY3DLAYER
10
23.5688385885976
20
31.5594593096702
30
0.0
11
23.5750823650041
21
31.5443854999891
31
0.0
  0
LINE
  8
MY3DLAYER
10
23.5667089527406
20
31.5756354999891
30
0.0
11
23.5688385885976
21
31.5594593096702
31
0.0
  0
LINE
  8
MY3DLAYER
10
23.5688385885976
20
31.5918116903081
30
0.0
11
23.5667089527406
21
31.5756354999891
31
0.0
  0
LINE
  8
MY3DLAYER
10
23.5750823650041
20
31.6068854999891
30
0.0
11
23.5688385885976
21
31.5918116903081
31
0.0
  0
LINE
  8
MY3DLAYER
10
23.5850147789165
20
31.6198296738133
30
0.0
11
23.5750823650041
21
31.6068854999891
31
0.0
  0
LINE
  8
MY3DLAYER
10
23.6130327624217
20
31.6360058641322
30
0.0
11
23.5979589527406
21
31.6297620877257
31
0.0
  0
LINE
  8
MY3DLAYER
10
23.6292089527406
20
31.6381354999891
30
0.0
11
23.6130327624217
21
31.6360058641322
31
0.0
  0
LINE
  8
MY3DLAYER
10
23.6453851430595
20
31.6360058641322
30
0.0
11
23.6292089527406
21
31.6381354999891
31
0.0
  0
LINE
  8
MY3DLAYER
10
23.6604589527406
20
31.6297620877257
30
0.0
11
23.6453851430595
21
31.6360058641322
31
0.0
  0
LINE
  8
MY3DLAYER
10
23.6734031265648
20
31.6198296738133
30
0.0
11
23.6604589527406
21
31.6297620877257
31
0.0
  0
LINE
  8
MY3DLAYER
10
23.6966264312681
20
31.6198296738133
30
0.0
11
23.6734031265648
21
31.6198296738133
31
0.0
  0
LINE
  8
MY3DLAYER
10
23.7095706050923
20
31.6297620877257
30
0.0
11
23.6966264312681
21
31.6198296738133
31
0.0
  0
LINE
  8
MY3DLAYER
10
23.7246444147734
20
31.6360058641322
30
0.0
11
23.7095706050923
21
31.6297620877257
31
0.0
  0
LINE
  8
MY3DLAYER
10
23.7408206050923
20
31.6381354999891
30
0.0
11
23.7246444147734
21
31.6360058641322
31
0.0
  0
LINE
  8
MY3DLAYER
10
23.7569967954112
20
31.6360058641322
30
0.0
11
23.7408206050923
21
31.6381354999891
31
0.0
  0
LINE
  8
MY3DLAYER
10
23.7720706050923
20
31.6297620877257
30
0.0
11
23.7569967954112
21
31.6360058641322
31
0.0
  0
LINE
  8
MY3DLAYER
10
23.7850147789165
20
31.6198296738133
30
0.0
11
23.7720706050923
21
31.6297620877257
31
0.0
  0
LINE
  8
MY3DLAYER
10
23.7949471928288
20
31.6068854999891
30
0.0
11
23.7850147789165
21
31.6198296738133
31
0.0
  0
LINE
  8
MY3DLAYER
10
23.8011909692354
20
31.5918116903081
30
0.0
11
23.7949471928288
21
31.6068854999891
31
0.0
  0
LINE
  8
MY3DLAYER
10
23.8033206050923
20
31.5756354999891
30
0.0
11
23.8011909692354
21
31.5918116903081
31
0.0
  0
LINE
  8
MY3DLAYER
10
23.8011909692354
20
31.5594593096702
30
0.0
11
23.8033206050923
21
31.5756354999891
31
0.0
  0
LINE
  8
MY3DLAYER
10
23.7949471928288
20
31.5443854999891
30
0.0
11
23.8011909692354
21
31.5594593096702
31
0.0
  0
LINE
  8
MY3DLAYER
10
23.7850147789165
20
31.531441326165
30
0.0
11
23.7949471928288
21
31.5443854999891
31
0.0
  0
LINE
  8
MY3DLAYER
10
23.7850147789165
20
30.5832180214616
30
0.0
11
23.7850147789165
21
31.531441326165
31
0.0
  0
LINE
  8
MY3DLAYER
10
23.7949471928289
20
30.5702738476375
30
0.0
11
23.7850147789165
21
30.5832180214616
31
0.0
  0
LINE
  8
MY3DLAYER
10
23.8011909692354
20
30.5552000379564
30
0.0
11
23.7949471928289
21
30.5702738476375
31
0.0
  0
LINE
  8
MY3DLAYER
10
23.8033206050923
20
30.5390238476375
30
0.0
11
23.8011909692354
21
30.5552000379564
31
0.0
  0
LINE
  8
MY3DLAYER
10
23.8011909692354
20
30.5228476573186
30
0.0
11
23.8033206050923
21
30.5390238476375
31
0.0
  0
LINE
  8
MY3DLAYER
10
23.7949471928289
20
30.5077738476375
30
0.0
11
23.8011909692354
21
30.5228476573186
31
0.0
  0
LINE
  8
MY3DLAYER
10
23.7850147789165
20
30.4948296738133
30
0.0
11
23.7949471928289
21
30.5077738476375
31
0.0
  0
LINE
  8
MY3DLAYER
10
23.7720706050923
20
30.4848972599009
30
0.0
11
23.7850147789165
21
30.4948296738133
31
0.0
  0
LINE
  8
MY3DLAYER
10
23.7569967954112
20
30.4786534834944
30
0.0
11
23.7720706050923
21
30.4848972599009
31
0.0
  0
LINE
  8
MY3DLAYER
10
23.7408206050923
20
30.4765238476375
30
0.0
11
23.7569967954112
21
30.4786534834944
31
0.0
  0
LINE
  8
MY3DLAYER
10
23.7246444147734
20
30.4786534834944
30
0.0
11
23.7408206050923
21
30.4765238476375
31
0.0
  0
LINE
  8
MY3DLAYER
10
23.7095706050923
20
30.4848972599009
30
0.0
11
23.7246444147734
21
30.4786534834944
31
0.0
  0
LINE
  8
MY3DLAYER
10
23.6966264312682
20
30.4948296738133
30
0.0
11
23.7095706050923
21
30.4848972599009
31
0.0
  0
LINE
  8
MY3DLAYER
10
17.5350147789163
20
38.1698296738134
30
0.0
11
17.5449471928287
21
38.1827738476375
31
0.0
  0
LINE
  8
MY3DLAYER
10
17.5220706050922
20
38.159897259901
30
0.0
11
17.5350147789163
21
38.1698296738134
31
0.0
  0
LINE
  8
MY3DLAYER
10
17.5069967954111
20
38.1536534834945
30
0.0
11
17.5220706050922
21
38.159897259901
31
0.0
  0
LINE
  8
MY3DLAYER
10
17.4908206050922
20
38.1515238476375
30
0.0
11
17.5069967954111
21
38.1536534834945
31
0.0
  0
LINE
  8
MY3DLAYER
10
17.4746444147732
20
38.1536534834945
30
0.0
11
17.4908206050922
21
38.1515238476375
31
0.0
  0
LINE
  8
MY3DLAYER
10
17.4595706050922
20
38.159897259901
30
0.0
11
17.4746444147732
21
38.1536534834945
31
0.0
  0
LINE
  8
MY3DLAYER
10
17.446626431268
20
38.1698296738134
30
0.0
11
17.4595706050922
21
38.159897259901
31
0.0
  0
LINE
  8
MY3DLAYER
10
15.9984031265646
20
38.1698296738134
30
0.0
11
17.446626431268
21
38.1698296738134
31
0.0
  0
LINE
  8
MY3DLAYER
10
15.9854589527405
20
38.159897259901
30
0.0
11
15.9984031265646
21
38.1698296738134
31
0.0
  0
LINE
  8
MY3DLAYER
10
15.9703851430594
20
38.1536534834945
30
0.0
11
15.9854589527405
21
38.159897259901
31
0.0
  0
LINE
  8
MY3DLAYER
10
15.9542089527405
20
38.1515238476375
30
0.0
11
15.9703851430594
21
38.1536534834945
31
0.0
  0
LINE
  8
MY3DLAYER
10
15.9380327624215
20
38.1536534834945
30
0.0
11
15.9542089527405
21
38.1515238476375
31
0.0
  0
LINE
  8
MY3DLAYER
10
15.9229589527405
20
38.159897259901
30
0.0
11
15.9380327624215
21
38.1536534834945
31
0.0
  0
LINE
  8
MY3DLAYER
10
15.9100147789163
20
38.1698296738134
30
0.0
11
15.9229589527405
21
38.159897259901
31
0.0
  0
LINE
  8
MY3DLAYER
10
15.9000823650039
20
38.1827738476375
30
0.0
11
15.9100147789163
21
38.1698296738134
31
0.0
  0
LINE
  8
MY3DLAYER
10
15.8938385885974
20
38.1978476573186
30
0.0
11
15.9000823650039
21
38.1827738476375
31
0.0
  0
LINE
  8
MY3DLAYER
10
15.8917089527405
20
38.2140238476375
30
0.0
11
15.8938385885974
21
38.1978476573186
31
0.0
  0
LINE
  8
MY3DLAYER
10
15.8938385885974
20
38.2302000379564
30
0.0
11
15.8917089527405
21
38.2140238476375
31
0.0
  0
LINE
  8
MY3DLAYER
10
15.9000823650039
20
38.2452738476375
30
0.0
11
15.8938385885974
21
38.2302000379564
31
0.0
  0
LINE
  8
MY3DLAYER
10
15.9100147789163
20
38.2582180214617
30
0.0
11
15.9000823650039
21
38.2452738476375
31
0.0
  0
LINE
  8
MY3DLAYER
10
15.9100147789163
20
38.281441326165
30
0.0
11
15.9100147789163
21
38.2582180214617
31
0.0
  0
LINE
  8
MY3DLAYER
10
15.9000823650039
20
38.2943854999892
30
0.0
11
15.9100147789163
21
38.281441326165
31
0.0
  0
LINE
  8
MY3DLAYER
10
15.8938385885974
20
38.3094593096703
30
0.0
11
15.9000823650039
21
38.2943854999892
31
0.0
  0
LINE
  8
MY3DLAYER
10
15.8917089527405
20
38.3256354999892
30
0.0
11
15.8938385885974
21
38.3094593096703
31
0.0
  0
LINE
  8
MY3DLAYER
10
15.8938385885974
20
38.3418116903081
30
0.0
11
15.8917089527405
21
38.3256354999892
31
0.0
  0
LINE
  8
MY3DLAYER
10
15.9000823650039
20
38.3568854999892
30
0.0
11
15.8938385885974
21
38.3418116903081
31
0.0
  0
LINE
  8
MY3DLAYER
10
15.9100147789163
20
38.3698296738134
30
0.0
11
15.9000823650039
21
38.3568854999892
31
0.0
  0
LINE
  8
MY3DLAYER
10
15.9229589527405
20
38.3797620877257
30
0.0
11
15.9100147789163
21
38.3698296738134
31
0.0
  0
LINE
  8
MY3DLAYER
10
15.9380327624216
20
38.3860058641323
30
0.0
11
15.9229589527405
21
38.3797620877257
31
0.0
  0
LINE
  8
MY3DLAYER
10
15.9542089527405
20
38.3881354999892
30
0.0
11
15.9380327624216
21
38.3860058641323
31
0.0
  0
LINE
  8
MY3DLAYER
10
15.9703851430594
20
38.3860058641323
30
0.0
11
15.9542089527405
21
38.3881354999892
31
0.0
  0
LINE
  8
MY3DLAYER
10
15.9854589527405
20
38.3797620877257
30
0.0
11
15.9703851430594
21
38.3860058641323
31
0.0
  0
LINE
  8
MY3DLAYER
10
15.9984031265646
20
38.3698296738134
30
0.0
11
15.9854589527405
21
38.3797620877257
31
0.0
  0
LINE
  8
MY3DLAYER
10
17.446626431268
20
38.3698296738134
30
0.0
11
15.9984031265646
21
38.3698296738134
31
0.0
  0
LINE
  8
MY3DLAYER
10
17.4595706050922
20
38.3797620877258
30
0.0
11
17.446626431268
21
38.3698296738134
31
0.0
  0
LINE
  8
MY3DLAYER
10
17.4746444147733
20
38.3860058641323
30
0.0
11
17.4595706050922
21
38.3797620877258
31
0.0
  0
LINE
  8
MY3DLAYER
10
17.4908206050922
20
38.3881354999892
30
0.0
11
17.4746444147733
21
38.3860058641323
31
0.0
  0
LINE
  8
MY3DLAYER
10
17.5069967954111
20
38.3860058641323
30
0.0
11
17.4908206050922
21
38.3881354999892
31
0.0
  0
LINE
  8
MY3DLAYER
10
17.5220706050922
20
38.3797620877258
30
0.0
11
17.5069967954111
21
38.3860058641323
31
0.0
  0
LINE
  8
MY3DLAYER
10
17.5350147789163
20
38.3698296738134
30
0.0
11
17.5220706050922
21
38.3797620877258
31
0.0
  0
LINE
  8
MY3DLAYER
10
17.5449471928287
20
38.3568854999892
30
0.0
11
17.5350147789163
21
38.3698296738134
31
0.0
  0
LINE
  8
MY3DLAYER
10
17.5511909692352
20
38.3418116903081
30
0.0
11
17.5449471928287
21
38.3568854999892
31
0.0
  0
LINE
  8
MY3DLAYER
10
17.5533206050922
20
38.3256354999892
30
0.0
11
17.5511909692352
21
38.3418116903081
31
0.0
  0
LINE
  8
MY3DLAYER
10
17.5511909692352
20
38.3094593096703
30
0.0
11
17.5533206050922
21
38.3256354999892
31
0.0
  0
LINE
  8
MY3DLAYER
10
17.5449471928287
20
38.2943854999892
30
0.0
11
17.5511909692352
21
38.3094593096703
31
0.0
  0
LINE
  8
MY3DLAYER
10
17.5350147789163
20
38.2814413261651
30
0.0
11
17.5449471928287
21
38.2943854999892
31
0.0
  0
LINE
  8
MY3DLAYER
10
17.5350147789163
20
38.2582180214617
30
0.0
11
17.5350147789163
21
38.2814413261651
31
0.0
  0
LINE
  8
MY3DLAYER
10
17.5449471928287
20
38.2452738476375
30
0.0
11
17.5350147789163
21
38.2582180214617
31
0.0
  0
LINE
  8
MY3DLAYER
10
17.5511909692352
20
38.2302000379565
30
0.0
11
17.5449471928287
21
38.2452738476375
31
0.0
  0
LINE
  8
MY3DLAYER
10
17.5533206050922
20
38.2140238476375
30
0.0
11
17.5511909692352
21
38.2302000379565
31
0.0
  0
LINE
  8
MY3DLAYER
10
17.5511909692352
20
38.1978476573186
30
0.0
11
17.5533206050922
21
38.2140238476375
31
0.0
  0
LINE
  8
MY3DLAYER
10
17.5449471928287
20
38.1827738476375
30
0.0
11
17.5511909692352
21
38.1978476573186
31
0.0
  0
LINE
  8
MY3DLAYER
10
13.3975592865171
20
39.7572851662132
30
0.0
11
13.32761093982
21
39.6775243634451
31
0.0
  0
LINE
  8
MY3DLAYER
10
13.4773200892853
20
39.8272335129103
30
0.0
11
13.3975592865171
21
39.7572851662132
31
0.0
  0
LINE
  8
MY3DLAYER
10
13.5655286186753
20
39.886172567931
30
0.0
11
13.4773200892853
21
39.8272335129103
31
0.0
  0
LINE
  8
MY3DLAYER
10
13.6606756022932
20
39.9330938677029
30
0.0
11
13.5655286186753
21
39.886172567931
31
0.0
  0
LINE
  8
MY3DLAYER
10
13.7611330488697
20
39.9671945757778
30
0.0
11
13.6606756022932
21
39.9330938677029
31
0.0
  0
LINE
  8
MY3DLAYER
10
13.8651821036417
20
39.9878912195861
30
0.0
11
13.7611330488697
21
39.9671945757778
31
0.0
  0
LINE
  8
MY3DLAYER
10
13.9710424584342
20
39.994829673814
30
0.0
11
13.8651821036417
21
39.9878912195861
31
0.0
  0
LINE
  8
MY3DLAYER
10
13.9710424584342
20
39.994829673814
30
0.0
11
24.5989870993991
21
39.9948296738133
31
0.0
  0
LINE
  8
MY3DLAYER
10
24.7048474541916
20
39.9878912195853
30
0.0
11
24.5989870993991
21
39.9948296738133
31
0.0
  0
LINE
  8
MY3DLAYER
10
24.8088965089636
20
39.967194575777
30
0.0
11
24.7048474541916
21
39.9878912195853
31
0.0
  0
LINE
  8
MY3DLAYER
10
24.9093539555401
20
39.9330938677021
30
0.0
11
24.8088965089636
21
39.967194575777
31
0.0
  0
LINE
  8
MY3DLAYER
10
25.004500939158
20
39.8861725679302
30
0.0
11
24.9093539555401
21
39.9330938677021
31
0.0
  0
LINE
  8
MY3DLAYER
10
25.092709468548
20
39.8272335129096
30
0.0
11
25.004500939158
21
39.8861725679302
31
0.0
  0
LINE
  8
MY3DLAYER
10
25.1724702713162
20
39.7572851662125
30
0.0
11
25.092709468548
21
39.8272335129096
31
0.0
  0
LINE
  8
MY3DLAYER
10
25.2424186180133
20
39.6775243634443
30
0.0
11
25.1724702713162
21
39.7572851662125
31
0.0
  0
LINE
  8
MY3DLAYER
10
25.3013576730339
20
39.5893158340543
30
0.0
11
25.2424186180133
21
39.6775243634443
31
0.0
  0
LINE
  8
MY3DLAYER
10
25.3482789728058
20
39.4941688504364
30
0.0
11
25.3013576730339
21
39.5893158340543
31
0.0
  0
LINE
  8
MY3DLAYER
10
25.3823796808807
20
39.3937114038599
30
0.0
11
25.3482789728058
21
39.4941688504364
31
0.0
  0
LINE
  8
MY3DLAYER
10
25.4030763246891
20
39.2896623490879
30
0.0
11
25.3823796808807
21
39.3937114038599
31
0.0
  0
LINE
  8
MY3DLAYER
10
25.410014778917
20
39.1838019942954
30
0.0
11
25.4030763246891
21
39.2896623490879
31
0.0
  0
LINE
  8
MY3DLAYER
10
25.410014778917
20
39.1838019942954
30
0.0
11
25.4100147789162
21
28.5558573533305
31
0.0
  0
LINE
  8
MY3DLAYER
10
25.4030763246883
20
28.449996998538
30
0.0
11
25.4100147789162
21
28.5558573533305
31
0.0
  0
LINE
  8
MY3DLAYER
10
25.38237968088
20
28.345947943766
30
0.0
11
25.4030763246883
21
28.449996998538
31
0.0
  0
LINE
  8
MY3DLAYER
10
25.348278972805
20
28.2454904971895
30
0.0
11
25.38237968088
21
28.345947943766
31
0.0
  0
LINE
  8
MY3DLAYER
10
25.3013576730332
20
28.1503435135716
30
0.0
11
25.348278972805
21
28.2454904971895
31
0.0
  0
LINE
  8
MY3DLAYER
10
25.2424186180125
20
28.0621349841816
30
0.0
11
25.3013576730332
21
28.1503435135716
31
0.0
  0
LINE
  8
MY3DLAYER
10
25.1724702713154
20
27.9823741814134
30
0.0
11
25.2424186180125
21
28.0621349841816
31
0.0
  0
LINE
  8
MY3DLAYER
10
25.0927094685473
20
27.9124258347163
30
0.0
11
25.1724702713154
21
27.9823741814134
31
0.0
  0
LINE
  8
MY3DLAYER
10
25.0045009391573
20
27.8534867796957
30
0.0
11
25.0927094685473
21
27.9124258347163
31
0.0
  0
LINE
  8
MY3DLAYER
10
24.9093539555393
20
27.8065654799238
30
0.0
11
25.0045009391573
21
27.8534867796957
31
0.0
  0
LINE
  8
MY3DLAYER
10
24.8088965089629
20
27.7724647718489
30
0.0
11
24.9093539555393
21
27.8065654799238
31
0.0
  0
LINE
  8
MY3DLAYER
10
24.7048474541909
20
27.7517681280405
30
0.0
11
24.8088965089629
21
27.7724647718489
31
0.0
  0
LINE
  8
MY3DLAYER
10
24.5989870993983
20
27.7448296738126
30
0.0
11
24.7048474541909
21
27.7517681280405
31
0.0
  0
LINE
  8
MY3DLAYER
10
24.5989870993983
20
27.7448296738126
30
0.0
11
13.9710424584335
21
27.7448296738134
31
0.0
  0
LINE
  8
MY3DLAYER
10
13.8651821036409
20
27.7517681280413
30
0.0
11
13.9710424584335
21
27.7448296738134
31
0.0
  0
LINE
  8
MY3DLAYER
10
13.7611330488689
20
27.7724647718496
30
0.0
11
13.8651821036409
21
27.7517681280413
31
0.0
  0
LINE
  8
MY3DLAYER
10
13.6606756022925
20
27.8065654799245
30
0.0
11
13.7611330488689
21
27.7724647718496
31
0.0
  0
LINE
  8
MY3DLAYER
10
13.5655286186745
20
27.8534867796964
30
0.0
11
13.6606756022925
21
27.8065654799245
31
0.0
  0
LINE
  8
MY3DLAYER
10
13.4773200892845
20
27.9124258347171
30
0.0
11
13.5655286186745
21
27.8534867796964
31
0.0
  0
LINE
  8
MY3DLAYER
10
13.3975592865164
20
27.9823741814142
30
0.0
11
13.4773200892845
21
27.9124258347171
31
0.0
  0
LINE
  8
MY3DLAYER
10
13.3276109398193
20
28.0621349841823
30
0.0
11
13.3975592865164
21
27.9823741814142
31
0.0
  0
LINE
  8
MY3DLAYER
10
13.2686718847986
20
28.1503435135723
30
0.0
11
13.3276109398193
21
28.0621349841823
31
0.0
  0
LINE
  8
MY3DLAYER
10
13.2217505850267
20
28.2454904971903
30
0.0
11
13.2686718847986
21
28.1503435135723
31
0.0
  0
LINE
  8
MY3DLAYER
10
13.1876498769518
20
28.3459479437667
30
0.0
11
13.2217505850267
21
28.2454904971903
31
0.0
  0
LINE
  8
MY3DLAYER
10
13.1669532331435
20
28.4499969985387
30
0.0
11
13.1876498769518
21
28.3459479437667
31
0.0
  0
LINE
  8
MY3DLAYER
10
13.1600147789156
20
28.5558573533313
30
0.0
11
13.1669532331435
21
28.4499969985387
31
0.0
  0
LINE
  8
MY3DLAYER
10
13.1600147789156
20
28.5558573533313
30
0.0
11
13.1600147789163
21
39.1838019942961
31
0.0
  0
LINE
  8
MY3DLAYER
10
13.1669532331443
20
39.2896623490886
30
0.0
11
13.1600147789163
21
39.1838019942961
31
0.0
  0
LINE
  8
MY3DLAYER
10
13.1876498769526
20
39.3937114038607
30
0.0
11
13.1669532331443
21
39.2896623490886
31
0.0
  0
LINE
  8
MY3DLAYER
10
13.2217505850275
20
39.4941688504371
30
0.0
11
13.1876498769526
21
39.3937114038607
31
0.0
  0
LINE
  8
MY3DLAYER
10
13.2686718847993
20
39.5893158340551
30
0.0
11
13.2217505850275
21
39.4941688504371
31
0.0
  0
LINE
  8
MY3DLAYER
10
13.32761093982
20
39.6775243634451
30
0.0
11
13.2686718847993
21
39.5893158340551
31
0.0
  0
LINE
  8
MY3DLAYER
10
21.1265980084346
20
32.028246444295
30
0.0
11
21.136530422347
21
32.0411906181192
31
0.0
  0
LINE
  8
MY3DLAYER
10
21.136530422347
20
32.0411906181192
30
0.0
11
21.1427741987535
21
32.0562644278003
31
0.0
  0
LINE
  8
MY3DLAYER
10
21.1427741987535
20
32.0562644278003
30
0.0
11
21.1449038346104
21
32.0724406181192
31
0.0
  0
LINE
  8
MY3DLAYER
10
21.1449038346104
20
32.0724406181192
30
0.0
11
21.1427741987535
21
32.0886168084381
31
0.0
  0
LINE
  8
MY3DLAYER
10
21.1427741987535
20
32.0886168084381
30
0.0
11
21.136530422347
21
32.1036906181192
31
0.0
  0
LINE
  8
MY3DLAYER
10
21.1265980084346
20
32.1166347919433
30
0.0
11
21.1265980084346
21
35.6230245556833
31
0.0
  0
LINE
  8
MY3DLAYER
10
21.136530422347
20
32.1036906181192
30
0.0
11
21.1265980084346
21
32.1166347919433
31
0.0
  0
LINE
  8
MY3DLAYER
10
21.0382096607863
20
32.028246444295
30
0.0
11
21.0511538346104
21
32.0183140303826
31
0.0
  0
LINE
  8
MY3DLAYER
10
21.0511538346104
20
32.0183140303826
30
0.0
11
21.0662276442915
21
32.0120702539761
31
0.0
  0
LINE
  8
MY3DLAYER
10
21.0662276442915
20
32.0120702539761
30
0.0
11
21.0824038346104
21
32.0099406181192
31
0.0
  0
LINE
  8
MY3DLAYER
10
21.0824038346104
20
32.0099406181192
30
0.0
11
21.0985800249294
21
32.0120702539761
31
0.0
  0
LINE
  8
MY3DLAYER
10
21.0985800249294
20
32.0120702539761
30
0.0
11
21.1136538346104
21
32.0183140303826
31
0.0
  0
LINE
  8
MY3DLAYER
10
21.1136538346104
20
32.0183140303826
30
0.0
11
21.1265980084346
21
32.028246444295
31
0.0
  0
LINE
  8
MY3DLAYER
10
17.443431549398
20
32.028246444295
30
0.0
11
17.4563757232222
21
32.0183140303826
31
0.0
  0
LINE
  8
MY3DLAYER
10
17.4563757232222
20
32.0183140303826
30
0.0
11
17.4714495329032
21
32.0120702539761
31
0.0
  0
LINE
  8
MY3DLAYER
10
17.4714495329032
20
32.0120702539761
30
0.0
11
17.4876257232222
21
32.0099406181192
31
0.0
  0
LINE
  8
MY3DLAYER
10
17.4876257232222
20
32.0099406181192
30
0.0
11
17.5038019135411
21
32.0120702539761
31
0.0
  0
LINE
  8
MY3DLAYER
10
17.5038019135411
20
32.0120702539761
30
0.0
11
17.5188757232222
21
32.0183140303826
31
0.0
  0
LINE
  8
MY3DLAYER
10
17.5318198970463
20
32.028246444295
30
0.0
11
21.0382096607863
21
32.028246444295
31
0.0
  0
LINE
  8
MY3DLAYER
10
17.5188757232222
20
32.0183140303826
30
0.0
11
17.5318198970463
21
32.028246444295
31
0.0
  0
LINE
  8
MY3DLAYER
10
17.443431549398
20
32.1166347919433
30
0.0
11
17.4334991354856
21
32.1036906181192
31
0.0
  0
LINE
  8
MY3DLAYER
10
17.4334991354856
20
32.1036906181192
30
0.0
11
17.4272553590791
21
32.0886168084381
31
0.0
  0
LINE
  8
MY3DLAYER
10
17.4272553590791
20
32.0886168084381
30
0.0
11
17.4251257232222
21
32.0724406181192
31
0.0
  0
LINE
  8
MY3DLAYER
10
17.4251257232222
20
32.0724406181192
30
0.0
11
17.4272553590791
21
32.0562644278003
31
0.0
  0
LINE
  8
MY3DLAYER
10
17.4272553590791
20
32.0562644278003
30
0.0
11
17.4334991354856
21
32.0411906181192
31
0.0
  0
LINE
  8
MY3DLAYER
10
17.4334991354856
20
32.0411906181192
30
0.0
11
17.443431549398
21
32.028246444295
31
0.0
  0
LINE
  8
MY3DLAYER
10
21.1265980084346
20
35.7114129033316
30
0.0
11
21.1136538346104
21
35.721345317244
31
0.0
  0
LINE
  8
MY3DLAYER
10
21.1136538346104
20
35.721345317244
30
0.0
11
21.0985800249294
21
35.7275890936505
31
0.0
  0
LINE
  8
MY3DLAYER
10
21.0985800249294
20
35.7275890936505
30
0.0
11
21.0824038346104
21
35.7297187295075
31
0.0
  0
LINE
  8
MY3DLAYER
10
21.0824038346104
20
35.7297187295075
30
0.0
11
21.0662276442915
21
35.7275890936505
31
0.0
  0
LINE
  8
MY3DLAYER
10
21.0662276442915
20
35.7275890936505
30
0.0
11
21.0511538346104
21
35.721345317244
31
0.0
  0
LINE
  8
MY3DLAYER
10
21.0382096607863
20
35.7114129033316
30
0.0
11
17.5318198970463
21
35.7114129033316
31
0.0
  0
LINE
  8
MY3DLAYER
10
21.0511538346104
20
35.721345317244
30
0.0
11
21.0382096607863
21
35.7114129033316
31
0.0
  0
LINE
  8
MY3DLAYER
10
21.1265980084346
20
35.6230245556833
30
0.0
11
21.136530422347
21
35.6359687295075
31
0.0
  0
LINE
  8
MY3DLAYER
10
21.136530422347
20
35.6359687295075
30
0.0
11
21.1427741987535
21
35.6510425391886
31
0.0
  0
LINE
  8
MY3DLAYER
10
21.1427741987535
20
35.6510425391886
30
0.0
11
21.1449038346104
21
35.6672187295075
31
0.0
  0
LINE
  8
MY3DLAYER
10
21.1449038346104
20
35.6672187295075
30
0.0
11
21.1427741987535
21
35.6833949198264
31
0.0
  0
LINE
  8
MY3DLAYER
10
21.1427741987535
20
35.6833949198264
30
0.0
11
21.136530422347
21
35.6984687295075
31
0.0
  0
LINE
  8
MY3DLAYER
10
21.136530422347
20
35.6984687295075
30
0.0
11
21.1265980084346
21
35.7114129033316
31
0.0
  0
LINE
  8
MY3DLAYER
10
17.443431549398
20
35.7114129033316
30
0.0
11
17.4334991354856
21
35.6984687295075
31
0.0
  0
LINE
  8
MY3DLAYER
10
17.4334991354856
20
35.6984687295075
30
0.0
11
17.4272553590791
21
35.6833949198264
31
0.0
  0
LINE
  8
MY3DLAYER
10
17.4272553590791
20
35.6833949198264
30
0.0
11
17.4251257232222
21
35.6672187295075
31
0.0
  0
LINE
  8
MY3DLAYER
10
17.4251257232222
20
35.6672187295075
30
0.0
11
17.4272553590791
21
35.6510425391886
31
0.0
  0
LINE
  8
MY3DLAYER
10
17.4272553590791
20
35.6510425391886
30
0.0
11
17.4334991354856
21
35.6359687295075
31
0.0
  0
LINE
  8
MY3DLAYER
10
17.443431549398
20
35.6230245556833
30
0.0
11
17.443431549398
21
32.1166347919433
31
0.0
  0
LINE
  8
MY3DLAYER
10
17.4334991354856
20
35.6359687295075
30
0.0
11
17.443431549398
21
35.6230245556833
31
0.0
  0
LINE
  8
MY3DLAYER
10
17.5318198970463
20
35.7114129033316
30
0.0
11
17.5188757232222
21
35.721345317244
31
0.0
  0
LINE
  8
MY3DLAYER
10
17.5188757232222
20
35.721345317244
30
0.0
11
17.5038019135411
21
35.7275890936505
31
0.0
  0
LINE
  8
MY3DLAYER
10
17.5038019135411
20
35.7275890936505
30
0.0
11
17.4876257232222
21
35.7297187295075
31
0.0
  0
LINE
  8
MY3DLAYER
10
17.4876257232222
20
35.7297187295075
30
0.0
11
17.4714495329032
21
35.7275890936505
31
0.0
  0
LINE
  8
MY3DLAYER
10
17.4714495329032
20
35.7275890936505
30
0.0
11
17.4563757232222
21
35.721345317244
31
0.0
  0
LINE
  8
MY3DLAYER
10
17.4563757232222
20
35.721345317244
30
0.0
11
17.443431549398
21
35.7114129033316
31
0.0
  0
LINE
  8
MY3DLAYER
10
26.6717852797009
20
35.7198296738132
30
0.0
11
26.6817176936133
21
35.7327738476374
31
0.0
  0
LINE
  8
MY3DLAYER
10
26.5833969320526
20
35.7198296738133
30
0.0
11
26.4717852797009
21
35.7198296738132
31
0.0
  0
LINE
  8
MY3DLAYER
10
26.6879614700198
20
35.7802000379563
30
0.0
11
26.6817176936133
21
35.7952738476374
31
0.0
  0
LINE
  8
MY3DLAYER
10
26.5963411058767
20
35.7098972599009
30
0.0
11
26.6114149155578
21
35.7036534834943
31
0.0
  0
LINE
  8
MY3DLAYER
10
26.5833969320526
20
35.7198296738133
30
0.0
11
26.5963411058767
21
35.7098972599009
31
0.0
  0
LINE
  8
MY3DLAYER
10
26.6900911058767
20
35.7640238476374
30
0.0
11
26.6879614700198
21
35.7802000379563
31
0.0
  0
LINE
  8
MY3DLAYER
10
26.6817176936133
20
35.7952738476374
30
0.0
11
26.6717852797009
21
35.8082180214616
31
0.0
  0
LINE
  8
MY3DLAYER
10
26.6879614700198
20
35.7478476573185
30
0.0
11
26.6900911058767
21
35.7640238476374
31
0.0
  0
LINE
  8
MY3DLAYER
10
26.671785279701
20
34.6448296738132
30
0.0
11
26.6588411058768
21
34.6547620877256
31
0.0
  0
LINE
  8
MY3DLAYER
10
26.6817176936133
20
35.7327738476374
30
0.0
11
26.6879614700198
21
35.7478476573185
31
0.0
  0
LINE
  8
MY3DLAYER
10
27.408396932053
20
36.5448296738134
30
0.0
11
26.6717852797013
21
36.5448296738139
31
0.0
  0
LINE
  8
MY3DLAYER
10
27.408396932053
20
36.5448296738134
30
0.0
11
27.4213411058771
21
36.534897259901
31
0.0
  0
LINE
  8
MY3DLAYER
10
27.4213411058771
20
36.534897259901
30
0.0
11
27.4364149155582
21
36.5286534834945
31
0.0
  0
LINE
  8
MY3DLAYER
10
27.4364149155582
20
36.5286534834945
30
0.0
11
27.4525911058771
21
36.5265238476375
31
0.0
  0
LINE
  8
MY3DLAYER
10
27.4525911058771
20
36.5265238476375
30
0.0
11
27.468767296196
21
36.5286534834944
31
0.0
  0
LINE
  8
MY3DLAYER
10
27.468767296196
20
36.5286534834944
30
0.0
11
27.4838411058771
21
36.534897259901
31
0.0
  0
LINE
  8
MY3DLAYER
10
27.4838411058771
20
36.534897259901
30
0.0
11
27.4967852797013
21
36.5448296738133
31
0.0
  0
LINE
  8
MY3DLAYER
10
27.4967852797013
20
36.5448296738133
30
0.0
11
27.5067176936137
21
36.5577738476375
31
0.0
  0
LINE
  8
MY3DLAYER
10
27.5067176936137
20
36.5577738476375
30
0.0
11
27.5129614700202
21
36.5728476573186
31
0.0
  0
LINE
  8
MY3DLAYER
10
27.5129614700202
20
36.5728476573186
30
0.0
11
27.5150911058771
21
36.5890238476375
31
0.0
  0
LINE
  8
MY3DLAYER
10
27.5150911058771
20
36.5890238476375
30
0.0
11
27.5129614700202
21
36.6052000379564
31
0.0
  0
LINE
  8
MY3DLAYER
10
27.5129614700202
20
36.6052000379564
30
0.0
11
27.5067176936137
21
36.6202738476375
31
0.0
  0
LINE
  8
MY3DLAYER
10
27.5067176936137
20
36.6202738476375
30
0.0
11
27.4967852797013
21
36.6332180214617
31
0.0
  0
LINE
  8
MY3DLAYER
10
27.4967852797013
20
36.6332180214617
30
0.0
11
27.4967852797013
21
36.7448296738133
31
0.0
  0
LINE
  8
MY3DLAYER
10
28.5717852797012
20
36.7448296738134
30
0.0
11
27.4967852797013
21
36.7448296738133
31
0.0
  0
LINE
  8
MY3DLAYER
10
28.5717852797013
20
36.6332180214617
30
0.0
11
28.5717852797012
21
36.7448296738134
31
0.0
  0
LINE
  8
MY3DLAYER
10
28.5717852797013
20
36.6332180214617
30
0.0
11
28.5618528657889
21
36.6202738476376
31
0.0
  0
LINE
  8
MY3DLAYER
10
28.5618528657889
20
36.6202738476376
30
0.0
11
28.5556090893824
21
36.6052000379565
31
0.0
  0
LINE
  8
MY3DLAYER
10
28.5556090893824
20
36.6052000379565
30
0.0
11
28.5534794535255
21
36.5890238476376
31
0.0
  0
LINE
  8
MY3DLAYER
10
28.5534794535255
20
36.5890238476376
30
0.0
11
28.5556090893824
21
36.5728476573187
31
0.0
  0
LINE
  8
MY3DLAYER
10
28.5556090893824
20
36.5728476573187
30
0.0
11
28.5618528657889
21
36.5577738476376
31
0.0
  0
LINE
  8
MY3DLAYER
10
28.5618528657889
20
36.5577738476376
30
0.0
11
28.5717852797013
21
36.5448296738134
31
0.0
  0
LINE
  8
MY3DLAYER
10
28.5717852797013
20
36.5448296738134
30
0.0
11
28.5847294535255
21
36.534897259901
31
0.0
  0
LINE
  8
MY3DLAYER
10
28.5847294535255
20
36.534897259901
30
0.0
11
28.5998032632066
21
36.5286534834945
31
0.0
  0
LINE
  8
MY3DLAYER
10
28.5998032632066
20
36.5286534834945
30
0.0
11
28.6159794535255
21
36.5265238476376
31
0.0
  0
LINE
  8
MY3DLAYER
10
28.6159794535255
20
36.5265238476376
30
0.0
11
28.6321556438444
21
36.5286534834945
31
0.0
  0
LINE
  8
MY3DLAYER
10
28.6321556438444
20
36.5286534834945
30
0.0
11
28.6472294535255
21
36.534897259901
31
0.0
  0
LINE
  8
MY3DLAYER
10
28.6472294535255
20
36.534897259901
30
0.0
11
28.6601736273496
21
36.5448296738134
31
0.0
  0
LINE
  8
MY3DLAYER
10
33.2833969320529
20
36.5448296738136
30
0.0
11
28.6601736273496
21
36.5448296738134
31
0.0
  0
LINE
  8
MY3DLAYER
10
33.2833969320529
20
36.5448296738136
30
0.0
11
33.2963411058771
21
36.5348972599013
31
0.0
  0
LINE
  8
MY3DLAYER
10
33.2963411058771
20
36.5348972599013
30
0.0
11
33.3114149155582
21
36.5286534834947
31
0.0
  0
LINE
  8
MY3DLAYER
10
33.3114149155582
20
36.5286534834947
30
0.0
11
33.3275911058771
21
36.5265238476378
31
0.0
  0
LINE
  8
MY3DLAYER
10
33.3275911058771
20
36.5265238476378
30
0.0
11
33.343767296196
21
36.5286534834947
31
0.0
  0
LINE
  8
MY3DLAYER
10
33.343767296196
20
36.5286534834947
30
0.0
11
33.3588411058771
21
36.5348972599013
31
0.0
  0
LINE
  8
MY3DLAYER
10
33.3588411058771
20
36.5348972599013
30
0.0
11
33.3717852797013
21
36.5448296738136
31
0.0
  0
LINE
  8
MY3DLAYER
10
33.3717852797013
20
36.5448296738136
30
0.0
11
33.3817176936136
21
36.5577738476378
31
0.0
  0
LINE
  8
MY3DLAYER
10
33.3817176936136
20
36.5577738476378
30
0.0
11
33.3879614700202
21
36.5728476573189
31
0.0
  0
LINE
  8
MY3DLAYER
10
33.3879614700202
20
36.5728476573189
30
0.0
11
33.3900911058771
21
36.5890238476378
31
0.0
  0
LINE
  8
MY3DLAYER
10
33.3900911058771
20
36.5890238476378
30
0.0
11
33.3879614700202
21
36.6052000379567
31
0.0
  0
LINE
  8
MY3DLAYER
10
33.3879614700202
20
36.6052000379567
30
0.0
11
33.3817176936136
21
36.6202738476378
31
0.0
  0
LINE
  8
MY3DLAYER
10
33.3817176936136
20
36.6202738476378
30
0.0
11
33.3717852797013
21
36.633218021462
31
0.0
  0
LINE
  8
MY3DLAYER
10
33.3717852797013
20
36.633218021462
30
0.0
11
33.3717852797012
21
36.7448296738136
31
0.0
  0
LINE
  8
MY3DLAYER
10
34.4467852797012
20
36.7448296738137
30
0.0
11
33.3717852797012
21
36.7448296738136
31
0.0
  0
LINE
  8
MY3DLAYER
10
34.4467852797012
20
36.633218021462
30
0.0
11
34.4467852797012
21
36.7448296738137
31
0.0
  0
LINE
  8
MY3DLAYER
10
34.4467852797012
20
36.633218021462
30
0.0
11
34.4368528657889
21
36.6202738476379
31
0.0
  0
LINE
  8
MY3DLAYER
10
34.4368528657889
20
36.6202738476379
30
0.0
11
34.4306090893823
21
36.6052000379568
31
0.0
  0
LINE
  8
MY3DLAYER
10
34.4306090893823
20
36.6052000379568
30
0.0
11
34.4284794535254
21
36.5890238476379
31
0.0
  0
LINE
  8
MY3DLAYER
10
34.4284794535254
20
36.5890238476379
30
0.0
11
34.4306090893823
21
36.572847657319
31
0.0
  0
LINE
  8
MY3DLAYER
10
34.4306090893823
20
36.572847657319
30
0.0
11
34.4368528657889
21
36.5577738476379
31
0.0
  0
LINE
  8
MY3DLAYER
10
34.4368528657889
20
36.5577738476379
30
0.0
11
34.4467852797012
21
36.5448296738137
31
0.0
  0
LINE
  8
MY3DLAYER
10
34.4467852797012
20
36.5448296738137
30
0.0
11
34.4597294535254
21
36.5348972599013
31
0.0
  0
LINE
  8
MY3DLAYER
10
34.4597294535254
20
36.5348972599013
30
0.0
11
34.4748032632065
21
36.5286534834948
31
0.0
  0
LINE
  8
MY3DLAYER
10
34.4748032632065
20
36.5286534834948
30
0.0
11
34.4909794535254
21
36.5265238476378
31
0.0
  0
LINE
  8
MY3DLAYER
10
34.4909794535254
20
36.5265238476378
30
0.0
11
34.5071556438443
21
36.5286534834948
31
0.0
  0
LINE
  8
MY3DLAYER
10
34.5071556438443
20
36.5286534834948
30
0.0
11
34.5222294535254
21
36.5348972599013
31
0.0
  0
LINE
  8
MY3DLAYER
10
34.5222294535254
20
36.5348972599013
30
0.0
11
34.5351736273495
21
36.5448296738137
31
0.0
  0
LINE
  8
MY3DLAYER
10
35.2717852797012
20
36.5448296738132
30
0.0
11
34.5351736273495
21
36.5448296738137
31
0.0
  0
LINE
  8
MY3DLAYER
10
35.2717852797012
20
35.8082180214615
30
0.0
11
35.2717852797012
21
36.5448296738132
31
0.0
  0
LINE
  8
MY3DLAYER
10
35.2717852797012
20
35.8082180214615
30
0.0
11
35.2618528657889
21
35.7952738476374
31
0.0
  0
LINE
  8
MY3DLAYER
10
35.2618528657889
20
35.7952738476374
30
0.0
11
35.2556090893823
21
35.7802000379563
31
0.0
  0
LINE
  8
MY3DLAYER
10
35.2556090893823
20
35.7802000379563
30
0.0
11
35.2534794535254
21
35.7640238476374
31
0.0
  0
LINE
  8
MY3DLAYER
10
35.2534794535254
20
35.7640238476374
30
0.0
11
35.2556090893823
21
35.7478476573185
31
0.0
  0
LINE
  8
MY3DLAYER
10
35.2556090893823
20
35.7478476573185
30
0.0
11
35.2618528657889
21
35.7327738476374
31
0.0
  0
LINE
  8
MY3DLAYER
10
35.2618528657889
20
35.7327738476374
30
0.0
11
35.2717852797012
21
35.7198296738132
31
0.0
  0
LINE
  8
MY3DLAYER
10
35.2717852797012
20
35.7198296738132
30
0.0
11
35.2847294535254
21
35.7098972599009
31
0.0
  0
LINE
  8
MY3DLAYER
10
35.2847294535254
20
35.7098972599009
30
0.0
11
35.2998032632065
21
35.7036534834943
31
0.0
  0
LINE
  8
MY3DLAYER
10
35.2998032632065
20
35.7036534834943
30
0.0
11
35.3159794535254
21
35.7015238476374
31
0.0
  0
LINE
  8
MY3DLAYER
10
35.3159794535254
20
35.7015238476374
30
0.0
11
35.3321556438443
21
35.7036534834943
31
0.0
  0
LINE
  8
MY3DLAYER
10
35.3321556438443
20
35.7036534834943
30
0.0
11
35.3472294535254
21
35.7098972599009
31
0.0
  0
LINE
  8
MY3DLAYER
10
35.3472294535254
20
35.7098972599009
30
0.0
11
35.3601736273496
21
35.7198296738132
31
0.0
  0
LINE
  8
MY3DLAYER
10
35.3601736273496
20
35.7198296738132
30
0.0
11
35.4717852797012
21
35.7198296738132
31
0.0
  0
LINE
  8
MY3DLAYER
10
35.4717852797012
20
34.6448296738132
30
0.0
11
35.4717852797012
21
35.7198296738132
31
0.0
  0
LINE
  8
MY3DLAYER
10
35.3601736273496
20
34.6448296738132
30
0.0
11
35.4717852797012
21
34.6448296738132
31
0.0
  0
LINE
  8
MY3DLAYER
10
35.3601736273496
20
34.6448296738132
30
0.0
11
35.3472294535254
21
34.6547620877256
31
0.0
  0
LINE
  8
MY3DLAYER
10
35.3472294535254
20
34.6547620877256
30
0.0
11
35.3321556438443
21
34.6610058641322
31
0.0
  0
LINE
  8
MY3DLAYER
10
35.3321556438443
20
34.6610058641322
30
0.0
11
35.3159794535254
21
34.6631354999891
31
0.0
  0
LINE
  8
MY3DLAYER
10
35.3159794535254
20
34.6631354999891
30
0.0
11
35.2998032632065
21
34.6610058641322
31
0.0
  0
LINE
  8
MY3DLAYER
10
35.2998032632065
20
34.6610058641322
30
0.0
11
35.2847294535254
21
34.6547620877256
31
0.0
  0
LINE
  8
MY3DLAYER
10
35.2847294535254
20
34.6547620877256
30
0.0
11
35.2717852797012
21
34.6448296738132
31
0.0
  0
LINE
  8
MY3DLAYER
10
35.2717852797012
20
34.6448296738132
30
0.0
11
35.2618528657889
21
34.6318854999891
31
0.0
  0
LINE
  8
MY3DLAYER
10
35.2618528657889
20
34.6318854999891
30
0.0
11
35.2556090893823
21
34.616811690308
31
0.0
  0
LINE
  8
MY3DLAYER
10
35.2556090893823
20
34.616811690308
30
0.0
11
35.2534794535254
21
34.6006354999891
31
0.0
  0
LINE
  8
MY3DLAYER
10
35.2534794535254
20
34.6006354999891
30
0.0
11
35.2556090893823
21
34.5844593096702
31
0.0
  0
LINE
  8
MY3DLAYER
10
35.2556090893823
20
34.5844593096702
30
0.0
11
35.2618528657889
21
34.5693854999891
31
0.0
  0
LINE
  8
MY3DLAYER
10
35.2618528657889
20
34.5693854999891
30
0.0
11
35.2717852797012
21
34.5564413261649
31
0.0
  0
LINE
  8
MY3DLAYER
10
35.2717852797012
20
29.9332180214616
30
0.0
11
35.2717852797012
21
34.5564413261649
31
0.0
  0
LINE
  8
MY3DLAYER
10
35.2717852797012
20
29.9332180214616
30
0.0
11
35.2618528657889
21
29.9202738476374
31
0.0
  0
LINE
  8
MY3DLAYER
10
35.2618528657889
20
29.9202738476374
30
0.0
11
35.2556090893823
21
29.9052000379564
31
0.0
  0
LINE
  8
MY3DLAYER
10
35.2556090893823
20
29.9052000379564
30
0.0
11
35.2534794535254
21
29.8890238476374
31
0.0
  0
LINE
  8
MY3DLAYER
10
35.2534794535254
20
29.8890238476374
30
0.0
11
35.2556090893823
21
29.8728476573185
31
0.0
  0
LINE
  8
MY3DLAYER
10
35.2556090893823
20
29.8728476573185
30
0.0
11
35.2618528657889
21
29.8577738476374
31
0.0
  0
LINE
  8
MY3DLAYER
10
35.2618528657889
20
29.8577738476374
30
0.0
11
35.2717852797012
21
29.8448296738133
31
0.0
  0
LINE
  8
MY3DLAYER
10
35.2717852797012
20
29.8448296738133
30
0.0
11
35.2847294535254
21
29.8348972599009
31
0.0
  0
LINE
  8
MY3DLAYER
10
35.2847294535254
20
29.8348972599009
30
0.0
11
35.2998032632065
21
29.8286534834944
31
0.0
  0
LINE
  8
MY3DLAYER
10
35.2998032632065
20
29.8286534834944
30
0.0
11
35.3159794535254
21
29.8265238476374
31
0.0
  0
LINE
  8
MY3DLAYER
10
35.3159794535254
20
29.8265238476374
30
0.0
11
35.3321556438443
21
29.8286534834944
31
0.0
  0
LINE
  8
MY3DLAYER
10
35.3321556438443
20
29.8286534834944
30
0.0
11
35.3472294535254
21
29.8348972599009
31
0.0
  0
LINE
  8
MY3DLAYER
10
35.3472294535254
20
29.8348972599009
30
0.0
11
35.3601736273496
21
29.8448296738133
31
0.0
  0
LINE
  8
MY3DLAYER
10
35.3601736273496
20
29.8448296738133
30
0.0
11
35.4717852797012
21
29.8448296738133
31
0.0
  0
LINE
  8
MY3DLAYER
10
35.4717852797012
20
28.7698296738133
30
0.0
11
35.4717852797012
21
29.8448296738133
31
0.0
  0
LINE
  8
MY3DLAYER
10
35.3601736273496
20
28.7698296738133
30
0.0
11
35.4717852797012
21
28.7698296738133
31
0.0
  0
LINE
  8
MY3DLAYER
10
35.3601736273496
20
28.7698296738133
30
0.0
11
35.3472294535254
21
28.7797620877257
31
0.0
  0
LINE
  8
MY3DLAYER
10
35.3472294535254
20
28.7797620877257
30
0.0
11
35.3321556438443
21
28.7860058641322
31
0.0
  0
LINE
  8
MY3DLAYER
10
35.3321556438443
20
28.7860058641322
30
0.0
11
35.3159794535254
21
28.7881354999891
31
0.0
  0
LINE
  8
MY3DLAYER
10
35.3159794535254
20
28.7881354999891
30
0.0
11
35.2998032632065
21
28.7860058641322
31
0.0
  0
LINE
  8
MY3DLAYER
10
35.2998032632065
20
28.7860058641322
30
0.0
11
35.2847294535254
21
28.7797620877257
31
0.0
  0
LINE
  8
MY3DLAYER
10
35.2847294535254
20
28.7797620877257
30
0.0
11
35.2717852797012
21
28.7698296738133
31
0.0
  0
LINE
  8
MY3DLAYER
10
35.2717852797012
20
28.7698296738133
30
0.0
11
35.2618528657889
21
28.7568854999891
31
0.0
  0
LINE
  8
MY3DLAYER
10
35.2618528657889
20
28.7568854999891
30
0.0
11
35.2556090893823
21
28.741811690308
31
0.0
  0
LINE
  8
MY3DLAYER
10
35.2556090893823
20
28.741811690308
30
0.0
11
35.2534794535254
21
28.7256354999891
31
0.0
  0
LINE
  8
MY3DLAYER
10
35.2534794535254
20
28.7256354999891
30
0.0
11
35.2556090893823
21
28.7094593096702
31
0.0
  0
LINE
  8
MY3DLAYER
10
35.2556090893823
20
28.7094593096702
30
0.0
11
35.2618528657889
21
28.6943854999891
31
0.0
  0
LINE
  8
MY3DLAYER
10
35.2618528657889
20
28.6943854999891
30
0.0
11
35.2717852797012
21
28.681441326165
31
0.0
  0
LINE
  8
MY3DLAYER
10
35.2717852797012
20
27.9448296738133
30
0.0
11
35.2717852797012
21
28.681441326165
31
0.0
  0
LINE
  8
MY3DLAYER
10
34.53517362735
20
27.944829673814
30
0.0
11
35.2717852797012
21
27.9448296738133
31
0.0
  0
LINE
  8
MY3DLAYER
10
34.53517362735
20
27.944829673814
30
0.0
11
34.5222294535259
21
27.9547620877264
31
0.0
  0
LINE
  8
MY3DLAYER
10
34.5222294535259
20
27.9547620877264
30
0.0
11
34.5071556438448
21
27.961005864133
31
0.0
  0
LINE
  8
MY3DLAYER
10
34.5071556438448
20
27.961005864133
30
0.0
11
34.4909794535259
21
27.9631354999899
31
0.0
  0
LINE
  8
MY3DLAYER
10
34.4909794535259
20
27.9631354999899
30
0.0
11
34.474803263207
21
27.961005864133
31
0.0
  0
LINE
  8
MY3DLAYER
10
34.474803263207
20
27.961005864133
30
0.0
11
34.4597294535259
21
27.9547620877264
31
0.0
  0
LINE
  8
MY3DLAYER
10
34.4597294535259
20
27.9547620877264
30
0.0
11
34.4467852797017
21
27.9448296738141
31
0.0
  0
LINE
  8
MY3DLAYER
10
34.4467852797017
20
27.9448296738141
30
0.0
11
34.4368528657893
21
27.9318854999899
31
0.0
  0
LINE
  8
MY3DLAYER
10
34.4368528657893
20
27.9318854999899
30
0.0
11
34.4306090893827
21
27.9168116903088
31
0.0
  0
LINE
  8
MY3DLAYER
10
34.4306090893827
20
27.9168116903088
30
0.0
11
34.4284794535258
21
27.9006354999899
31
0.0
  0
LINE
  8
MY3DLAYER
10
34.4284794535258
20
27.9006354999899
30
0.0
11
34.4306090893827
21
27.884459309671
31
0.0
  0
LINE
  8
MY3DLAYER
10
34.4306090893827
20
27.884459309671
30
0.0
11
34.4368528657893
21
27.8693854999899
31
0.0
  0
LINE
  8
MY3DLAYER
10
34.4368528657893
20
27.8693854999899
30
0.0
11
34.4467852797016
21
27.8564413261658
31
0.0
  0
LINE
  8
MY3DLAYER
10
34.4467852797016
20
27.8564413261658
30
0.0
11
34.4467852797017
21
27.7448296738141
31
0.0
  0
LINE
  8
MY3DLAYER
10
33.3717852797017
20
27.7448296738139
30
0.0
11
34.4467852797017
21
27.7448296738141
31
0.0
  0
LINE
  8
MY3DLAYER
10
33.3717852797017
20
27.8564413261656
30
0.0
11
33.3717852797017
21
27.7448296738139
31
0.0
  0
LINE
  8
MY3DLAYER
10
33.3717852797017
20
27.8564413261656
30
0.0
11
33.3817176936141
21
27.8693854999897
31
0.0
  0
LINE
  8
MY3DLAYER
10
33.3817176936141
20
27.8693854999897
30
0.0
11
33.3879614700206
21
27.8844593096708
31
0.0
  0
LINE
  8
MY3DLAYER
10
33.3879614700206
20
27.8844593096708
30
0.0
11
33.3900911058775
21
27.9006354999897
31
0.0
  0
LINE
  8
MY3DLAYER
10
33.3900911058775
20
27.9006354999897
30
0.0
11
33.3879614700206
21
27.9168116903086
31
0.0
  0
LINE
  8
MY3DLAYER
10
33.3879614700206
20
27.9168116903086
30
0.0
11
33.3817176936141
21
27.9318854999897
31
0.0
  0
LINE
  8
MY3DLAYER
10
33.3817176936141
20
27.9318854999897
30
0.0
11
33.3717852797017
21
27.9448296738139
31
0.0
  0
LINE
  8
MY3DLAYER
10
33.3717852797017
20
27.9448296738139
30
0.0
11
33.3588411058775
21
27.9547620877263
31
0.0
  0
LINE
  8
MY3DLAYER
10
33.3588411058775
20
27.9547620877263
30
0.0
11
33.3437672961964
21
27.9610058641328
31
0.0
  0
LINE
  8
MY3DLAYER
10
33.3437672961964
20
27.9610058641328
30
0.0
11
33.3275911058775
21
27.9631354999897
31
0.0
  0
LINE
  8
MY3DLAYER
10
33.3275911058775
20
27.9631354999897
30
0.0
11
33.3114149155586
21
27.9610058641328
31
0.0
  0
LINE
  8
MY3DLAYER
10
33.3114149155586
20
27.9610058641328
30
0.0
11
33.2963411058775
21
27.9547620877262
31
0.0
  0
LINE
  8
MY3DLAYER
10
33.2963411058775
20
27.9547620877262
30
0.0
11
33.2833969320534
21
27.9448296738139
31
0.0
  0
LINE
  8
MY3DLAYER
10
28.6601736273501
20
27.9448296738132
30
0.0
11
33.2833969320534
21
27.9448296738139
31
0.0
  0
LINE
  8
MY3DLAYER
10
28.6601736273501
20
27.9448296738132
30
0.0
11
28.6472294535259
21
27.9547620877255
31
0.0
  0
LINE
  8
MY3DLAYER
10
28.6472294535259
20
27.9547620877255
30
0.0
11
28.6321556438448
21
27.9610058641321
31
0.0
  0
LINE
  8
MY3DLAYER
10
28.6321556438448
20
27.9610058641321
30
0.0
11
28.6159794535259
21
27.963135499989
31
0.0
  0
LINE
  8
MY3DLAYER
10
28.6159794535259
20
27.963135499989
30
0.0
11
28.599803263207
21
27.9610058641321
31
0.0
  0
LINE
  8
MY3DLAYER
10
28.599803263207
20
27.9610058641321
30
0.0
11
28.5847294535259
21
27.9547620877255
31
0.0
  0
LINE
  8
MY3DLAYER
10
28.5847294535259
20
27.9547620877255
30
0.0
11
28.5717852797018
21
27.9448296738132
31
0.0
  0
LINE
  8
MY3DLAYER
10
28.5717852797018
20
27.9448296738132
30
0.0
11
28.5618528657894
21
27.931885499989
31
0.0
  0
LINE
  8
MY3DLAYER
10
28.5618528657894
20
27.931885499989
30
0.0
11
28.5556090893829
21
27.9168116903079
31
0.0
  0
LINE
  8
MY3DLAYER
10
28.5556090893829
20
27.9168116903079
30
0.0
11
28.5534794535259
21
27.900635499989
31
0.0
  0
LINE
  8
MY3DLAYER
10
28.5534794535259
20
27.900635499989
30
0.0
11
28.5556090893829
21
27.8844593096701
31
0.0
  0
LINE
  8
MY3DLAYER
10
28.5556090893829
20
27.8844593096701
30
0.0
11
28.5618528657894
21
27.869385499989
31
0.0
  0
LINE
  8
MY3DLAYER
10
28.5618528657894
20
27.869385499989
30
0.0
11
28.5717852797018
21
27.8564413261648
31
0.0
  0
LINE
  8
MY3DLAYER
10
28.5717852797018
20
27.8564413261648
30
0.0
11
28.5717852797018
21
27.7448296738132
31
0.0
  0
LINE
  8
MY3DLAYER
10
27.4967852797018
20
27.744829673813
30
0.0
11
28.5717852797018
21
27.7448296738132
31
0.0
  0
LINE
  8
MY3DLAYER
10
27.4967852797018
20
27.8564413261647
30
0.0
11
27.4967852797018
21
27.744829673813
31
0.0
  0
LINE
  8
MY3DLAYER
10
27.4967852797018
20
27.8564413261647
30
0.0
11
27.5067176936142
21
27.8693854999888
31
0.0
  0
LINE
  8
MY3DLAYER
10
27.5067176936142
20
27.8693854999888
30
0.0
11
27.5129614700207
21
27.8844593096699
31
0.0
  0
LINE
  8
MY3DLAYER
10
27.5129614700207
20
27.8844593096699
30
0.0
11
27.5150911058776
21
27.9006354999888
31
0.0
  0
LINE
  8
MY3DLAYER
10
27.5150911058776
20
27.9006354999888
30
0.0
11
27.5129614700207
21
27.9168116903077
31
0.0
  0
LINE
  8
MY3DLAYER
10
27.5129614700207
20
27.9168116903077
30
0.0
11
27.5067176936142
21
27.9318854999888
31
0.0
  0
LINE
  8
MY3DLAYER
10
27.5067176936142
20
27.9318854999888
30
0.0
11
27.4967852797018
21
27.944829673813
31
0.0
  0
LINE
  8
MY3DLAYER
10
27.4967852797018
20
27.944829673813
30
0.0
11
27.4838411058776
21
27.9547620877253
31
0.0
  0
LINE
  8
MY3DLAYER
10
27.4838411058776
20
27.9547620877253
30
0.0
11
27.4687672961965
21
27.9610058641319
31
0.0
  0
LINE
  8
MY3DLAYER
10
27.4687672961965
20
27.9610058641319
30
0.0
11
27.4525911058776
21
27.9631354999888
31
0.0
  0
LINE
  8
MY3DLAYER
10
27.4525911058776
20
27.9631354999888
30
0.0
11
27.4364149155587
21
27.9610058641319
31
0.0
  0
LINE
  8
MY3DLAYER
10
27.4364149155587
20
27.9610058641319
30
0.0
11
27.4213411058776
21
27.9547620877253
31
0.0
  0
LINE
  8
MY3DLAYER
10
27.4213411058776
20
27.9547620877253
30
0.0
11
27.4083969320535
21
27.944829673813
31
0.0
  0
LINE
  8
MY3DLAYER
10
26.6717852797013
20
27.9448296738131
30
0.0
11
27.4083969320535
21
27.944829673813
31
0.0
  0
LINE
  8
MY3DLAYER
10
26.6717852797016
20
28.681441326165
30
0.0
11
26.6717852797013
21
27.9448296738131
31
0.0
  0
LINE
  8
MY3DLAYER
10
26.6717852797016
20
28.681441326165
30
0.0
11
26.6817176936139
21
28.6943854999891
31
0.0
  0
LINE
  8
MY3DLAYER
10
26.6817176936139
20
28.6943854999891
30
0.0
11
26.6879614700205
21
28.7094593096702
31
0.0
  0
LINE
  8
MY3DLAYER
10
26.6879614700205
20
28.7094593096702
30
0.0
11
26.6900911058774
21
28.7256354999891
31
0.0
  0
LINE
  8
MY3DLAYER
10
26.6900911058774
20
28.7256354999891
30
0.0
11
26.6879614700205
21
28.7418116903081
31
0.0
  0
LINE
  8
MY3DLAYER
10
26.6879614700205
20
28.7418116903081
30
0.0
11
26.681717693614
21
28.7568854999891
31
0.0
  0
LINE
  8
MY3DLAYER
10
26.681717693614
20
28.7568854999891
30
0.0
11
26.6717852797016
21
28.7698296738133
31
0.0
  0
LINE
  8
MY3DLAYER
10
26.6717852797016
20
28.7698296738133
30
0.0
11
26.6588411058774
21
28.7797620877257
31
0.0
  0
LINE
  8
MY3DLAYER
10
26.6588411058774
20
28.7797620877257
30
0.0
11
26.6437672961963
21
28.7860058641322
31
0.0
  0
LINE
  8
MY3DLAYER
10
26.6437672961963
20
28.7860058641322
30
0.0
11
26.6275911058774
21
28.7881354999892
31
0.0
  0
LINE
  8
MY3DLAYER
10
26.6275911058774
20
28.7881354999892
30
0.0
11
26.6114149155585
21
28.7860058641322
31
0.0
  0
LINE
  8
MY3DLAYER
10
26.6114149155585
20
28.7860058641322
30
0.0
11
26.5963411058774
21
28.7797620877257
31
0.0
  0
LINE
  8
MY3DLAYER
10
26.5963411058774
20
28.7797620877257
30
0.0
11
26.5833969320533
21
28.7698296738133
31
0.0
  0
LINE
  8
MY3DLAYER
10
26.5833969320533
20
28.7698296738133
30
0.0
11
26.4717852797016
21
28.7698296738133
31
0.0
  0
LINE
  8
MY3DLAYER
10
26.4717852797015
20
29.8448296738133
30
0.0
11
26.4717852797016
21
28.7698296738133
31
0.0
  0
LINE
  8
MY3DLAYER
10
26.5833969320532
20
29.8448296738133
30
0.0
11
26.4717852797015
21
29.8448296738133
31
0.0
  0
LINE
  8
MY3DLAYER
10
26.5833969320532
20
29.8448296738133
30
0.0
11
26.5963411058773
21
29.8348972599009
31
0.0
  0
LINE
  8
MY3DLAYER
10
26.5963411058773
20
29.8348972599009
30
0.0
11
26.6114149155584
21
29.8286534834944
31
0.0
  0
LINE
  8
MY3DLAYER
10
26.6114149155584
20
29.8286534834944
30
0.0
11
26.6275911058773
21
29.8265238476374
31
0.0
  0
LINE
  8
MY3DLAYER
10
26.6275911058773
20
29.8265238476374
30
0.0
11
26.6437672961962
21
29.8286534834944
31
0.0
  0
LINE
  8
MY3DLAYER
10
26.6437672961962
20
29.8286534834944
30
0.0
11
26.6588411058773
21
29.8348972599009
31
0.0
  0
LINE
  8
MY3DLAYER
10
26.6588411058773
20
29.8348972599009
30
0.0
11
26.6717852797015
21
29.8448296738133
31
0.0
  0
LINE
  8
MY3DLAYER
10
26.6717852797015
20
29.8448296738133
30
0.0
11
26.6817176936138
21
29.8577738476375
31
0.0
  0
LINE
  8
MY3DLAYER
10
26.6817176936138
20
29.8577738476375
30
0.0
11
26.6879614700204
21
29.8728476573185
31
0.0
  0
LINE
  8
MY3DLAYER
10
26.6879614700204
20
29.8728476573185
30
0.0
11
26.6900911058773
21
29.8890238476375
31
0.0
  0
LINE
  8
MY3DLAYER
10
26.6900911058773
20
29.8890238476375
30
0.0
11
26.6879614700204
21
29.9052000379564
31
0.0
  0
LINE
  8
MY3DLAYER
10
26.6879614700204
20
29.9052000379564
30
0.0
11
26.6817176936138
21
29.9202738476375
31
0.0
  0
LINE
  8
MY3DLAYER
10
26.6817176936138
20
29.9202738476375
30
0.0
11
26.6717852797015
21
29.9332180214616
31
0.0
  0
LINE
  8
MY3DLAYER
10
26.671785279701
20
34.5564413261649
30
0.0
11
26.6717852797015
21
29.9332180214616
31
0.0
  0
LINE
  8
MY3DLAYER
10
26.671785279701
20
34.5564413261649
30
0.0
11
26.6817176936134
21
34.5693854999891
31
0.0
  0
LINE
  8
MY3DLAYER
10
26.6817176936134
20
34.5693854999891
30
0.0
11
26.6879614700199
21
34.5844593096702
31
0.0
  0
LINE
  8
MY3DLAYER
10
26.6879614700199
20
34.5844593096702
30
0.0
11
26.6900911058768
21
34.6006354999891
31
0.0
  0
LINE
  8
MY3DLAYER
10
26.6900911058768
20
34.6006354999891
30
0.0
11
26.6879614700199
21
34.616811690308
31
0.0
  0
LINE
  8
MY3DLAYER
10
26.6879614700199
20
34.616811690308
30
0.0
11
26.6817176936134
21
34.6318854999891
31
0.0
  0
LINE
  8
MY3DLAYER
10
26.6817176936134
20
34.6318854999891
30
0.0
11
26.671785279701
21
34.6448296738132
31
0.0
  0
LINE
  8
MY3DLAYER
10
26.6588411058768
20
34.6547620877256
30
0.0
11
26.6437672961957
21
34.6610058641322
31
0.0
  0
LINE
  8
MY3DLAYER
10
26.6437672961957
20
34.6610058641322
30
0.0
11
26.6275911058768
21
34.6631354999891
31
0.0
  0
LINE
  8
MY3DLAYER
10
26.6275911058768
20
34.6631354999891
30
0.0
11
26.6114149155579
21
34.6610058641322
31
0.0
  0
LINE
  8
MY3DLAYER
10
26.6114149155579
20
34.6610058641322
30
0.0
11
26.5963411058768
21
34.6547620877256
31
0.0
  0
LINE
  8
MY3DLAYER
10
26.5963411058768
20
34.6547620877256
30
0.0
11
26.5833969320527
21
34.6448296738132
31
0.0
  0
LINE
  8
MY3DLAYER
10
26.5833969320527
20
34.6448296738132
30
0.0
11
26.471785279701
21
34.6448296738132
31
0.0
  0
LINE
  8
MY3DLAYER
10
26.4717852797009
20
35.7198296738132
30
0.0
11
26.471785279701
21
34.6448296738132
31
0.0
  0
LINE
  8
MY3DLAYER
10
26.6114149155578
20
35.7036534834943
30
0.0
11
26.6275911058767
21
35.7015238476374
31
0.0
  0
LINE
  8
MY3DLAYER
10
26.6275911058767
20
35.7015238476374
30
0.0
11
26.6437672961956
21
35.7036534834943
31
0.0
  0
LINE
  8
MY3DLAYER
10
26.6437672961956
20
35.7036534834943
30
0.0
11
26.6588411058767
21
35.7098972599009
31
0.0
  0
LINE
  8
MY3DLAYER
10
26.6588411058767
20
35.7098972599009
30
0.0
11
26.6717852797009
21
35.7198296738132
31
0.0
  0
LINE
  8
MY3DLAYER
10
26.6717852797013
20
36.5448296738139
30
0.0
11
26.6717852797009
21
35.8082180214616
31
0.0
  0
LINE
  8
MY3DLAYER
10
28.8217852797015
20
31.1698296738135
30
0.0
11
28.8217852797014
21
33.3198296738135
31
0.0
  0
LINE
  8
MY3DLAYER
10
29.8967852797014
20
34.3948296738135
30
0.0
11
32.0467852797014
21
34.3948296738136
31
0.0
  0
LINE
  8
MY3DLAYER
10
33.1217852797015
20
33.3198296738136
30
0.0
11
33.1217852797016
21
31.1698296738136
31
0.0
  0
LINE
  8
MY3DLAYER
10
32.0467852797016
20
30.0948296738135
30
0.0
11
29.8967852797016
21
30.0948296738135
31
0.0
  0
LINE
  8
MY3DLAYER
10
32.0467852797014
20
34.3948296738136
30
0.0
11
32.187100936338
21
34.3856328997905
31
0.0
  0
LINE
  8
MY3DLAYER
10
32.187100936338
20
34.3856328997905
30
0.0
11
32.3250157531867
21
34.3581999370744
31
0.0
  0
LINE
  8
MY3DLAYER
10
32.3250157531867
20
34.3581999370744
30
0.0
11
32.4581699694939
21
34.3130001712632
31
0.0
  0
LINE
  8
MY3DLAYER
10
32.4581699694939
20
34.3130001712632
30
0.0
11
32.5842852797015
21
34.2508069828819
31
0.0
  0
LINE
  8
MY3DLAYER
10
32.5842852797015
20
34.2508069828819
30
0.0
11
32.7012038158858
21
34.1726845146267
31
0.0
  0
LINE
  8
MY3DLAYER
10
32.7012038158858
20
34.1726845146267
30
0.0
11
32.806925069477
21
34.0799694635892
31
0.0
  0
LINE
  8
MY3DLAYER
10
32.806925069477
20
34.0799694635892
30
0.0
11
32.8996401205146
21
33.974248209998
31
0.0
  0
LINE
  8
MY3DLAYER
10
32.8996401205146
20
33.974248209998
30
0.0
11
32.9777625887698
21
33.8573296738136
31
0.0
  0
LINE
  8
MY3DLAYER
10
32.9777625887698
20
33.8573296738136
30
0.0
11
33.0399557771511
21
33.7312143636061
31
0.0
  0
LINE
  8
MY3DLAYER
10
33.0399557771511
20
33.7312143636061
30
0.0
11
33.0851555429623
21
33.5980601472988
31
0.0
  0
LINE
  8
MY3DLAYER
10
33.0851555429623
20
33.5980601472988
30
0.0
11
33.1125885056783
21
33.4601453304501
31
0.0
  0
LINE
  8
MY3DLAYER
10
33.1125885056783
20
33.4601453304501
30
0.0
11
33.1217852797015
21
33.3198296738136
31
0.0
  0
LINE
  8
MY3DLAYER
10
32.1871009363381
20
30.1040264478367
30
0.0
11
32.0467852797016
21
30.0948296738135
31
0.0
  0
LINE
  8
MY3DLAYER
10
32.5842852797016
20
30.2388523647453
30
0.0
11
32.4581699694941
21
30.1766591763639
31
0.0
  0
LINE
  8
MY3DLAYER
10
33.1217852797016
20
31.1698296738136
30
0.0
11
33.1125885056784
21
31.029514017177
31
0.0
  0
LINE
  8
MY3DLAYER
10
32.9777625887699
20
30.6323296738136
30
0.0
11
32.8996401205147
21
30.5154111376292
31
0.0
  0
LINE
  8
MY3DLAYER
10
33.0851555429623
20
30.8915992003284
30
0.0
11
33.0399557771512
21
30.7584449840211
31
0.0
  0
LINE
  8
MY3DLAYER
10
33.1125885056784
20
31.029514017177
30
0.0
11
33.0851555429623
21
30.8915992003284
31
0.0
  0
LINE
  8
MY3DLAYER
10
32.701203815886
20
30.3169748330004
30
0.0
11
32.5842852797016
21
30.2388523647453
31
0.0
  0
LINE
  8
MY3DLAYER
10
32.4581699694941
20
30.1766591763639
30
0.0
11
32.3250157531868
21
30.1314594105528
31
0.0
  0
LINE
  8
MY3DLAYER
10
32.8069250694771
20
30.409689884038
30
0.0
11
32.701203815886
21
30.3169748330004
31
0.0
  0
LINE
  8
MY3DLAYER
10
32.3250157531868
20
30.1314594105528
30
0.0
11
32.1871009363381
21
30.1040264478367
31
0.0
  0
LINE
  8
MY3DLAYER
10
33.0399557771512
20
30.7584449840211
30
0.0
11
32.9777625887699
21
30.6323296738136
31
0.0
  0
LINE
  8
MY3DLAYER
10
32.8996401205147
20
30.5154111376292
30
0.0
11
32.8069250694771
21
30.409689884038
31
0.0
  0
LINE
  8
MY3DLAYER
10
28.9036147822519
20
30.758444984021
30
0.0
11
28.8584150164408
21
30.8915992003283
31
0.0
  0
LINE
  8
MY3DLAYER
10
29.6185548062164
20
30.1314594105527
30
0.0
11
29.4854005899091
21
30.1766591763638
31
0.0
  0
LINE
  8
MY3DLAYER
10
28.8309820537247
20
31.0295140171769
30
0.0
11
28.8217852797015
21
31.1698296738135
31
0.0
  0
LINE
  8
MY3DLAYER
10
29.136645489926
20
30.4096898840379
30
0.0
11
29.0439304388884
21
30.5154111376291
31
0.0
  0
LINE
  8
MY3DLAYER
10
28.8584150164408
20
30.8915992003283
30
0.0
11
28.8309820537247
21
31.0295140171769
31
0.0
  0
LINE
  8
MY3DLAYER
10
28.9658079706333
20
30.6323296738135
30
0.0
11
28.9036147822519
21
30.758444984021
31
0.0
  0
LINE
  8
MY3DLAYER
10
29.4854005899091
20
30.1766591763638
30
0.0
11
29.3592852797016
21
30.2388523647452
31
0.0
  0
LINE
  8
MY3DLAYER
10
29.756469623065
20
30.1040264478366
30
0.0
11
29.6185548062164
21
30.1314594105527
31
0.0
  0
LINE
  8
MY3DLAYER
10
29.0439304388884
20
30.5154111376291
30
0.0
11
28.9658079706333
21
30.6323296738135
31
0.0
  0
LINE
  8
MY3DLAYER
10
29.2423667435172
20
30.3169748330004
30
0.0
11
29.136645489926
21
30.4096898840379
31
0.0
  0
LINE
  8
MY3DLAYER
10
29.3592852797016
20
30.2388523647452
30
0.0
11
29.2423667435172
21
30.3169748330004
31
0.0
  0
LINE
  8
MY3DLAYER
10
29.8967852797016
20
30.0948296738135
30
0.0
11
29.756469623065
21
30.1040264478366
31
0.0
  0
LINE
  8
MY3DLAYER
10
29.7564696230649
20
34.3856328997904
30
0.0
11
29.8967852797014
21
34.3948296738135
31
0.0
  0
LINE
  8
MY3DLAYER
10
29.0439304388883
20
33.9742482099979
30
0.0
11
29.1366454899259
21
34.0799694635891
31
0.0
  0
LINE
  8
MY3DLAYER
10
28.8584150164407
20
33.5980601472987
30
0.0
11
28.9036147822518
21
33.731214363606
31
0.0
  0
LINE
  8
MY3DLAYER
10
28.8217852797014
20
33.3198296738135
30
0.0
11
28.8309820537246
21
33.46014533045
31
0.0
  0
LINE
  8
MY3DLAYER
10
29.1366454899259
20
34.0799694635891
30
0.0
11
29.2423667435171
21
34.1726845146266
31
0.0
  0
LINE
  8
MY3DLAYER
10
29.3592852797014
20
34.2508069828818
30
0.0
11
29.485400589909
21
34.3130001712631
31
0.0
  0
LINE
  8
MY3DLAYER
10
29.485400589909
20
34.3130001712631
30
0.0
11
29.6185548062162
21
34.3581999370743
31
0.0
  0
LINE
  8
MY3DLAYER
10
28.8309820537246
20
33.46014533045
30
0.0
11
28.8584150164407
21
33.5980601472987
31
0.0
  0
LINE
  8
MY3DLAYER
10
28.9658079706332
20
33.8573296738135
30
0.0
11
29.0439304388883
21
33.9742482099979
31
0.0
  0
LINE
  8
MY3DLAYER
10
28.9036147822518
20
33.731214363606
30
0.0
11
28.9658079706332
21
33.8573296738135
31
0.0
  0
LINE
  8
MY3DLAYER
10
29.2423667435171
20
34.1726845146266
30
0.0
11
29.3592852797014
21
34.2508069828818
31
0.0
  0
LINE
  8
MY3DLAYER
10
29.6185548062162
20
34.3581999370743
30
0.0
11
29.7564696230649
21
34.3856328997904
31
0.0
  0
ENDSEC
  0
EOF
